  0
SECTION
  2
HEADER
  9
$ACADVER
  1
AC1009
  9
$INSBASE
 10
5097.8255929796277997
 20
274.058510883725603
 30
0.0
  9
$EXTMIN
 10
5076.336772984423078
 20
274.044274607298405
 30
-0.0000000349181948
  9
$EXTMAX
 10
5119.5507978690220625
 20
349.7085700468991831
 30
0.0000000814935746
  9
$LIMMIN
 10
0.0
 20
0.0
  9
$LIMMAX
 10
11.6929133858000007
 20
8.2677165353999982
  9
$ORTHOMODE
 70
     0
  9
$REGENMODE
 70
     1
  9
$FILLMODE
 70
     1
  9
$QTEXTMODE
 70
     0
  9
$MIRRTEXT
 70
     0
  9
$DRAGMODE
 70
     2
  9
$LTSCALE
 40
0.6431102362
  9
$OSMODE
 70
  4095
  9
$ATTMODE
 70
     1
  9
$TEXTSIZE
 40
0.2
  9
$TRACEWID
 40
0.05
  9
$TEXTSTYLE
  7
STANDARD
  9
$CLAYER
  8
0
  9
$CELTYPE
  6
BYLAYER
  9
$CECOLOR
 62
   256
  9
$DIMSCALE
 40
1.0
  9
$DIMASZ
 40
0.1875
  9
$DIMEXO
 40
0.0625
  9
$DIMDLI
 40
0.4443307087
  9
$DIMRND
 40
0.0
  9
$DIMDLE
 40
0.0
  9
$DIMEXE
 40
0.125
  9
$DIMTP
 40
0.01
  9
$DIMTM
 40
0.01
  9
$DIMTXT
 40
2.0
  9
$DIMCEN
 40
0.1052362205
  9
$DIMTSZ
 40
0.0
  9
$DIMTOL
 70
     1
  9
$DIMLIM
 70
     0
  9
$DIMTIH
 70
     1
  9
$DIMTOH
 70
     1
  9
$DIMSE1
 70
     0
  9
$DIMSE2
 70
     0
  9
$DIMTAD
 70
     0
  9
$DIMZIN
 70
     0
  9
$DIMBLK
  1

  9
$DIMASO
 70
     1
  9
$DIMSHO
 70
     1
  9
$DIMPOST
  1
\X
  9
$DIMAPOST
  1

  9
$DIMALT
 70
     1
  9
$DIMALTD
 70
     2
  9
$DIMALTF
 40
25.3999999999999986
  9
$DIMLFAC
 40
1.0
  9
$DIMTOFL
 70
     0
  9
$DIMTVP
 40
0.0
  9
$DIMTIX
 70
     0
  9
$DIMSOXD
 70
     0
  9
$DIMSAH
 70
     0
  9
$DIMBLK1
  1

  9
$DIMBLK2
  1

  9
$DIMSTYLE
  2
STANDARD
  9
$DIMCLRD
 70
     0
  9
$DIMCLRE
 70
     0
  9
$DIMCLRT
 70
     0
  9
$DIMTFAC
 40
1.0
  9
$DIMGAP
 40
0.09
  9
$LUNITS
 70
     2
  9
$LUPREC
 70
     4
  9
$SKETCHINC
 40
0.1
  9
$FILLETRAD
 40
0.0
  9
$AUNITS
 70
     0
  9
$AUPREC
 70
     0
  9
$MENU
  1
.
  9
$ELEVATION
 40
0.0
  9
$PELEVATION
 40
0.0
  9
$THICKNESS
 40
0.0
  9
$LIMCHECK
 70
     0
  9
$BLIPMODE
 70
     0
  9
$CHAMFERA
 40
0.0
  9
$CHAMFERB
 40
0.0
  9
$SKPOLY
 70
     0
  9
$TDCREATE
 40
2458060.468368056230247
  9
$TDUPDATE
 40
2459177.4576041661202908
  9
$TDINDWG
 40
0.3545903935
  9
$TDUSRTIMER
 40
0.3545903935
  9
$USRTIMER
 70
     1
  9
$ANGBASE
 50
0.0
  9
$ANGDIR
 70
     0
  9
$PDMODE
 70
     0
  9
$PDSIZE
 40
0.3125
  9
$PLINEWID
 40
0.0
  9
$COORDS
 70
     1
  9
$SPLFRAME
 70
     0
  9
$SPLINETYPE
 70
     6
  9
$SPLINESEGS
 70
     8
  9
$ATTDIA
 70
     1
  9
$ATTREQ
 70
     1
  9
$HANDLING
 70
     1
  9
$HANDSEED
  5
D605
  9
$SURFTAB1
 70
     6
  9
$SURFTAB2
 70
     6
  9
$SURFTYPE
 70
     6
  9
$SURFU
 70
     6
  9
$SURFV
 70
     6
  9
$UCSNAME
  2

  9
$UCSORG
 10
0.0
 20
0.0
 30
0.0
  9
$UCSXDIR
 10
1.0
 20
0.0
 30
0.0
  9
$UCSYDIR
 10
0.0
 20
1.0
 30
0.0
  9
$PUCSNAME
  2

  9
$PUCSORG
 10
0.0
 20
0.0
 30
0.0
  9
$PUCSXDIR
 10
1.0
 20
0.0
 30
0.0
  9
$PUCSYDIR
 10
0.0
 20
1.0
 30
0.0
  9
$USERI1
 70
     0
  9
$USERI2
 70
     0
  9
$USERI3
 70
     0
  9
$USERI4
 70
     0
  9
$USERI5
 70
     0
  9
$USERR1
 40
0.0
  9
$USERR2
 40
0.0
  9
$USERR3
 40
0.0
  9
$USERR4
 40
0.0
  9
$USERR5
 40
0.0
  9
$WORLDVIEW
 70
     1
  9
$SHADEDGE
 70
     3
  9
$SHADEDIF
 70
    70
  9
$TILEMODE
 70
     1
  9
$MAXACTVP
 70
    64
  9
$PLIMCHECK
 70
     0
  9
$PEXTMIN
 10
1.0000000000000000E+20
 20
1.0000000000000000E+20
 30
1.0000000000000000E+20
  9
$PEXTMAX
 10
-1.0000000000000000E+20
 20
-1.0000000000000000E+20
 30
-1.0000000000000000E+20
  9
$PLIMMIN
 10
0.0
 20
0.0
  9
$PLIMMAX
 10
12.0
 20
9.0
  9
$UNITMODE
 70
     0
  9
$VISRETAIN
 70
     1
  9
$PLINEGEN
 70
     0
  9
$PSLTSCALE
 70
     1
  0
ENDSEC
  0
SECTION
  2
TABLES
  0
TABLE
  2
VPORT
 70
     1
  0
VPORT
  2
*ACTIVE
 70
     0
 10
0.0
 20
0.0
 11
1.0
 21
1.0
 12
157.7134999953186139
 22
-2.396573412545365
 13
0.0
 23
0.0
 14
1.0
 24
1.0
 15
0.0
 25
0.0
 16
0.0
 26
0.0
 36
326.4906812651062182
 17
4940.2302854314038996
 27
314.272995739644216
 37
0.0
 40
76.6281718146275352
 41
2.887234042553191
 42
50.0
 43
0.0
 44
0.0
 50
0.0
 51
0.0
 71
     0
 72
   100
 73
     1
 74
     1
 75
     0
 76
     0
 77
     0
 78
     0
  0
ENDTAB
  0
TABLE
  2
LTYPE
 70
     2
  0
LTYPE
  2
CONTINUOUS
 70
     0
  3
Solid line
 72
    65
 73
     0
 40
0.0
  0
LTYPE
  2
PHANTOM2
 70
     0
  3
___ _ _ ___ _ _ ___ _ _ ___ _ _
 72
    65
 73
     6
 40
1.25
 49
0.625
 49
-0.125
 49
0.125
 49
-0.125
 49
0.125
 49
-0.125
  0
ENDTAB
  0
TABLE
  2
LAYER
 70
     2
  0
LAYER
  2
0
 70
     0
 62
   255
  6
CONTINUOUS
  0
LAYER
  2
DEFPOINTS
 70
     0
 62
     7
  6
CONTINUOUS
  0
ENDTAB
  0
TABLE
  2
STYLE
 70
     1
  0
STYLE
  2
STANDARD
 70
     0
 40
0.0
 41
0.8
 50
0.0
 71
     0
 42
0.2
  3
txt
  4

  0
ENDTAB
  0
TABLE
  2
VIEW
 70
     0
  0
ENDTAB
  0
TABLE
  2
UCS
 70
     0
  0
ENDTAB
  0
TABLE
  2
APPID
 70
     9
  0
APPID
  2
ACAD
 70
     0
  0
APPID
  2
ACAD_MLEADERVER
 70
     0
  0
APPID
  2
ACAD_EXEMPT_FROM_CAD_STANDARDS
 70
     0
  0
APPID
  2
ACAD_NAV_VCDISPLAY
 70
     0
  0
APPID
  2
ACAECLAYERSTANDARD
 70
     0
  0
APPID
  2
ACCMTRANSPARENCY
 70
     0
  0
APPID
  2
ACAD_DSTYLE_DIMJAG
 70
     0
  0
APPID
  2
ACAD_DSTYLE_DIMTALN
 70
     0
  0
APPID
  2
ACDBATTR
 70
     0
  0
ENDTAB
  0
TABLE
  2
DIMSTYLE
 70
     1
  0
DIMSTYLE
  2
STANDARD
 70
     0
  3

  4

  5

  6

  7

 40
1.0
 41
0.1875
 42
0.0625
 43
0.38
 44
0.125
 45
0.0
 46
0.0
 47
0.01
 48
0.01
140
0.15625
141
0.09
142
0.0
143
25.3999999999999986
144
1.0
145
0.0
146
1.0
147
0.09
 71
     1
 72
     0
 73
     1
 74
     1
 75
     0
 76
     0
 77
     0
 78
     4
170
     0
171
     2
172
     0
173
     0
174
     0
175
     0
176
     0
177
     0
178
     0
  0
ENDTAB
  0
ENDSEC
  0
SECTION
  2
BLOCKS
  0
BLOCK
  8
0
  2
$MODEL_SPACE
 70
     0
 10
0.0
 20
0.0
 30
0.0
  3
$MODEL_SPACE
  1

  0
ENDBLK
  5
21
  8
0
  0
BLOCK
 67
     1
  8
0
  2
$PAPER_SPACE
 70
     0
 10
0.0
 20
0.0
 30
0.0
  3
$PAPER_SPACE
  1

  0
ENDBLK
  5
1D
 67
     1
  8
0
  0
ENDSEC
  0
SECTION
  2
ENTITIES
  0
ATTDEF
  5
3930
  8
DEFPOINTS
 10
5097.8224350727195997
 20
274.0634564233175183
 30
0.0
 40
0.001
  1
K-76572T-L
  3

  2
MODELNUMBER
 70
     0
1001
ACDBATTR
1070
     0
1070
     1
  0
ATTDEF
  5
3931
  8
DEFPOINTS
 10
5097.8224350727195997
 20
274.0617897566507963
 30
0.0
 40
0.001
  1
NEW MEMOIRS
  3

  2
TRADENAME
 70
     0
1001
ACDBATTR
1070
     0
1070
     1
  0
ATTDEF
  5
3932
  8
DEFPOINTS
 10
5097.8224350727195997
 20
274.0601230899840743
 30
0.0
 40
0.001
  1
SHOWER DOOR
  3

  2
PRODUCT
 70
     0
1001
ACDBATTR
1070
     0
1070
     1
  0
LINE
  5
D412
  8
0
 10
5076.5308639136783313
 20
349.6963061593256157
 30
0.0
 11
5078.499367850678027
 21
349.6963061593256157
 31
0.0
  0
LINE
  5
D413
  8
0
 10
5078.499367850678027
 20
349.6963061593256157
 30
0.0
 11
5078.499367850678027
 21
348.9089045845254873
 31
0.0
  0
LINE
  5
D414
  8
0
 10
5078.499367850678027
 20
348.9089045845254873
 30
0.0
 11
5076.5308639136783313
 21
348.9089045845254873
 31
0.0
  0
LINE
  5
D415
  8
0
 10
5076.5308639136783313
 20
348.9089045845254873
 30
0.0
 11
5076.5308639136783313
 21
349.6963061593256157
 31
0.0
  0
LINE
  5
D416
  8
0
 10
5086.5702339924782791
 20
349.6963061593256157
 30
0.0
 11
5088.1450371420778538
 21
349.6963061593256157
 31
0.0
  0
LINE
  5
D417
  8
0
 10
5088.1450371420778538
 20
349.6963061593256157
 30
0.0
 11
5088.1450371420778538
 21
346.8144163955254839
 31
0.0
  0
LINE
  5
D418
  8
0
 10
5088.1450371420778538
 20
346.8144163955254839
 30
0.0
 11
5086.5702339924782791
 21
346.8144163955254839
 31
0.0
  0
LINE
  5
D419
  8
0
 10
5086.5702339924782791
 20
346.8144163955254839
 30
0.0
 11
5086.5702339924782791
 21
349.6963061593256157
 31
0.0
  0
LINE
  5
D41A
  8
0
 10
5116.6879505278793658
 20
349.6963061593256157
 30
0.0
 11
5118.6564544648781521
 21
349.6963061593256157
 31
0.0
  0
LINE
  5
D41B
  8
0
 10
5118.6564544648781521
 20
349.6963061593256157
 30
0.0
 11
5118.6564544648781521
 21
348.9089045845254873
 31
0.0
  0
LINE
  5
D41C
  8
0
 10
5118.6564544648781521
 20
348.9089045845254873
 30
0.0
 11
5116.6879505278793658
 21
348.9089045845254873
 31
0.0
  0
LINE
  5
D41D
  8
0
 10
5116.6879505278793658
 20
348.9089045845254873
 30
0.0
 11
5116.6879505278793658
 21
349.6963061593256157
 31
0.0
  0
LINE
  5
D41E
  8
0
 10
5076.4825566911777059
 20
274.058510883725603
 30
0.0
 11
5076.4825566911777059
 21
348.8616604900255993
 31
0.0
  0
LINE
  5
D41F
  8
0
 10
5076.4825566911777059
 20
274.058510883725603
 30
0.0
 11
5119.1686292680769839
 21
274.058510883725603
 31
0.0
  0
LINE
  5
D420
  8
0
 10
5119.2080292680793718
 20
274.6096620648256135
 30
0.0
 11
5119.2080292680793718
 21
274.0979108837256035
 31
0.0
  0
LINE
  5
D421
  8
0
 10
5089.3655395042778764
 20
274.6490620648345953
 30
0.0
 11
5119.1686292680769839
 21
274.6490620648255003
 31
0.0
  0
LINE
  5
D422
  8
0
 10
5089.3261395042791264
 20
274.0979108837256035
 30
0.0
 11
5089.3261395042791264
 21
274.609662064834481
 31
0.0
  0
ARC
  5
D423
  8
0
 10
5089.3655395042778764
 20
274.0979108837256035
 30
0.0
 40
0.0394
 50
179.9999999999886029
 51
270.0
  0
ARC
  5
D424
  8
0
 10
5089.3655395042778764
 20
274.609662064834481
 30
0.0
 40
0.0394
 50
90.0
 51
179.9999999999886029
  0
ARC
  5
D425
  8
0
 10
5119.1686292680769839
 20
274.6096620648256135
 30
0.0
 40
0.0394
 50
0.0
 51
90.0
  0
ARC
  5
D426
  8
0
 10
5119.1686292680769839
 20
274.0979108837256035
 30
0.0
 40
0.0394
 50
270.0
 51
0.0
  0
LINE
  5
D427
  8
0
 10
5077.1025726823900186
 20
274.058510883725603
 30
0.0
 11
5077.1025726823900186
 21
284.8852825373256223
 31
0.0
  0
LINE
  5
D428
  8
0
 10
5077.1025726823900186
 20
286.8537864743256023
 30
0.0
 11
5077.1025726823900186
 21
336.0663848995255876
 31
0.0
  0
LINE
  5
D429
  8
0
 10
5077.1025726823900186
 20
338.0348888365256244
 30
0.0
 11
5077.1025726823900186
 21
348.8616604900255993
 31
0.0
  0
LINE
  5
D42A
  8
0
 10
5076.4825566911777059
 20
348.8616604900255993
 30
0.0
 11
5086.5702339924782791
 21
348.8616604900255993
 31
0.0
  0
LINE
  5
D42B
  8
0
 10
5088.1450371420778538
 20
348.8616604900255993
 30
0.0
 11
5118.7355883231793996
 21
348.8616604900255993
 31
0.0
  0
LINE
  5
D42C
  8
0
 10
5092.6529111577783624
 20
348.8616604900255993
 30
0.0
 11
5092.6529111577783624
 21
275.0685954566255873
 31
0.0
  0
LINE
  5
D42D
  8
0
 10
5078.499367850678027
 20
349.499455765625612
 30
0.0
 11
5086.5702339924782791
 21
349.499455765625612
 31
0.0
  0
LINE
  5
D42E
  8
0
 10
5088.1450371420778538
 20
349.499455765625612
 30
0.0
 11
5116.6879505278793658
 21
349.499455765625612
 31
0.0
  0
LINE
  5
D42F
  8
0
 10
5078.499367850678027
 20
349.1057549782256046
 30
0.0
 11
5086.5702339924782791
 21
349.1057549782256046
 31
0.0
  0
LINE
  5
D430
  8
0
 10
5088.1450371420778538
 20
349.1057549782256046
 30
0.0
 11
5116.6879505278793658
 21
349.1057549782256046
 31
0.0
  0
LINE
  5
D431
  8
0
 10
5090.8633529030776117
 20
348.8616604900255993
 30
0.0
 11
5090.8633529030776117
 21
274.6490620648340837
 31
0.0
  0
LINE
  5
D432
  8
0
 10
5091.2825230099779219
 20
348.8616604900255993
 30
0.0
 11
5091.2825230099779219
 21
274.6490620648340268
 31
0.0
  0
LINE
  5
D433
  8
0
 10
5091.4105969975780681
 20
348.8616604900255993
 30
0.0
 11
5091.4105969975780681
 21
274.6490620648340268
 31
0.0
  0
LINE
  5
D434
  8
0
 10
5091.8945423936784209
 20
348.8616604900255993
 30
0.0
 11
5091.8945423936802399
 21
274.6490620648339132
 31
0.0
  0
LINE
  5
D435
  8
0
 10
5092.0043714416779039
 20
348.8616604900255993
 30
0.0
 11
5092.0043714416779039
 21
274.6490620648337995
 31
0.0
  0
LINE
  5
D436
  8
0
 10
5092.1607851735780059
 20
275.0685954566255873
 30
0.0
 11
5092.1607851735780059
 21
274.6490620648336858
 31
0.0
  0
LINE
  5
D437
  8
0
 10
5118.7355883231793996
 20
348.8616604900255993
 30
0.0
 11
5118.7355883231793996
 21
274.8459124585256177
 31
0.0
  0
LINE
  5
D438
  8
0
 10
5118.7355883231793996
 20
274.8459124585256177
 30
0.0
 11
5117.650803117578107
 21
274.8459124585256177
 31
0.0
  0
LINE
  5
D439
  8
0
 10
5117.650803117578107
 20
274.8459124585256177
 30
0.0
 11
5117.650803117578107
 21
284.8852825373256223
 31
0.0
  0
LINE
  5
D43A
  8
0
 10
5117.650803117578107
 20
286.8537864742256147
 30
0.0
 11
5117.650803117578107
 21
336.0663848995255876
 31
0.0
  0
LINE
  5
D43B
  8
0
 10
5117.650803117578107
 20
338.0348888364255799
 30
0.0
 11
5117.650803117578107
 21
348.8616604900255993
 31
0.0
  0
LINE
  5
D43C
  8
0
 10
5118.0662969845780026
 20
348.8616604900255993
 30
0.0
 11
5118.0662969845780026
 21
337.5821329309255816
 31
0.0
  0
LINE
  5
D43D
  8
0
 10
5118.0662969845780026
 20
336.5191408050255859
 30
0.0
 11
5118.0662969845780026
 21
286.4010305687255027
 31
0.0
  0
LINE
  5
D43E
  8
0
 10
5118.0662969845780026
 20
285.338038442825507
 30
0.0
 11
5118.0662969845780026
 21
274.8459124585256177
 31
0.0
  0
LINE
  5
D43F
  8
0
 10
5118.0269269058780992
 20
274.8459124585256177
 30
0.0
 11
5118.0269269058780992
 21
274.6490620648258982
 31
0.0
  0
LINE
  5
D440
  8
0
 10
5092.1607851735780059
 20
275.0685954566255873
 30
0.0
 11
5117.650803117578107
 21
275.0685954566255873
 31
0.0
  0
LINE
  5
D441
  8
0
 10
5078.6371481656778997
 20
286.8537864743256023
 30
0.0
 11
5076.5505539266396227
 21
286.8537864743256023
 31
0.0
  0
LINE
  5
D442
  8
0
 10
5076.5505539266396227
 20
284.8852825373256223
 30
0.0
 11
5078.6371481656778997
 21
284.8852825373256223
 31
0.0
  0
LINE
  5
D443
  8
0
 10
5078.6568481656777294
 20
284.9049825373256226
 30
0.0
 11
5078.6568481656777294
 21
286.834086474325602
 31
0.0
  0
LINE
  5
D444
  8
0
 10
5076.5308539266397929
 20
284.9049825373256226
 30
0.0
 11
5076.5308539266397929
 21
286.834086474325602
 31
0.0
  0
ARC
  5
D445
  8
0
 10
5076.5505539266396227
 20
284.9049825373256226
 30
0.0
 40
0.0197
 50
179.9999999999886029
 51
270.0
  0
ARC
  5
D446
  8
0
 10
5078.6371481656778997
 20
284.9049825373256226
 30
0.0
 40
0.0197
 50
270.0
 51
0.0
  0
ARC
  5
D447
  8
0
 10
5078.6371481656778997
 20
286.834086474325602
 30
0.0
 40
0.0197
 50
359.9999999999885745
 51
90.0
  0
ARC
  5
D448
  8
0
 10
5076.5505539266396227
 20
286.834086474325602
 30
0.0
 40
0.0197
 50
90.0
 51
180.0
  0
ARC
  5
D449
  8
0
 10
5075.4738617989723934
 20
303.9851548725453085
 30
0.0
 40
17.4209690842188891
 50
273.4784750726586822
 51
280.4617597296580129
  0
ARC
  5
D44A
  8
0
 10
5075.4725044646702372
 20
267.7438592379613738
 30
0.0
 40
17.4311033065127994
 50
79.5398541502575682
 51
86.5190799811110338
  0
LINE
  5
D44B
  8
0
 10
5078.6371481656778997
 20
338.0348888365256244
 30
0.0
 11
5076.5505539266396227
 21
338.0348888365256244
 31
0.0
  0
LINE
  5
D44C
  8
0
 10
5076.5505539266396227
 20
336.0663848995255876
 30
0.0
 11
5078.6371481656778997
 21
336.0663848995255876
 31
0.0
  0
LINE
  5
D44D
  8
0
 10
5078.6568481656777294
 20
336.0860848995255878
 30
0.0
 11
5078.6568481656777294
 21
338.0151888365256241
 31
0.0
  0
LINE
  5
D44E
  8
0
 10
5076.5308539266397929
 20
336.0860848995255878
 30
0.0
 11
5076.5308539266397929
 21
338.0151888365256241
 31
0.0
  0
ARC
  5
D44F
  8
0
 10
5076.5505539266396227
 20
336.0860848995255878
 30
0.0
 40
0.0197
 50
179.9999999999886029
 51
270.0
  0
ARC
  5
D450
  8
0
 10
5078.6371481656778997
 20
336.0860848995255878
 30
0.0
 40
0.0197
 50
270.0
 51
0.0
  0
ARC
  5
D451
  8
0
 10
5078.6371481656778997
 20
338.0151888365256241
 30
0.0
 40
0.0197
 50
359.9999999999885745
 51
90.0
  0
ARC
  5
D452
  8
0
 10
5076.5505539266396227
 20
338.0151888365256241
 30
0.0
 40
0.0197
 50
90.0
 51
180.0
  0
ARC
  5
D453
  8
0
 10
5075.4738617989723934
 20
355.1662572347452738
 30
0.0
 40
17.4209690842188891
 50
273.4784750726586822
 51
280.4617597296580129
  0
ARC
  5
D454
  8
0
 10
5075.4725044646702372
 20
318.9249616001613958
 30
0.0
 40
17.4311033065127994
 50
79.5398541502575682
 51
86.5190799811110338
  0
LINE
  5
D455
  8
0
 10
5114.38520958297795
 20
284.8852825373256223
 30
0.0
 11
5118.0269269057780548
 21
284.8852825373256223
 31
0.0
  0
LINE
  5
D456
  8
0
 10
5118.0269269057780548
 20
284.8852825373256223
 30
0.0
 11
5118.0269269057780548
 21
285.2947313562256113
 31
0.0
  0
LINE
  5
D457
  8
0
 10
5116.9836347798782299
 20
285.2947313562256113
 30
0.0
 11
5118.0269269057780548
 21
285.2947313562256113
 31
0.0
  0
LINE
  5
D458
  8
0
 10
5116.9639347798784001
 20
285.3144313562254979
 30
0.0
 11
5116.9639347798784001
 21
286.4246376553256255
 31
0.0
  0
ARC
  5
D459
  8
0
 10
5116.9836347798782299
 20
285.3144313562254979
 30
0.0
 40
0.0197
 50
179.9999999999886029
 51
270.0
  0
LINE
  5
D45A
  8
0
 10
5114.3655095829781203
 20
284.9049825373256226
 30
0.0
 11
5114.3655095829781203
 21
286.8340864742256144
 31
0.0
  0
ARC
  5
D45B
  8
0
 10
5114.38520958297795
 20
284.9049825373256226
 30
0.0
 40
0.0197
 50
179.9999999999787974
 51
270.0
  0
LINE
  5
D45C
  8
0
 10
5118.0269269057780548
 20
285.1748587041146266
 30
0.0
 11
5117.5842808021297969
 21
285.1748587041146266
 31
0.0
  0
ARC
  5
D45D
  8
0
 10
5117.5508856702299454
 20
267.7043898002802962
 30
0.0
 40
17.4705008215183284
 50
89.8904781666356882
 51
95.7699161222250268
  0
ARC
  5
D45E
  8
0
 10
5117.6422564832873832
 20
267.0984137525596225
 30
0.0
 40
18.0826175007186585
 50
95.86493086530065
 51
100.3767683412723954
  0
LINE
  5
D45F
  8
0
 10
5116.9639347798784001
 20
285.590006946725623
 30
0.0
 11
5116.9914938349784279
 21
285.590006946725623
 31
0.0
  0
LINE
  5
D460
  8
0
 10
5116.9914938349784279
 20
285.590006946725623
 30
0.0
 11
5116.9914938349784279
 21
285.3931565530256194
 31
0.0
  0
LINE
  5
D461
  8
0
 10
5116.9914938349784279
 20
285.3931565530256194
 30
0.0
 11
5116.9639347798784001
 21
285.3931565530256194
 31
0.0
  0
LINE
  5
D462
  8
0
 10
5117.0033048585783035
 20
285.4049676472255896
 30
0.0
 11
5117.0033048585783035
 21
285.5781958525255959
 31
0.0
  0
LINE
  5
D463
  8
0
 10
5117.0033048585783035
 20
285.5781958525255959
 30
0.0
 11
5116.9914938349784279
 21
285.590006946725623
 31
0.0
  0
LINE
  5
D464
  8
0
 10
5116.9914938349784279
 20
285.3931565530256194
 30
0.0
 11
5117.0033048585783035
 21
285.4049676472255896
 31
0.0
  0
LINE
  5
D465
  8
0
 10
5118.3611788743783109
 20
285.338038442825507
 30
0.0
 11
5117.0344332050781304
 21
285.338038442825507
 31
0.0
  0
ARC
  5
D466
  8
0
 10
5117.0344332050781304
 20
285.3459384428256271
 30
0.0
 40
0.0079
 50
180.0
 51
270.0
  0
LINE
  5
D467
  8
0
 10
5117.0265332050794314
 20
285.3459384428256271
 30
0.0
 11
5117.0265332050794314
 21
286.3931565530256194
 31
0.0
  0
LINE
  5
D468
  8
0
 10
5117.5737772995780688
 20
285.338038442825507
 30
0.0
 11
5117.5737772995780688
 21
285.2986683640255023
 31
0.0
  0
LINE
  5
D469
  8
0
 10
5117.5737772995780688
 20
285.2986683640255023
 30
0.0
 11
5117.0619662758781487
 21
285.2986683640255023
 31
0.0
  0
LINE
  5
D46A
  8
0
 10
5117.0619662758781487
 20
285.2986683640255023
 30
0.0
 11
5117.0619662758781487
 21
285.338038442825507
 31
0.0
  0
LINE
  5
D46B
  8
0
 10
5117.3962182443792699
 20
285.2986683640255023
 30
0.0
 11
5117.3962182443792699
 21
285.2947313562256113
 31
0.0
  0
LINE
  5
D46C
  8
0
 10
5117.2395253310778571
 20
285.2947313562256113
 30
0.0
 11
5117.2395253310778571
 21
285.2986683640255023
 31
0.0
  0
LINE
  5
D46D
  8
0
 10
5118.001094301478588
 20
285.2947313562256113
 30
0.0
 11
5118.001094301478588
 21
285.338038442825507
 31
0.0
  0
LINE
  5
D46E
  8
0
 10
5118.4202339924777334
 20
284.9148100963255956
 30
0.0
 11
5118.3808788743781406
 21
284.9148100963255956
 31
0.0
  0
LINE
  5
D46F
  8
0
 10
5118.3611788743783109
 20
284.9345100963255959
 30
0.0
 11
5118.3611788743783109
 21
285.4266061593256154
 31
0.0
  0
LINE
  5
D470
  8
0
 10
5118.4202339924777334
 20
285.4463061593256157
 30
0.0
 11
5118.3808788743781406
 21
285.4463061593256157
 31
0.0
  0
LINE
  5
D471
  8
0
 10
5118.4202339924777334
 20
284.9049825373256226
 30
0.0
 11
5118.4202339924777334
 21
286.8340864742256144
 31
0.0
  0
ARC
  5
D472
  8
0
 10
5118.3808788743781406
 20
284.9345100963255959
 30
0.0
 40
0.0197
 50
179.9999999999886029
 51
270.0
  0
LINE
  5
D473
  8
0
 10
5118.6564544648781521
 20
284.9049825373256226
 30
0.0
 11
5118.6564544648781521
 21
286.8340864742256144
 31
0.0
  0
LINE
  5
D474
  8
0
 10
5118.4399339924793821
 20
284.8852825373256223
 30
0.0
 11
5118.6367544648783223
 21
284.8852825373256223
 31
0.0
  0
ARC
  5
D475
  8
0
 10
5118.4399339924793821
 20
284.9049825373256226
 30
0.0
 40
0.0197
 50
179.9999999999886029
 51
270.0
  0
ARC
  5
D476
  8
0
 10
5118.6367544648783223
 20
284.9049825373256226
 30
0.0
 40
0.0197
 50
270.0
 51
0.0000000000195413
  0
ARC
  5
D477
  8
0
 10
5118.3808788743781406
 20
285.4266061593256154
 30
0.0
 40
0.0197
 50
89.9999999999478888
 51
180.0000000000098055
  0
LINE
  5
D478
  8
0
 10
5114.38520958297795
 20
286.8537864742256147
 30
0.0
 11
5118.0269269057780548
 21
286.8537864742256147
 31
0.0
  0
LINE
  5
D479
  8
0
 10
5118.0269269057780548
 20
286.8537864742256147
 30
0.0
 11
5118.0269269057780548
 21
286.4443376553256257
 31
0.0
  0
LINE
  5
D47A
  8
0
 10
5116.9836347798782299
 20
286.4443376553256257
 30
0.0
 11
5118.0269269057780548
 21
286.4443376553256257
 31
0.0
  0
ARC
  5
D47B
  8
0
 10
5116.9836347798782299
 20
286.4246376553256255
 30
0.0
 40
0.0197
 50
90.0
 51
180.0000000000098055
  0
ARC
  5
D47C
  8
0
 10
5114.38520958297795
 20
286.8340864742256144
 30
0.0
 40
0.0197
 50
90.0
 51
180.0
  0
LINE
  5
D47D
  8
0
 10
5118.0269269057780548
 20
286.5642103074366105
 30
0.0
 11
5117.5842808021297969
 21
286.5642103074366105
 31
0.0
  0
ARC
  5
D47E
  8
0
 10
5117.5508856702299454
 20
304.0346792112708272
 30
0.0
 40
17.4705008215183284
 50
264.2300838777749732
 51
270.109521833364397
  0
ARC
  5
D47F
  8
0
 10
5117.6422564832873832
 20
304.6406552589916146
 30
0.0
 40
18.0826175007186585
 50
259.6232316587276046
 51
264.1350691346993926
  0
LINE
  5
D480
  8
0
 10
5116.9639347798784001
 20
286.149062064825614
 30
0.0
 11
5116.9914938349784279
 21
286.149062064825614
 31
0.0
  0
LINE
  5
D481
  8
0
 10
5116.9914938349784279
 20
286.149062064825614
 30
0.0
 11
5116.9914938349784279
 21
286.3459124585256177
 31
0.0
  0
LINE
  5
D482
  8
0
 10
5116.9914938349784279
 20
286.3459124585256177
 30
0.0
 11
5116.9639347798784001
 21
286.3459124585256177
 31
0.0
  0
LINE
  5
D483
  8
0
 10
5117.0033048585783035
 20
286.3341013643255906
 30
0.0
 11
5117.0033048585783035
 21
286.1608731590255843
 31
0.0
  0
LINE
  5
D484
  8
0
 10
5117.0033048585783035
 20
286.1608731590255843
 30
0.0
 11
5116.9914938349784279
 21
286.149062064825614
 31
0.0
  0
LINE
  5
D485
  8
0
 10
5116.9914938349784279
 20
286.3459124585256177
 30
0.0
 11
5117.0033048585783035
 21
286.3341013643255906
 31
0.0
  0
LINE
  5
D486
  8
0
 10
5118.3611788743783109
 20
286.4010305687255027
 30
0.0
 11
5117.0344332050781304
 21
286.4010305687255027
 31
0.0
  0
ARC
  5
D487
  8
0
 10
5117.0344332050781304
 20
286.3931305687256099
 30
0.0
 40
0.0079
 50
90.0
 51
180.0
  0
LINE
  5
D488
  8
0
 10
5117.5737772995780688
 20
286.4010305687255027
 30
0.0
 11
5117.5737772995780688
 21
286.440400647525621
 31
0.0
  0
LINE
  5
D489
  8
0
 10
5117.5737772995780688
 20
286.440400647525621
 30
0.0
 11
5117.0619662758781487
 21
286.440400647525621
 31
0.0
  0
LINE
  5
D48A
  8
0
 10
5117.0619662758781487
 20
286.440400647525621
 30
0.0
 11
5117.0619662758781487
 21
286.4010305687255027
 31
0.0
  0
LINE
  5
D48B
  8
0
 10
5117.3962182443792699
 20
286.440400647525621
 30
0.0
 11
5117.3962182443792699
 21
286.4443376553256257
 31
0.0
  0
LINE
  5
D48C
  8
0
 10
5117.2395253310778571
 20
286.4443376553256257
 30
0.0
 11
5117.2395253310778571
 21
286.440400647525621
 31
0.0
  0
LINE
  5
D48D
  8
0
 10
5118.001094301478588
 20
286.4443376553256257
 30
0.0
 11
5118.001094301478588
 21
286.4010305687255027
 31
0.0
  0
LINE
  5
D48E
  8
0
 10
5118.4202339924777334
 20
286.8242589152255846
 30
0.0
 11
5118.3808788743781406
 21
286.8242589152255846
 31
0.0
  0
LINE
  5
D48F
  8
0
 10
5118.3611788743783109
 20
286.8045589152255843
 30
0.0
 11
5118.3611788743783109
 21
286.312462852225508
 31
0.0
  0
LINE
  5
D490
  8
0
 10
5118.4202339924777334
 20
286.2927628522255077
 30
0.0
 11
5118.3808788743781406
 21
286.2927628522255077
 31
0.0
  0
ARC
  5
D491
  8
0
 10
5118.3808788743781406
 20
286.8045589152255843
 30
0.0
 40
0.0197
 50
90.0
 51
180.0000000000098055
  0
LINE
  5
D492
  8
0
 10
5118.4399339924793821
 20
286.8537864742256147
 30
0.0
 11
5118.6367544648783223
 21
286.8537864742256147
 31
0.0
  0
ARC
  5
D493
  8
0
 10
5118.4399339924793821
 20
286.8340864742256144
 30
0.0
 40
0.0197
 50
90.0
 51
180.0000000000098055
  0
ARC
  5
D494
  8
0
 10
5118.6367544648783223
 20
286.8340864742256144
 30
0.0
 40
0.0197
 50
0.0
 51
90.0
  0
ARC
  5
D495
  8
0
 10
5118.3808788743781406
 20
286.312462852225508
 30
0.0
 40
0.0197
 50
179.9999999999886029
 51
270.0000000000521254
  0
LINE
  5
D496
  8
0
 10
5114.38520958297795
 20
336.0663848995255876
 30
0.0
 11
5118.0269269057780548
 21
336.0663848995255876
 31
0.0
  0
LINE
  5
D497
  8
0
 10
5118.0269269057780548
 20
336.0663848995255876
 30
0.0
 11
5118.0269269057780548
 21
336.4758337184255765
 31
0.0
  0
LINE
  5
D498
  8
0
 10
5116.9836347798782299
 20
336.4758337184255765
 30
0.0
 11
5118.0269269057780548
 21
336.4758337184255765
 31
0.0
  0
LINE
  5
D499
  8
0
 10
5116.9639347798784001
 20
336.4955337184255768
 30
0.0
 11
5116.9639347798784001
 21
337.6057400175255907
 31
0.0
  0
ARC
  5
D49A
  8
0
 10
5116.9836347798782299
 20
336.4955337184255768
 30
0.0
 40
0.0197
 50
179.9999999999886029
 51
270.0
  0
LINE
  5
D49B
  8
0
 10
5114.3655095829781203
 20
336.0860848995255878
 30
0.0
 11
5114.3655095829781203
 21
338.0151888364255797
 31
0.0
  0
ARC
  5
D49C
  8
0
 10
5114.38520958297795
 20
336.0860848995255878
 30
0.0
 40
0.0197
 50
179.9999999999787974
 51
270.0
  0
LINE
  5
D49D
  8
0
 10
5118.0269269057780548
 20
336.3559610663145918
 30
0.0
 11
5117.5842808021297969
 21
336.3559610663145918
 31
0.0
  0
ARC
  5
D49E
  8
0
 10
5117.5508856702299454
 20
318.8854921624803751
 30
0.0
 40
17.4705008215183284
 50
89.8904781666356882
 51
95.7699161222250268
  0
ARC
  5
D49F
  8
0
 10
5117.6422564832873832
 20
318.279516114759474
 30
0.0
 40
18.0826175007186585
 50
95.86493086530065
 51
100.3767683412723954
  0
LINE
  5
D4A0
  8
0
 10
5116.9639347798784001
 20
336.7711093089255883
 30
0.0
 11
5116.9914938349784279
 21
336.7711093089255883
 31
0.0
  0
LINE
  5
D4A1
  8
0
 10
5116.9914938349784279
 20
336.7711093089255883
 30
0.0
 11
5116.9914938349784279
 21
336.5742589152255846
 31
0.0
  0
LINE
  5
D4A2
  8
0
 10
5116.9914938349784279
 20
336.5742589152255846
 30
0.0
 11
5116.9639347798784001
 21
336.5742589152255846
 31
0.0
  0
LINE
  5
D4A3
  8
0
 10
5117.0033048585783035
 20
336.5860700094256117
 30
0.0
 11
5117.0033048585783035
 21
336.759298214725618
 31
0.0
  0
LINE
  5
D4A4
  8
0
 10
5117.0033048585783035
 20
336.759298214725618
 30
0.0
 11
5116.9914938349784279
 21
336.7711093089255883
 31
0.0
  0
LINE
  5
D4A5
  8
0
 10
5116.9914938349784279
 20
336.5742589152255846
 30
0.0
 11
5117.0033048585783035
 21
336.5860700094256117
 31
0.0
  0
LINE
  5
D4A6
  8
0
 10
5118.3611788743783109
 20
336.5191408050255859
 30
0.0
 11
5117.0344332050781304
 21
336.5191408050255859
 31
0.0
  0
ARC
  5
D4A7
  8
0
 10
5117.0344332050781304
 20
336.5270408050255924
 30
0.0
 40
0.0079
 50
180.0
 51
270.0
  0
LINE
  5
D4A8
  8
0
 10
5117.0265332050794314
 20
336.5270408050255924
 30
0.0
 11
5117.0265332050794314
 21
337.5742589152255846
 31
0.0
  0
LINE
  5
D4A9
  8
0
 10
5117.5737772995780688
 20
336.5191408050255859
 30
0.0
 11
5117.5737772995780688
 21
336.4797707262255813
 31
0.0
  0
LINE
  5
D4AA
  8
0
 10
5117.5737772995780688
 20
336.4797707262255813
 30
0.0
 11
5117.0619662758781487
 21
336.4797707262255813
 31
0.0
  0
LINE
  5
D4AB
  8
0
 10
5117.0619662758781487
 20
336.4797707262255813
 30
0.0
 11
5117.0619662758781487
 21
336.5191408050255859
 31
0.0
  0
LINE
  5
D4AC
  8
0
 10
5117.3962182443792699
 20
336.4797707262255813
 30
0.0
 11
5117.3962182443792699
 21
336.4758337184255765
 31
0.0
  0
LINE
  5
D4AD
  8
0
 10
5117.2395253310778571
 20
336.4758337184255765
 30
0.0
 11
5117.2395253310778571
 21
336.4797707262255813
 31
0.0
  0
LINE
  5
D4AE
  8
0
 10
5118.001094301478588
 20
336.4758337184255765
 30
0.0
 11
5118.001094301478588
 21
336.5191408050255859
 31
0.0
  0
LINE
  5
D4AF
  8
0
 10
5118.4202339924777334
 20
336.0959124585256177
 30
0.0
 11
5118.3808788743781406
 21
336.0959124585256177
 31
0.0
  0
LINE
  5
D4B0
  8
0
 10
5118.3611788743783109
 20
336.115612458525618
 30
0.0
 11
5118.3611788743783109
 21
336.6077085215255806
 31
0.0
  0
LINE
  5
D4B1
  8
0
 10
5118.4202339924777334
 20
336.6274085215255809
 30
0.0
 11
5118.3808788743781406
 21
336.6274085215255809
 31
0.0
  0
LINE
  5
D4B2
  8
0
 10
5118.4202339924777334
 20
336.0860848995255878
 30
0.0
 11
5118.4202339924777334
 21
338.0151888364255797
 31
0.0
  0
ARC
  5
D4B3
  8
0
 10
5118.3808788743781406
 20
336.115612458525618
 30
0.0
 40
0.0197
 50
179.9999999999886029
 51
270.0
  0
LINE
  5
D4B4
  8
0
 10
5118.6564544648781521
 20
336.0860848995255878
 30
0.0
 11
5118.6564544648781521
 21
338.0151888364255797
 31
0.0
  0
LINE
  5
D4B5
  8
0
 10
5118.4399339924793821
 20
336.0663848995255876
 30
0.0
 11
5118.6367544648783223
 21
336.0663848995255876
 31
0.0
  0
ARC
  5
D4B6
  8
0
 10
5118.4399339924793821
 20
336.0860848995255878
 30
0.0
 40
0.0197
 50
179.9999999999886029
 51
270.0
  0
ARC
  5
D4B7
  8
0
 10
5118.6367544648783223
 20
336.0860848995255878
 30
0.0
 40
0.0197
 50
270.0
 51
0.0000000000211698
  0
ARC
  5
D4B8
  8
0
 10
5118.3808788743781406
 20
336.6077085215255806
 30
0.0
 40
0.0197
 50
89.9999999999478888
 51
180.0000000000098055
  0
LINE
  5
D4B9
  8
0
 10
5114.38520958297795
 20
338.0348888364255799
 30
0.0
 11
5118.0269269057780548
 21
338.0348888364255799
 31
0.0
  0
LINE
  5
D4BA
  8
0
 10
5118.0269269057780548
 20
338.0348888364255799
 30
0.0
 11
5118.0269269057780548
 21
337.625440017525591
 31
0.0
  0
LINE
  5
D4BB
  8
0
 10
5116.9836347798782299
 20
337.625440017525591
 30
0.0
 11
5118.0269269057780548
 21
337.625440017525591
 31
0.0
  0
ARC
  5
D4BC
  8
0
 10
5116.9836347798782299
 20
337.6057400175255907
 30
0.0
 40
0.0197
 50
90.0
 51
180.0000000000098055
  0
ARC
  5
D4BD
  8
0
 10
5114.38520958297795
 20
338.0151888364255797
 30
0.0
 40
0.0197
 50
90.0
 51
180.0
  0
LINE
  5
D4BE
  8
0
 10
5118.0269269057780548
 20
337.7453126696365757
 30
0.0
 11
5117.5842808021297969
 21
337.7453126696365757
 31
0.0
  0
ARC
  5
D4BF
  8
0
 10
5117.5508856702299454
 20
355.2157815734707924
 30
0.0
 40
17.4705008215183284
 50
264.2300838777749732
 51
270.109521833364397
  0
ARC
  5
D4C0
  8
0
 10
5117.6422564832873832
 20
355.8217576211915798
 30
0.0
 40
18.0826175007186585
 50
259.6232316587276046
 51
264.1350691346993926
  0
LINE
  5
D4C1
  8
0
 10
5116.9639347798784001
 20
337.3301644270255792
 30
0.0
 11
5116.9914938349784279
 21
337.3301644270255792
 31
0.0
  0
LINE
  5
D4C2
  8
0
 10
5116.9914938349784279
 20
337.3301644270255792
 30
0.0
 11
5116.9914938349784279
 21
337.5270148207255829
 31
0.0
  0
LINE
  5
D4C3
  8
0
 10
5116.9914938349784279
 20
337.5270148207255829
 30
0.0
 11
5116.9639347798784001
 21
337.5270148207255829
 31
0.0
  0
LINE
  5
D4C4
  8
0
 10
5117.0033048585783035
 20
337.5152037265256126
 30
0.0
 11
5117.0033048585783035
 21
337.3419755212256064
 31
0.0
  0
LINE
  5
D4C5
  8
0
 10
5117.0033048585783035
 20
337.3419755212256064
 30
0.0
 11
5116.9914938349784279
 21
337.3301644270255792
 31
0.0
  0
LINE
  5
D4C6
  8
0
 10
5116.9914938349784279
 20
337.5270148207255829
 30
0.0
 11
5117.0033048585783035
 21
337.5152037265256126
 31
0.0
  0
LINE
  5
D4C7
  8
0
 10
5118.3611788743783109
 20
337.5821329309255816
 30
0.0
 11
5117.0344332050781304
 21
337.5821329309255816
 31
0.0
  0
ARC
  5
D4C8
  8
0
 10
5117.0344332050781304
 20
337.5742329309255751
 30
0.0
 40
0.0079
 50
90.0
 51
180.0
  0
LINE
  5
D4C9
  8
0
 10
5117.5737772995780688
 20
337.5821329309255816
 30
0.0
 11
5117.5737772995780688
 21
337.6215030097255863
 31
0.0
  0
LINE
  5
D4CA
  8
0
 10
5117.5737772995780688
 20
337.6215030097255863
 30
0.0
 11
5117.0619662758781487
 21
337.6215030097255863
 31
0.0
  0
LINE
  5
D4CB
  8
0
 10
5117.0619662758781487
 20
337.6215030097255863
 30
0.0
 11
5117.0619662758781487
 21
337.5821329309255816
 31
0.0
  0
LINE
  5
D4CC
  8
0
 10
5117.3962182443792699
 20
337.6215030097255863
 30
0.0
 11
5117.3962182443792699
 21
337.625440017525591
 31
0.0
  0
LINE
  5
D4CD
  8
0
 10
5117.2395253310778571
 20
337.625440017525591
 30
0.0
 11
5117.2395253310778571
 21
337.6215030097255863
 31
0.0
  0
LINE
  5
D4CE
  8
0
 10
5118.001094301478588
 20
337.625440017525591
 30
0.0
 11
5118.001094301478588
 21
337.5821329309255816
 31
0.0
  0
LINE
  5
D4CF
  8
0
 10
5118.4202339924777334
 20
338.005361277425493
 30
0.0
 11
5118.3808788743781406
 21
338.005361277425493
 31
0.0
  0
LINE
  5
D4D0
  8
0
 10
5118.3611788743783109
 20
337.9856612774256064
 30
0.0
 11
5118.3611788743783109
 21
337.4935652144255869
 31
0.0
  0
LINE
  5
D4D1
  8
0
 10
5118.4202339924777334
 20
337.4738652144255866
 30
0.0
 11
5118.3808788743781406
 21
337.4738652144255866
 31
0.0
  0
ARC
  5
D4D2
  8
0
 10
5118.3808788743781406
 20
337.9856612774256064
 30
0.0
 40
0.0197
 50
90.0
 51
180.0000000000098055
  0
LINE
  5
D4D3
  8
0
 10
5118.4399339924793821
 20
338.0348888364255799
 30
0.0
 11
5118.6367544648783223
 21
338.0348888364255799
 31
0.0
  0
ARC
  5
D4D4
  8
0
 10
5118.4399339924793821
 20
338.0151888364255797
 30
0.0
 40
0.0197
 50
90.0
 51
180.0000000000098055
  0
ARC
  5
D4D5
  8
0
 10
5118.6367544648783223
 20
338.0151888364255797
 30
0.0
 40
0.0197
 50
0.0
 51
90.0
  0
ARC
  5
D4D6
  8
0
 10
5118.3808788743781406
 20
337.4935652144255869
 30
0.0
 40
0.0197
 50
179.9999999999886029
 51
270.0000000000521254
  0
LINE
  5
D4D7
  8
0
 10
5093.5979896777053
 20
312.869308583051918
 30
0.0
 11
5093.5979896777053
 21
311.0351085840587189
 31
0.0
  0
LINE
  5
D4D8
  8
0
 10
5093.6137192892092571
 20
311.0522381965502063
 30
0.0
 11
5093.6137192892092571
 21
312.8521789839122107
 31
0.0
  0
LINE
  5
D4D9
  8
0
 10
5093.6058896777049085
 20
312.8772085830519245
 30
0.0
 11
5095.4400901314320436
 21
312.8772085830519245
 31
0.0
  0
LINE
  5
D4DA
  8
0
 10
5095.4193368179430763
 20
312.8614789839120931
 30
0.0
 11
5093.623019289208969
 21
312.8614789839120931
 31
0.0
  0
LINE
  5
D4DB
  8
0
 10
5095.4400901314320436
 20
311.0272085840587124
 30
0.0
 11
5093.6058896777049085
 21
311.0272085840587124
 31
0.0
  0
LINE
  5
D4DC
  8
0
 10
5095.4193368179430763
 20
311.0429381965502103
 30
0.0
 11
5093.623019289208969
 21
311.0429381965502103
 31
0.0
  0
LINE
  5
D4DD
  8
0
 10
5095.4479901314325616
 20
312.869308583051918
 30
0.0
 11
5095.4479901314325616
 21
312.3459098172555741
 31
0.0
  0
LINE
  5
D4DE
  8
0
 10
5095.4479901314325616
 20
311.5585082915071098
 30
0.0
 11
5095.4479901314325616
 21
311.0351085840587189
 31
0.0
  0
LINE
  5
D4DF
  8
0
 10
5095.4286368179418787
 20
312.8521789839122107
 30
0.0
 11
5095.4286368179418787
 21
312.3459098172555741
 31
0.0
  0
LINE
  5
D4E0
  8
0
 10
5095.4286368179418787
 20
311.5585082915071098
 30
0.0
 11
5095.4286368179418787
 21
311.0522381965502063
 31
0.0
  0
LINE
  5
D4E1
  8
0
 10
5093.6858896842868489
 20
311.1072090219776101
 30
0.0
 11
5095.3600901153113227
 21
311.1072090219776101
 31
0.0
  0
LINE
  5
D4E2
  8
0
 10
5095.3679901153118408
 20
311.1151090219776165
 30
0.0
 11
5095.3679901153118408
 21
311.5585082915071098
 31
0.0
  0
LINE
  5
D4E3
  8
0
 10
5095.3679901153118408
 20
312.3459098172555741
 30
0.0
 11
5095.3679901153118408
 21
312.7893090176515898
 31
0.0
  0
LINE
  5
D4E4
  8
0
 10
5093.6858896842868489
 20
312.7972090176515962
 30
0.0
 11
5095.3600901153113227
 21
312.7972090176515962
 31
0.0
  0
LINE
  5
D4E5
  8
0
 10
5093.6779896842863309
 20
312.7893090176515898
 30
0.0
 11
5093.6779896842863309
 21
311.1151090219776165
 31
0.0
  0
ARC
  5
D4E6
  8
0
 10
5093.6858896842868489
 20
312.7893090176515898
 30
0.0
 40
0.0079
 50
90.0
 51
179.9999999999870113
  0
ARC
  5
D4E7
  8
0
 10
5093.6858896842868489
 20
311.1151090219776165
 30
0.0
 40
0.0079
 50
180.0000000000129887
 51
270.0
  0
ARC
  5
D4E8
  8
0
 10
5095.3600901153113227
 20
311.1151090219776165
 30
0.0
 40
0.0079
 50
270.0
 51
359.9999999999740226
  0
ARC
  5
D4E9
  8
0
 10
5095.3600901153113227
 20
312.7893090176515898
 30
0.0
 40
0.0079
 50
0.0000000000130276
 51
90.0
  0
ARC
  5
D4EA
  8
0
 10
5095.4193368179430763
 20
312.8521789839122107
 30
0.0
 40
0.0093
 50
0.0
 51
90.0
  0
ARC
  5
D4EB
  8
0
 10
5095.4193368179430763
 20
311.0522381965502063
 30
0.0
 40
0.0093
 50
270.0
 51
359.9999999999885745
  0
ARC
  5
D4EC
  8
0
 10
5093.623019289208969
 20
311.0522381965502063
 30
0.0
 40
0.0093
 50
180.0000000000048885
 51
270.0
  0
ARC
  5
D4ED
  8
0
 10
5093.623019289208969
 20
312.8521789839122107
 30
0.0
 40
0.0093
 50
90.0
 51
180.0
  0
ARC
  5
D4EE
  8
0
 10
5093.6058896777049085
 20
312.869308583051918
 30
0.0
 40
0.0079
 50
90.0
 51
180.0
  0
ARC
  5
D4EF
  8
0
 10
5095.4400901314320436
 20
312.869308583051918
 30
0.0
 40
0.0079
 50
0.0000000000130276
 51
90.0
  0
ARC
  5
D4F0
  8
0
 10
5095.4400901314320436
 20
311.0351085840587189
 30
0.0
 40
0.0079
 50
270.0
 51
359.9999999999869829
  0
ARC
  5
D4F1
  8
0
 10
5093.6058896777049085
 20
311.0351085840587189
 30
0.0
 40
0.0079
 50
180.0000000000260059
 51
270.0
  0
CIRCLE
  5
D4F2
  8
0
 10
5094.5229898960778883
 20
311.9522116738256159
 30
0.0
 40
0.4000000000000002
  0
LINE
  5
D4F3
  8
0
 10
5094.1438537779204125
 20
312.0797099244306878
 30
0.0
 11
5094.1298504069545743
 21
312.337030145934591
 31
0.0
  0
LINE
  5
D4F4
  8
0
 10
5094.1381735046070389
 20
312.3453474562076053
 30
0.0
 11
5094.3950246195436193
 21
312.3311904172946925
 31
0.0
  0
ARC
  5
D4F5
  8
0
 10
5094.137738734796585
 20
312.3374594288741264
 30
0.0
 40
0.0079
 50
86.8451814105753357
 51
183.1149647209408045
  0
LINE
  5
D4F6
  8
0
 10
5094.3948737619557505
 20
311.5732839021097789
 30
0.0
 11
5094.1381742475987267
 21
311.5590693241412055
 31
0.0
  0
LINE
  5
D4F7
  8
0
 10
5094.1298486090036022
 20
311.5673768160539225
 30
0.0
 11
5094.1435789299066528
 21
311.8255336617293096
 31
0.0
  0
ARC
  5
D4F8
  8
0
 10
5094.1377374591047555
 20
311.566957239950284
 30
0.0
 40
0.0079
 50
176.9555371980920881
 51
273.169481698784125
  0
LINE
  5
D4F9
  8
0
 10
5094.90750690178902
 20
312.1785869148628763
 30
0.0
 11
5094.9161293852012022
 21
312.337030145934591
 31
0.0
  0
LINE
  5
D4FA
  8
0
 10
5094.9078062875505566
 20
312.3453474562076053
 30
0.0
 11
5094.6509551726130667
 21
312.3311904172946925
 31
0.0
  0
ARC
  5
D4FB
  8
0
 10
5094.908241057358282
 20
312.3374594288741264
 30
0.0
 40
0.0079
 50
356.8850352790591955
 51
93.1548185894246643
  0
LINE
  5
D4FC
  8
0
 10
5094.6511060302009355
 20
311.5732839021097789
 30
0.0
 11
5094.9078055445579594
 21
311.5590693241412055
 31
0.0
  0
LINE
  5
D4FD
  8
0
 10
5094.9161311831512648
 20
311.5673768160539225
 30
0.0
 11
5094.9077036438538926
 21
311.7258310122396097
 31
0.0
  0
ARC
  5
D4FE
  8
0
 10
5094.9082423330519305
 20
311.566957239950284
 30
0.0
 40
0.0079
 50
266.830518301215875
 51
3.0444628019079252
  0
LINE
  5
D4FF
  8
0
 10
5093.6803035407156131
 20
311.1095228784062101
 30
0.0
 11
5094.1321574133153263
 21
311.5613650052461026
 31
0.0
  0
LINE
  5
D500
  8
0
 10
5094.1321545343716934
 20
312.3430475149158951
 30
0.0
 11
5093.6803035197635836
 21
312.7948951402725015
 31
0.0
  0
LINE
  5
D501
  8
0
 10
5094.9138252577831736
 20
312.3430475149158951
 30
0.0
 11
5095.3656762588816491
 21
312.7948951612229962
 31
0.0
  0
LINE
  5
D502
  8
0
 10
5094.9138223788422692
 20
311.5613650052461026
 30
0.0
 11
5095.3656763324433996
 21
311.10952295196779
 31
0.0
  0
LINE
  5
D503
  8
0
 10
5095.3024914070010709
 20
311.7258310122396097
 30
0.0
 11
5094.8527652682023472
 21
311.7258310122396097
 31
0.0
  0
LINE
  5
D504
  8
0
 10
5095.3024914070010709
 20
312.1785869148628763
 30
0.0
 11
5094.8527689891770933
 21
312.1785869148628763
 31
0.0
  0
LINE
  5
D505
  8
0
 10
5095.31039140699977
 20
311.5664082915071162
 30
0.0
 11
5095.31039140699977
 21
312.3380098172556245
 31
0.0
  0
LINE
  5
D506
  8
0
 10
5095.318291407000288
 20
312.3459098172555741
 30
0.0
 11
5104.3576094360560091
 21
312.3459098172555741
 31
0.0
  0
LINE
  5
D507
  8
0
 10
5095.318291407000288
 20
311.5585082915071098
 30
0.0
 11
5104.3576094360560091
 21
311.5585082915071098
 31
0.0
  0
ARC
  5
D508
  8
0
 10
5095.318291407000288
 20
311.5664082915071162
 30
0.0
 40
0.0079
 50
180.0000000000129887
 51
270.0
  0
ARC
  5
D509
  8
0
 10
5095.318291407000288
 20
312.3380098172556245
 30
0.0
 40
0.0079
 50
90.0
 51
179.9999999999739089
  0
ARC
  5
D50A
  8
0
 10
5095.3024914070010709
 20
312.1864869148628827
 30
0.0
 40
0.0079
 50
270.0
 51
0.0
  0
ARC
  5
D50B
  8
0
 10
5095.3024914070010709
 20
311.7179310122396032
 30
0.0
 40
0.0079
 50
0.0
 51
90.0
  0
LINE
  5
D50C
  8
0
 10
5106.0779111653509972
 20
312.869308583051918
 30
0.0
 11
5106.0779111653509972
 21
311.0351085840587189
 31
0.0
  0
LINE
  5
D50D
  8
0
 10
5106.06218155384704
 20
311.0522381965502063
 30
0.0
 11
5106.06218155384704
 21
312.8521789839122107
 31
0.0
  0
LINE
  5
D50E
  8
0
 10
5106.0700111653522981
 20
312.8772085830519245
 30
0.0
 11
5104.2358107116242536
 21
312.8772085830519245
 31
0.0
  0
LINE
  5
D50F
  8
0
 10
5104.2565640251141303
 20
312.8614789839120931
 30
0.0
 11
5106.0528815538473282
 21
312.8614789839120931
 31
0.0
  0
LINE
  5
D510
  8
0
 10
5104.2358107116242536
 20
311.0272085840587124
 30
0.0
 11
5106.0700111653522981
 21
311.0272085840587124
 31
0.0
  0
LINE
  5
D511
  8
0
 10
5104.2565640251141303
 20
311.0429381965502103
 30
0.0
 11
5106.0528815538473282
 21
311.0429381965502103
 31
0.0
  0
LINE
  5
D512
  8
0
 10
5104.2279107116228261
 20
312.869308583051918
 30
0.0
 11
5104.2279107116228261
 21
312.3459098172555741
 31
0.0
  0
LINE
  5
D513
  8
0
 10
5104.2279107116228261
 20
311.5585082915071098
 30
0.0
 11
5104.2279107116228261
 21
311.0351085840587189
 31
0.0
  0
LINE
  5
D514
  8
0
 10
5104.247264025115328
 20
312.8521789839122107
 30
0.0
 11
5104.247264025115328
 21
312.3459098172555741
 31
0.0
  0
LINE
  5
D515
  8
0
 10
5104.247264025115328
 20
311.5585082915071098
 30
0.0
 11
5104.247264025115328
 21
311.0522381965502063
 31
0.0
  0
LINE
  5
D516
  8
0
 10
5105.9900111587703577
 20
311.1072090219776101
 30
0.0
 11
5104.3158107277449744
 21
311.1072090219776101
 31
0.0
  0
LINE
  5
D517
  8
0
 10
5104.3079107277435469
 20
311.1151090219776165
 30
0.0
 11
5104.3079107277435469
 21
311.5585082915071098
 31
0.0
  0
LINE
  5
D518
  8
0
 10
5104.3079107277435469
 20
312.3459098172555741
 30
0.0
 11
5104.3079107277435469
 21
312.7893090176515898
 31
0.0
  0
LINE
  5
D519
  8
0
 10
5105.9900111587703577
 20
312.7972090176515962
 30
0.0
 11
5104.3158107277449744
 21
312.7972090176515962
 31
0.0
  0
LINE
  5
D51A
  8
0
 10
5105.9979111587699663
 20
312.7893090176515898
 30
0.0
 11
5105.9979111587699663
 21
311.1151090219776165
 31
0.0
  0
ARC
  5
D51B
  8
0
 10
5105.9900111587703577
 20
312.7893090176515898
 30
0.0
 40
0.0079
 50
0.0000000000130276
 51
90.0
  0
ARC
  5
D51C
  8
0
 10
5105.9900111587703577
 20
311.1151090219776165
 30
0.0
 40
0.0079
 50
270.0
 51
359.9999999999869829
  0
ARC
  5
D51D
  8
0
 10
5104.3158107277449744
 20
311.1151090219776165
 30
0.0
 40
0.0079
 50
180.0000000000260059
 51
270.0
  0
ARC
  5
D51E
  8
0
 10
5104.3158107277449744
 20
312.7893090176515898
 30
0.0
 40
0.0079
 50
90.0
 51
179.9999999999870113
  0
ARC
  5
D51F
  8
0
 10
5104.2565640251141303
 20
312.8521789839122107
 30
0.0
 40
0.0093
 50
90.0
 51
180.0
  0
ARC
  5
D520
  8
0
 10
5104.2565640251141303
 20
311.0522381965502063
 30
0.0
 40
0.0093
 50
180.0000000000098055
 51
270.0
  0
ARC
  5
D521
  8
0
 10
5106.0528815538473282
 20
311.0522381965502063
 30
0.0
 40
0.0093
 50
270.0
 51
359.9999999999935199
  0
ARC
  5
D522
  8
0
 10
5106.0528815538473282
 20
312.8521789839122107
 30
0.0
 40
0.0093
 50
0.0
 51
90.0
  0
ARC
  5
D523
  8
0
 10
5106.0700111653522981
 20
312.869308583051918
 30
0.0
 40
0.0079
 50
0.0
 51
90.0
  0
ARC
  5
D524
  8
0
 10
5104.2358107116242536
 20
312.869308583051918
 30
0.0
 40
0.0079
 50
90.0
 51
179.9999999999870113
  0
ARC
  5
D525
  8
0
 10
5104.2358107116242536
 20
311.0351085840587189
 30
0.0
 40
0.0079
 50
180.0000000000129887
 51
270.0
  0
ARC
  5
D526
  8
0
 10
5106.0700111653522981
 20
311.0351085840587189
 30
0.0
 40
0.0079
 50
270.0
 51
359.9999999999740226
  0
CIRCLE
  5
D527
  8
0
 10
5105.1529109469784089
 20
311.9522116738256159
 30
0.0
 40
0.4000000000000002
  0
LINE
  5
D528
  8
0
 10
5105.5320470651358846
 20
312.0797099244306878
 30
0.0
 11
5105.5460504361008134
 21
312.337030145934591
 31
0.0
  0
LINE
  5
D529
  8
0
 10
5105.5377273384501677
 20
312.3453474562076053
 30
0.0
 11
5105.2808762235126778
 21
312.3311904172946925
 31
0.0
  0
ARC
  5
D52A
  8
0
 10
5105.5381621082588026
 20
312.3374594288741264
 30
0.0
 40
0.0079
 50
356.8850352790591955
 51
93.1548185894246643
  0
LINE
  5
D52B
  8
0
 10
5105.2810270811005466
 20
311.5732839021097789
 30
0.0
 11
5105.537726595456661
 21
311.5590693241412055
 31
0.0
  0
LINE
  5
D52C
  8
0
 10
5105.5460522340517855
 20
311.5673768160539225
 30
0.0
 11
5105.5323219131487349
 21
311.8255336617293096
 31
0.0
  0
ARC
  5
D52D
  8
0
 10
5105.5381633839506321
 20
311.566957239950284
 30
0.0
 40
0.0079
 50
266.830518301215875
 51
3.0444628019079252
  0
LINE
  5
D52E
  8
0
 10
5104.7683939412672771
 20
312.1785869148628763
 30
0.0
 11
5104.7597714578550949
 21
312.337030145934591
 31
0.0
  0
LINE
  5
D52F
  8
0
 10
5104.7680945555057406
 20
312.3453474562076053
 30
0.0
 11
5105.0249456704432305
 21
312.3311904172946925
 31
0.0
  0
ARC
  5
D530
  8
0
 10
5104.7676597856980152
 20
312.3374594288741264
 30
0.0
 40
0.0079
 50
86.8451814105753357
 51
183.1149647209408045
  0
LINE
  5
D531
  8
0
 10
5105.0247948128553617
 20
311.5732839021097789
 30
0.0
 11
5104.7680952984983378
 21
311.5590693241412055
 31
0.0
  0
LINE
  5
D532
  8
0
 10
5104.7597696599050323
 20
311.5673768160539225
 30
0.0
 11
5104.7681971992024046
 21
311.7258310122396097
 31
0.0
  0
ARC
  5
D533
  8
0
 10
5104.7676585100043667
 20
311.566957239950284
 30
0.0
 40
0.0079
 50
176.9555371980920881
 51
273.169481698784125
  0
LINE
  5
D534
  8
0
 10
5105.9955973023397746
 20
311.1095228784062101
 30
0.0
 11
5105.5437434297409709
 21
311.5613650052461026
 31
0.0
  0
LINE
  5
D535
  8
0
 10
5105.5437463086836942
 20
312.3430475149158951
 30
0.0
 11
5105.9955973232918041
 21
312.7948951402725015
 31
0.0
  0
LINE
  5
D536
  8
0
 10
5104.7620755852731236
 20
312.3430475149158951
 30
0.0
 11
5104.3102245841737385
 21
312.7948951612229962
 31
0.0
  0
LINE
  5
D537
  8
0
 10
5104.7620784642149374
 20
311.5613650052461026
 30
0.0
 11
5104.3102245106119881
 21
311.10952295196779
 31
0.0
  0
LINE
  5
D538
  8
0
 10
5104.3734094360552263
 20
311.7258310122396097
 30
0.0
 11
5104.8231355748539499
 21
311.7258310122396097
 31
0.0
  0
LINE
  5
D539
  8
0
 10
5104.3734094360552263
 20
312.1785869148628763
 30
0.0
 11
5104.8231318538801133
 21
312.1785869148628763
 31
0.0
  0
LINE
  5
D53A
  8
0
 10
5104.3655094360556177
 20
311.5664082915071162
 30
0.0
 11
5104.3655094360556177
 21
312.3380098172556245
 31
0.0
  0
ARC
  5
D53B
  8
0
 10
5104.3576094360560091
 20
311.5664082915071162
 30
0.0
 40
0.0079
 50
270.0
 51
359.9999999999869829
  0
ARC
  5
D53C
  8
0
 10
5104.3576094360560091
 20
312.3380098172556245
 30
0.0
 40
0.0079
 50
0.0000000000260551
 51
90.0
  0
ARC
  5
D53D
  8
0
 10
5104.3734094360552263
 20
312.1864869148628827
 30
0.0
 40
0.0079
 50
180.0
 51
270.0
  0
ARC
  5
D53E
  8
0
 10
5104.3734094360552263
 20
311.7179310122396032
 30
0.0
 40
0.0079
 50
90.0
 51
180.0
  0
ENDSEC
  0
EOF
