  0
SECTION
  2
HEADER
  9
$ACADVER
  1
AC1009
  9
$INSBASE
 10
5279.4614889422282431
 20
266.6585919280009875
 30
0.0
  9
$EXTMIN
 10
5235.9531089205684111
 20
266.6436368086493758
 30
-0.0000000000000058
  9
$EXTMAX
 10
5322.9898044030232995
 20
342.3214799574805056
 30
0.0000000000000104
  9
$LIMMIN
 10
0.0
 20
0.0
  9
$LIMMAX
 10
11.6929133858000007
 20
8.2677165353999982
  9
$ORTHOMODE
 70
     0
  9
$REGENMODE
 70
     1
  9
$FILLMODE
 70
     1
  9
$QTEXTMODE
 70
     0
  9
$MIRRTEXT
 70
     0
  9
$DRAGMODE
 70
     2
  9
$LTSCALE
 40
0.6431102362
  9
$OSMODE
 70
  4095
  9
$ATTMODE
 70
     1
  9
$TEXTSIZE
 40
0.2
  9
$TRACEWID
 40
0.05
  9
$TEXTSTYLE
  7
STANDARD
  9
$CLAYER
  8
0
  9
$CELTYPE
  6
BYLAYER
  9
$CECOLOR
 62
   256
  9
$DIMSCALE
 40
1.0
  9
$DIMASZ
 40
0.1875
  9
$DIMEXO
 40
0.0625
  9
$DIMDLI
 40
0.4443307087
  9
$DIMRND
 40
0.0
  9
$DIMDLE
 40
0.0
  9
$DIMEXE
 40
0.125
  9
$DIMTP
 40
0.01
  9
$DIMTM
 40
0.01
  9
$DIMTXT
 40
2.0
  9
$DIMCEN
 40
0.1052362205
  9
$DIMTSZ
 40
0.0
  9
$DIMTOL
 70
     1
  9
$DIMLIM
 70
     0
  9
$DIMTIH
 70
     1
  9
$DIMTOH
 70
     1
  9
$DIMSE1
 70
     0
  9
$DIMSE2
 70
     0
  9
$DIMTAD
 70
     0
  9
$DIMZIN
 70
     0
  9
$DIMBLK
  1

  9
$DIMASO
 70
     1
  9
$DIMSHO
 70
     1
  9
$DIMPOST
  1
\X
  9
$DIMAPOST
  1

  9
$DIMALT
 70
     1
  9
$DIMALTD
 70
     2
  9
$DIMALTF
 40
25.3999999999999986
  9
$DIMLFAC
 40
1.0
  9
$DIMTOFL
 70
     0
  9
$DIMTVP
 40
0.0
  9
$DIMTIX
 70
     0
  9
$DIMSOXD
 70
     0
  9
$DIMSAH
 70
     0
  9
$DIMBLK1
  1

  9
$DIMBLK2
  1

  9
$DIMSTYLE
  2
STANDARD
  9
$DIMCLRD
 70
     0
  9
$DIMCLRE
 70
     0
  9
$DIMCLRT
 70
     0
  9
$DIMTFAC
 40
1.0
  9
$DIMGAP
 40
0.09
  9
$LUNITS
 70
     2
  9
$LUPREC
 70
     4
  9
$SKETCHINC
 40
0.1
  9
$FILLETRAD
 40
0.0
  9
$AUNITS
 70
     0
  9
$AUPREC
 70
     0
  9
$MENU
  1
.
  9
$ELEVATION
 40
0.0
  9
$PELEVATION
 40
0.0
  9
$THICKNESS
 40
0.0
  9
$LIMCHECK
 70
     0
  9
$BLIPMODE
 70
     0
  9
$CHAMFERA
 40
0.0
  9
$CHAMFERB
 40
0.0
  9
$SKPOLY
 70
     0
  9
$TDCREATE
 40
2458060.468368056230247
  9
$TDUPDATE
 40
2459180.866747684776783
  9
$TDINDWG
 40
0.3617315972
  9
$TDUSRTIMER
 40
0.3617315972
  9
$USRTIMER
 70
     1
  9
$ANGBASE
 50
0.0
  9
$ANGDIR
 70
     0
  9
$PDMODE
 70
     0
  9
$PDSIZE
 40
0.3125
  9
$PLINEWID
 40
0.0
  9
$COORDS
 70
     1
  9
$SPLFRAME
 70
     0
  9
$SPLINETYPE
 70
     6
  9
$SPLINESEGS
 70
     8
  9
$ATTDIA
 70
     1
  9
$ATTREQ
 70
     1
  9
$HANDLING
 70
     1
  9
$HANDSEED
  5
DFDD
  9
$SURFTAB1
 70
     6
  9
$SURFTAB2
 70
     6
  9
$SURFTYPE
 70
     6
  9
$SURFU
 70
     6
  9
$SURFV
 70
     6
  9
$UCSNAME
  2

  9
$UCSORG
 10
0.0
 20
0.0
 30
0.0
  9
$UCSXDIR
 10
1.0
 20
0.0
 30
0.0
  9
$UCSYDIR
 10
0.0
 20
1.0
 30
0.0
  9
$PUCSNAME
  2

  9
$PUCSORG
 10
0.0
 20
0.0
 30
0.0
  9
$PUCSXDIR
 10
1.0
 20
0.0
 30
0.0
  9
$PUCSYDIR
 10
0.0
 20
1.0
 30
0.0
  9
$USERI1
 70
     0
  9
$USERI2
 70
     0
  9
$USERI3
 70
     0
  9
$USERI4
 70
     0
  9
$USERI5
 70
     0
  9
$USERR1
 40
0.0
  9
$USERR2
 40
0.0
  9
$USERR3
 40
0.0
  9
$USERR4
 40
0.0
  9
$USERR5
 40
0.0
  9
$WORLDVIEW
 70
     1
  9
$SHADEDGE
 70
     3
  9
$SHADEDIF
 70
    70
  9
$TILEMODE
 70
     1
  9
$MAXACTVP
 70
    64
  9
$PLIMCHECK
 70
     0
  9
$PEXTMIN
 10
1.0000000000000000E+20
 20
1.0000000000000000E+20
 30
1.0000000000000000E+20
  9
$PEXTMAX
 10
-1.0000000000000000E+20
 20
-1.0000000000000000E+20
 30
-1.0000000000000000E+20
  9
$PLIMMIN
 10
0.0
 20
0.0
  9
$PLIMMAX
 10
12.0
 20
9.0
  9
$UNITMODE
 70
     0
  9
$VISRETAIN
 70
     1
  9
$PLINEGEN
 70
     0
  9
$PSLTSCALE
 70
     1
  0
ENDSEC
  0
SECTION
  2
TABLES
  0
TABLE
  2
VPORT
 70
     1
  0
VPORT
  2
*ACTIVE
 70
     0
 10
0.0
 20
0.0
 11
1.0
 21
1.0
 12
339.2411712303918989
 22
-9.7904373565792753
 13
0.0
 23
0.0
 14
1.0
 24
1.0
 15
0.0
 25
0.0
 16
0.0
 26
0.0
 36
326.4906812651062182
 17
4940.2302854314038996
 27
314.272995739644216
 37
0.0
 40
76.6577749599896521
 41
2.887234042553191
 42
50.0
 43
0.0
 44
0.0
 50
0.0
 51
0.0
 71
     0
 72
   100
 73
     1
 74
     1
 75
     0
 76
     0
 77
     0
 78
     0
  0
ENDTAB
  0
TABLE
  2
LTYPE
 70
     2
  0
LTYPE
  2
CONTINUOUS
 70
     0
  3
Solid line
 72
    65
 73
     0
 40
0.0
  0
LTYPE
  2
PHANTOM2
 70
     0
  3
___ _ _ ___ _ _ ___ _ _ ___ _ _
 72
    65
 73
     6
 40
1.25
 49
0.625
 49
-0.125
 49
0.125
 49
-0.125
 49
0.125
 49
-0.125
  0
ENDTAB
  0
TABLE
  2
LAYER
 70
     2
  0
LAYER
  2
0
 70
     0
 62
   255
  6
CONTINUOUS
  0
LAYER
  2
DEFPOINTS
 70
     0
 62
     7
  6
CONTINUOUS
  0
ENDTAB
  0
TABLE
  2
STYLE
 70
     1
  0
STYLE
  2
STANDARD
 70
     0
 40
0.0
 41
0.8
 50
0.0
 71
     0
 42
0.2
  3
txt
  4

  0
ENDTAB
  0
TABLE
  2
VIEW
 70
     0
  0
ENDTAB
  0
TABLE
  2
UCS
 70
     0
  0
ENDTAB
  0
TABLE
  2
APPID
 70
     9
  0
APPID
  2
ACAD
 70
     0
  0
APPID
  2
ACAD_MLEADERVER
 70
     0
  0
APPID
  2
ACAD_EXEMPT_FROM_CAD_STANDARDS
 70
     0
  0
APPID
  2
ACAD_NAV_VCDISPLAY
 70
     0
  0
APPID
  2
ACAECLAYERSTANDARD
 70
     0
  0
APPID
  2
ACCMTRANSPARENCY
 70
     0
  0
APPID
  2
ACAD_DSTYLE_DIMJAG
 70
     0
  0
APPID
  2
ACAD_DSTYLE_DIMTALN
 70
     0
  0
APPID
  2
ACDBATTR
 70
     0
  0
ENDTAB
  0
TABLE
  2
DIMSTYLE
 70
     1
  0
DIMSTYLE
  2
STANDARD
 70
     0
  3

  4

  5

  6

  7

 40
1.0
 41
0.1875
 42
0.0625
 43
0.38
 44
0.125
 45
0.0
 46
0.0
 47
0.01
 48
0.01
140
0.15625
141
0.09
142
0.0
143
25.3999999999999986
144
1.0
145
0.0
146
1.0
147
0.09
 71
     1
 72
     0
 73
     1
 74
     1
 75
     0
 76
     0
 77
     0
 78
     4
170
     0
171
     2
172
     0
173
     0
174
     0
175
     0
176
     0
177
     0
178
     0
  0
ENDTAB
  0
ENDSEC
  0
SECTION
  2
BLOCKS
  0
BLOCK
  8
0
  2
$MODEL_SPACE
 70
     0
 10
0.0
 20
0.0
 30
0.0
  3
$MODEL_SPACE
  1

  0
ENDBLK
  5
21
  8
0
  0
BLOCK
 67
     1
  8
0
  2
$PAPER_SPACE
 70
     0
 10
0.0
 20
0.0
 30
0.0
  3
$PAPER_SPACE
  1

  0
ENDBLK
  5
1D
 67
     1
  8
0
  0
ENDSEC
  0
SECTION
  2
ENTITIES
  0
ATTDEF
  5
3930
  8
DEFPOINTS
 10
5279.4583701357114478
 20
266.6630723654448047
 30
0.0
 40
0.001
  1
K-76576T-L
  3

  2
MODELNUMBER
 70
     0
1001
ACDBATTR
1070
     0
1070
     1
  0
ATTDEF
  5
3931
  8
DEFPOINTS
 10
5279.4583701357114478
 20
266.6614056987781964
 30
0.0
 40
0.001
  1
NEW MEMOIRS
  3

  2
TRADENAME
 70
     0
1001
ACDBATTR
1070
     0
1070
     1
  0
ATTDEF
  5
3932
  8
DEFPOINTS
 10
5279.4583701357114478
 20
266.6597390321114744
 30
0.0
 40
0.001
  1
SHOWER DOOR
  3

  2
PRODUCT
 70
     0
1001
ACDBATTR
1070
     0
1070
     1
  0
LINE
  5
DC4E
  8
0
 10
5238.4682696572708664
 20
330.6349698807509867
 30
0.0
 11
5236.3816754182325894
 21
330.6349698807509867
 31
0.0
  0
LINE
  5
DC4F
  8
0
 10
5236.3816754182325894
 20
328.6664659437510068
 30
0.0
 11
5238.4682696572708664
 21
328.6664659437510068
 31
0.0
  0
LINE
  5
DC50
  8
0
 10
5238.4879696572716057
 20
328.6861659437511207
 30
0.0
 11
5238.4879696572716057
 21
330.6152698807509864
 31
0.0
  0
LINE
  5
DC51
  8
0
 10
5236.3619754182327597
 20
328.6861659437511207
 30
0.0
 11
5236.3619754182327597
 21
330.6152698807509864
 31
0.0
  0
ARC
  5
DC52
  8
0
 10
5236.3816754182325894
 20
328.6861659437511207
 30
0.0
 40
0.0197
 50
179.9999999999901945
 51
270.0
  0
ARC
  5
DC53
  8
0
 10
5238.4682696572708664
 20
328.6861659437511207
 30
0.0
 40
0.0197
 50
270.0
 51
0.0
  0
ARC
  5
DC54
  8
0
 10
5238.4682696572708664
 20
330.6152698807509864
 30
0.0
 40
0.0197
 50
359.9999999999902229
 51
90.0
  0
ARC
  5
DC55
  8
0
 10
5236.3816754182325894
 20
330.6152698807509864
 30
0.0
 40
0.0197
 50
90.0
 51
180.0
  0
ARC
  5
DC56
  8
0
 10
5235.3049832905653602
 20
347.7663382789708066
 30
0.0
 40
17.4209690842188891
 50
273.4784750726067841
 51
280.4617597296580129
  0
ARC
  5
DC57
  8
0
 10
5235.303625956263204
 20
311.525042644386815
 30
0.0
 40
17.4311033065127994
 50
79.5398541502575682
 51
86.5190799811110338
  0
LINE
  5
DC58
  8
0
 10
5265.1220247876717622
 20
305.4693907543838236
 30
0.0
 11
5265.1220247876717622
 21
303.6351907553906244
 31
0.0
  0
LINE
  5
DC59
  8
0
 10
5265.1377543991757193
 20
303.6523203678819982
 30
0.0
 11
5265.1377543991757193
 21
305.4522611552438889
 31
0.0
  0
LINE
  5
DC5A
  8
0
 10
5265.1299247876722802
 20
305.4772907543837164
 30
0.0
 11
5266.9641252414003247
 21
305.4772907543837164
 31
0.0
  0
LINE
  5
DC5B
  8
0
 10
5266.9433719279077195
 20
305.4615611552439987
 30
0.0
 11
5265.1470543991754312
 21
305.4615611552439987
 31
0.0
  0
LINE
  5
DC5C
  8
0
 10
5266.9641252414003247
 20
303.627290755390618
 30
0.0
 11
5265.1299247876722802
 21
303.627290755390618
 31
0.0
  0
LINE
  5
DC5D
  8
0
 10
5266.9433719279077195
 20
303.6430203678821158
 30
0.0
 11
5265.1470543991754312
 21
303.6430203678821158
 31
0.0
  0
LINE
  5
DC5E
  8
0
 10
5266.9720252413999333
 20
305.4693907543838236
 30
0.0
 11
5266.9720252413999333
 21
304.9459919885874797
 31
0.0
  0
LINE
  5
DC5F
  8
0
 10
5266.9720252413999333
 20
304.1585904628389017
 30
0.0
 11
5266.9720252413999333
 21
303.6351907553906244
 31
0.0
  0
LINE
  5
DC60
  8
0
 10
5266.9526719279083409
 20
305.4522611552438889
 30
0.0
 11
5266.9526719279083409
 21
304.9459919885874797
 31
0.0
  0
LINE
  5
DC61
  8
0
 10
5266.9526719279083409
 20
304.1585904628389017
 30
0.0
 11
5266.9526719279083409
 21
303.6523203678819982
 31
0.0
  0
LINE
  5
DC62
  8
0
 10
5265.2099247942542206
 20
303.7072911933094019
 30
0.0
 11
5266.8841252252777849
 21
303.7072911933094019
 31
0.0
  0
LINE
  5
DC63
  8
0
 10
5266.892025225278303
 20
303.7151911933094084
 30
0.0
 11
5266.892025225278303
 21
304.1585904628389017
 31
0.0
  0
LINE
  5
DC64
  8
0
 10
5266.892025225278303
 20
304.9459919885874797
 30
0.0
 11
5266.892025225278303
 21
305.3893911889834953
 31
0.0
  0
LINE
  5
DC65
  8
0
 10
5265.2099247942542206
 20
305.3972911889835018
 30
0.0
 11
5266.8841252252777849
 21
305.3972911889835018
 31
0.0
  0
LINE
  5
DC66
  8
0
 10
5265.2020247942527931
 20
305.3893911889834953
 30
0.0
 11
5265.2020247942527931
 21
303.7151911933094084
 31
0.0
  0
ARC
  5
DC67
  8
0
 10
5265.2099247942542206
 20
305.3893911889834953
 30
0.0
 40
0.0079
 50
90.0
 51
179.9999999999870113
  0
ARC
  5
DC68
  8
0
 10
5265.2099247942542206
 20
303.7151911933094084
 30
0.0
 40
0.0079
 50
180.0000000000129887
 51
270.0
  0
ARC
  5
DC69
  8
0
 10
5266.8841252252777849
 20
303.7151911933094084
 30
0.0
 40
0.0079
 50
270.0
 51
359.9999999999740226
  0
ARC
  5
DC6A
  8
0
 10
5266.8841252252777849
 20
305.3893911889834953
 30
0.0
 40
0.0079
 50
0.0000000000130276
 51
90.0
  0
ARC
  5
DC6B
  8
0
 10
5266.9433719279077195
 20
305.4522611552438889
 30
0.0
 40
0.0093
 50
0.0
 51
90.0
  0
ARC
  5
DC6C
  8
0
 10
5266.9433719279077195
 20
303.6523203678819982
 30
0.0
 40
0.0093
 50
270.0
 51
359.9999999999902229
  0
ARC
  5
DC6D
  8
0
 10
5265.1470543991754312
 20
303.6523203678819982
 30
0.0
 40
0.0093
 50
180.0000000000065086
 51
270.0
  0
ARC
  5
DC6E
  8
0
 10
5265.1470543991754312
 20
305.4522611552438889
 30
0.0
 40
0.0093
 50
90.0
 51
180.0
  0
ARC
  5
DC6F
  8
0
 10
5265.1299247876722802
 20
305.4693907543838236
 30
0.0
 40
0.0079
 50
90.0
 51
180.0
  0
ARC
  5
DC70
  8
0
 10
5266.9641252414003247
 20
305.4693907543838236
 30
0.0
 40
0.0079
 50
0.0000000000130276
 51
90.0
  0
ARC
  5
DC71
  8
0
 10
5266.9641252414003247
 20
303.6351907553906244
 30
0.0
 40
0.0079
 50
270.0
 51
359.9999999999869829
  0
ARC
  5
DC72
  8
0
 10
5265.1299247876722802
 20
303.6351907553906244
 30
0.0
 40
0.0079
 50
180.0000000000260059
 51
270.0
  0
CIRCLE
  5
DC73
  8
0
 10
5266.0470250060443504
 20
304.5522938451575214
 30
0.0
 40
0.4000000000000002
  0
LINE
  5
DC74
  8
0
 10
5265.6678888878859652
 20
304.6797920957625934
 30
0.0
 11
5265.6538855169210365
 21
304.9371123172664966
 31
0.0
  0
LINE
  5
DC75
  8
0
 10
5265.6622086145716821
 20
304.9454296275395109
 30
0.0
 11
5265.9190597295100815
 21
304.931272588626598
 31
0.0
  0
ARC
  5
DC76
  8
0
 10
5265.6617738447639567
 20
304.9375416002059183
 30
0.0
 40
0.0079
 50
86.8451814105753357
 51
183.1149647209408045
  0
LINE
  5
DC77
  8
0
 10
5265.9189088719222127
 20
304.1733660734416844
 30
0.0
 11
5265.6622093575651888
 21
304.159151495473111
 31
0.0
  0
LINE
  5
DC78
  8
0
 10
5265.6538837189718834
 20
304.1674589873858281
 30
0.0
 11
5265.667614039873115
 21
304.4256158330611015
 31
0.0
  0
ARC
  5
DC79
  8
0
 10
5265.6617725690712177
 20
304.1670394112821896
 30
0.0
 40
0.0079
 50
176.9555371980920881
 51
273.169481698784125
  0
LINE
  5
DC7A
  8
0
 10
5266.4315420117573012
 20
304.7786690861947818
 30
0.0
 11
5266.4401644951676644
 21
304.9371123172664966
 31
0.0
  0
LINE
  5
DC7B
  8
0
 10
5266.4318413975170188
 20
304.9454296275395109
 30
0.0
 11
5266.1749902825786194
 21
304.931272588626598
 31
0.0
  0
ARC
  5
DC7C
  8
0
 10
5266.4322761673247442
 20
304.9375416002059183
 30
0.0
 40
0.0079
 50
356.8850352790591955
 51
93.1548185894246643
  0
LINE
  5
DC7D
  8
0
 10
5266.1751411401673977
 20
304.1733660734416844
 30
0.0
 11
5266.431840654525331
 21
304.159151495473111
 31
0.0
  0
LINE
  5
DC7E
  8
0
 10
5266.440166293117727
 20
304.1674589873858281
 30
0.0
 11
5266.4317387538203548
 21
304.3259131835715152
 31
0.0
  0
ARC
  5
DC7F
  8
0
 10
5266.4322774430183927
 20
304.1670394112821896
 30
0.0
 40
0.0079
 50
266.830518301215875
 51
3.0444628019079252
  0
LINE
  5
DC80
  8
0
 10
5265.2043386506820752
 20
303.7096050497381157
 30
0.0
 11
5265.6561925232817885
 21
304.1614471765780081
 31
0.0
  0
LINE
  5
DC81
  8
0
 10
5265.6561896443390651
 20
304.943129686247687
 30
0.0
 11
5265.2043386297309553
 21
305.3949773116044071
 31
0.0
  0
LINE
  5
DC82
  8
0
 10
5266.4378603677505453
 20
304.943129686247687
 30
0.0
 11
5266.8897113688490208
 21
305.3949773325549017
 31
0.0
  0
LINE
  5
DC83
  8
0
 10
5266.4378574888069124
 20
304.1614471765780081
 30
0.0
 11
5266.8897114424089523
 21
303.7096051232996956
 31
0.0
  0
LINE
  5
DC84
  8
0
 10
5266.8265265169684426
 20
304.3259131835715152
 30
0.0
 11
5266.3768003781688094
 21
304.3259131835715152
 31
0.0
  0
LINE
  5
DC85
  8
0
 10
5266.8265265169684426
 20
304.7786690861947818
 30
0.0
 11
5266.376804099142646
 21
304.7786690861947818
 31
0.0
  0
LINE
  5
DC86
  8
0
 10
5266.8344265169671417
 20
304.1664904628390218
 30
0.0
 11
5266.8344265169671417
 21
304.9380919885874732
 31
0.0
  0
LINE
  5
DC87
  8
0
 10
5266.8423265169667502
 20
304.9459919885874797
 30
0.0
 11
5275.8816447589224481
 21
304.9459919885874797
 31
0.0
  0
LINE
  5
DC88
  8
0
 10
5266.8423265169667502
 20
304.1585904628389017
 30
0.0
 11
5275.8816447589224481
 21
304.1585904628389017
 31
0.0
  0
ARC
  5
DC89
  8
0
 10
5266.8423265169667502
 20
304.1664904628390218
 30
0.0
 40
0.0079
 50
180.0000000000129887
 51
270.0
  0
ARC
  5
DC8A
  8
0
 10
5266.8423265169667502
 20
304.9380919885874732
 30
0.0
 40
0.0079
 50
90.0
 51
179.9999999999739089
  0
ARC
  5
DC8B
  8
0
 10
5266.8265265169684426
 20
304.7865690861946746
 30
0.0
 40
0.0079
 50
270.0
 51
0.0
  0
ARC
  5
DC8C
  8
0
 10
5266.8265265169684426
 20
304.3180131835715088
 30
0.0
 40
0.0079
 50
0.0
 51
90.0
  0
LINE
  5
DC8D
  8
0
 10
5277.6019464882183456
 20
305.4693907543838236
 30
0.0
 11
5277.6019464882183456
 21
303.6351907553906244
 31
0.0
  0
LINE
  5
DC8E
  8
0
 10
5277.5862168767125695
 20
303.6523203678819982
 30
0.0
 11
5277.5862168767125695
 21
305.4522611552438889
 31
0.0
  0
LINE
  5
DC8F
  8
0
 10
5277.5940464882178276
 20
305.4772907543837164
 30
0.0
 11
5275.7598460344897831
 21
305.4772907543837164
 31
0.0
  0
LINE
  5
DC90
  8
0
 10
5275.7805993479805693
 20
305.4615611552439987
 30
0.0
 11
5277.5769168767137671
 21
305.4615611552439987
 31
0.0
  0
LINE
  5
DC91
  8
0
 10
5275.7598460344897831
 20
303.627290755390618
 30
0.0
 11
5277.5940464882178276
 21
303.627290755390618
 31
0.0
  0
LINE
  5
DC92
  8
0
 10
5275.7805993479805693
 20
303.6430203678821158
 30
0.0
 11
5277.5769168767137671
 21
303.6430203678821158
 31
0.0
  0
LINE
  5
DC93
  8
0
 10
5275.751946034489265
 20
305.4693907543838236
 30
0.0
 11
5275.751946034489265
 21
304.9459919885874797
 31
0.0
  0
LINE
  5
DC94
  8
0
 10
5275.751946034489265
 20
304.1585904628389017
 30
0.0
 11
5275.751946034489265
 21
303.6351907553906244
 31
0.0
  0
LINE
  5
DC95
  8
0
 10
5275.7712993479799479
 20
305.4522611552438889
 30
0.0
 11
5275.7712993479799479
 21
304.9459919885874797
 31
0.0
  0
LINE
  5
DC96
  8
0
 10
5275.7712993479799479
 20
304.1585904628389017
 30
0.0
 11
5275.7712993479799479
 21
303.6523203678819982
 31
0.0
  0
LINE
  5
DC97
  8
0
 10
5277.5140464816358872
 20
303.7072911933094019
 30
0.0
 11
5275.8398460506123229
 21
303.7072911933094019
 31
0.0
  0
LINE
  5
DC98
  8
0
 10
5275.8319460506118048
 20
303.7151911933094084
 30
0.0
 11
5275.8319460506118048
 21
304.1585904628389017
 31
0.0
  0
LINE
  5
DC99
  8
0
 10
5275.8319460506118048
 20
304.9459919885874797
 30
0.0
 11
5275.8319460506118048
 21
305.3893911889834953
 31
0.0
  0
LINE
  5
DC9A
  8
0
 10
5277.5140464816358872
 20
305.3972911889835018
 30
0.0
 11
5275.8398460506123229
 21
305.3972911889835018
 31
0.0
  0
LINE
  5
DC9B
  8
0
 10
5277.5219464816373147
 20
305.3893911889834953
 30
0.0
 11
5277.5219464816373147
 21
303.7151911933094084
 31
0.0
  0
ARC
  5
DC9C
  8
0
 10
5277.5140464816358872
 20
305.3893911889834953
 30
0.0
 40
0.0079
 50
0.0000000000130276
 51
90.0
  0
ARC
  5
DC9D
  8
0
 10
5277.5140464816358872
 20
303.7151911933094084
 30
0.0
 40
0.0079
 50
270.0
 51
359.9999999999869829
  0
ARC
  5
DC9E
  8
0
 10
5275.8398460506123229
 20
303.7151911933094084
 30
0.0
 40
0.0079
 50
180.0000000000260059
 51
270.0
  0
ARC
  5
DC9F
  8
0
 10
5275.8398460506123229
 20
305.3893911889834953
 30
0.0
 40
0.0079
 50
90.0
 51
179.9999999999870113
  0
ARC
  5
DCA0
  8
0
 10
5275.7805993479805693
 20
305.4522611552438889
 30
0.0
 40
0.0093
 50
90.0
 51
180.0
  0
ARC
  5
DCA1
  8
0
 10
5275.7805993479805693
 20
303.6523203678819982
 30
0.0
 40
0.0093
 50
180.0000000000098055
 51
270.0
  0
ARC
  5
DCA2
  8
0
 10
5277.5769168767137671
 20
303.6523203678819982
 30
0.0
 40
0.0093
 50
270.0
 51
359.9999999999935199
  0
ARC
  5
DCA3
  8
0
 10
5277.5769168767137671
 20
305.4522611552438889
 30
0.0
 40
0.0093
 50
0.0
 51
90.0
  0
ARC
  5
DCA4
  8
0
 10
5277.5940464882178276
 20
305.4693907543838236
 30
0.0
 40
0.0079
 50
0.0
 51
90.0
  0
ARC
  5
DCA5
  8
0
 10
5275.7598460344897831
 20
305.4693907543838236
 30
0.0
 40
0.0079
 50
90.0
 51
179.9999999999870113
  0
ARC
  5
DCA6
  8
0
 10
5275.7598460344897831
 20
303.6351907553906244
 30
0.0
 40
0.0079
 50
180.0000000000129887
 51
270.0
  0
ARC
  5
DCA7
  8
0
 10
5277.5940464882178276
 20
303.6351907553906244
 30
0.0
 40
0.0079
 50
270.0
 51
359.9999999999740226
  0
CIRCLE
  5
DCA8
  8
0
 10
5276.6769462698439384
 20
304.5522938451575214
 30
0.0
 40
0.4000000000000002
  0
LINE
  5
DCA9
  8
0
 10
5277.0560823880032331
 20
304.6797920957625934
 30
0.0
 11
5277.0700857589681618
 21
304.9371123172664966
 31
0.0
  0
LINE
  5
DCAA
  8
0
 10
5277.0617626613156972
 20
304.9454296275395109
 30
0.0
 11
5276.8049115463791168
 21
304.931272588626598
 31
0.0
  0
ARC
  5
DCAB
  8
0
 10
5277.0621974311252416
 20
304.9375416002059183
 30
0.0
 40
0.0079
 50
356.8850352790591955
 51
93.1548185894246643
  0
LINE
  5
DCAC
  8
0
 10
5276.8050624039669856
 20
304.1733660734416844
 30
0.0
 11
5277.0617619183240095
 21
304.159151495473111
 31
0.0
  0
LINE
  5
DCAD
  8
0
 10
5277.0700875569182244
 20
304.1674589873858281
 30
0.0
 11
5277.0563572360160833
 21
304.4256158330611015
 31
0.0
  0
ARC
  5
DCAE
  8
0
 10
5277.0621987068179806
 20
304.1670394112821896
 30
0.0
 40
0.0079
 50
266.830518301215875
 51
3.0444628019079252
  0
LINE
  5
DCAF
  8
0
 10
5276.2924292641337161
 20
304.7786690861947818
 30
0.0
 11
5276.2838067807206244
 21
304.9371123172664966
 31
0.0
  0
LINE
  5
DCB0
  8
0
 10
5276.2921298783721795
 20
304.9454296275395109
 30
0.0
 11
5276.5489809933096694
 21
304.931272588626598
 31
0.0
  0
ARC
  5
DCB1
  8
0
 10
5276.2916951085644541
 20
304.9375416002059183
 30
0.0
 40
0.0079
 50
86.8451814105753357
 51
183.1149647209408045
  0
LINE
  5
DCB2
  8
0
 10
5276.5488301357208911
 20
304.1733660734416844
 30
0.0
 11
5276.2921306213647767
 21
304.159151495473111
 31
0.0
  0
LINE
  5
DCB3
  8
0
 10
5276.2838049827705618
 20
304.1674589873858281
 30
0.0
 11
5276.2922325220688435
 21
304.3259131835715152
 31
0.0
  0
ARC
  5
DCB4
  8
0
 10
5276.2916938328698961
 20
304.1670394112821896
 30
0.0
 40
0.0079
 50
176.9555371980920881
 51
273.169481698784125
  0
LINE
  5
DCB5
  8
0
 10
5277.5196326252071231
 20
303.7096050497381157
 30
0.0
 11
5277.0677787526083193
 21
304.1614471765780081
 31
0.0
  0
LINE
  5
DCB6
  8
0
 10
5277.0677816315510427
 20
304.943129686247687
 30
0.0
 11
5277.519632646158243
 21
305.3949773116044071
 31
0.0
  0
LINE
  5
DCB7
  8
0
 10
5276.2861109081377435
 20
304.943129686247687
 30
0.0
 11
5275.8342599070401775
 21
305.3949773325549017
 31
0.0
  0
LINE
  5
DCB8
  8
0
 10
5276.2861137870813764
 20
304.1614471765780081
 30
0.0
 11
5275.8342598334793365
 21
303.7096051232996956
 31
0.0
  0
LINE
  5
DCB9
  8
0
 10
5275.8974447589207557
 20
304.3259131835715152
 30
0.0
 11
5276.3471708977212984
 21
304.3259131835715152
 31
0.0
  0
LINE
  5
DCBA
  8
0
 10
5275.8974447589207557
 20
304.7786690861947818
 30
0.0
 11
5276.3471671767447333
 21
304.7786690861947818
 31
0.0
  0
LINE
  5
DCBB
  8
0
 10
5275.8895447589220566
 20
304.1664904628390218
 30
0.0
 11
5275.8895447589220566
 21
304.9380919885874732
 31
0.0
  0
ARC
  5
DCBC
  8
0
 10
5275.8816447589224481
 20
304.1664904628390218
 30
0.0
 40
0.0079
 50
270.0
 51
359.9999999999869829
  0
ARC
  5
DCBD
  8
0
 10
5275.8816447589224481
 20
304.9380919885874732
 30
0.0
 40
0.0079
 50
0.0000000000260551
 51
90.0
  0
ARC
  5
DCBE
  8
0
 10
5275.8974447589207557
 20
304.7865690861946746
 30
0.0
 40
0.0079
 50
180.0
 51
270.0
  0
ARC
  5
DCBF
  8
0
 10
5275.8974447589207557
 20
304.3180131835715088
 30
0.0
 40
0.0079
 50
90.0
 51
180.0
  0
LINE
  5
DCC0
  8
0
 10
5236.361985405372252
 20
342.2963872036010002
 30
0.0
 11
5238.3304893423719477
 21
342.2963872036010002
 31
0.0
  0
LINE
  5
DCC1
  8
0
 10
5238.3304893423719477
 20
342.2963872036010002
 30
0.0
 11
5238.3304893423719477
 21
341.5089856288009855
 31
0.0
  0
LINE
  5
DCC2
  8
0
 10
5238.3304893423719477
 20
341.5089856288009855
 30
0.0
 11
5236.361985405372252
 21
341.5089856288009855
 31
0.0
  0
LINE
  5
DCC3
  8
0
 10
5236.361985405372252
 20
341.5089856288009855
 30
0.0
 11
5236.361985405372252
 21
342.2963872036010002
 31
0.0
  0
LINE
  5
DCC4
  8
0
 10
5246.4013554840839788
 20
342.2963872036010002
 30
0.0
 11
5247.9761586336853725
 21
342.2963872036010002
 31
0.0
  0
LINE
  5
DCC5
  8
0
 10
5247.9761586336853725
 20
342.2963872036010002
 30
0.0
 11
5247.9761586336853725
 21
339.4144974398009822
 31
0.0
  0
LINE
  5
DCC6
  8
0
 10
5247.9761586336853725
 20
339.4144974398009822
 30
0.0
 11
5246.4013554840839788
 21
339.4144974398009822
 31
0.0
  0
LINE
  5
DCC7
  8
0
 10
5246.4013554840839788
 20
339.4144974398009822
 30
0.0
 11
5246.4013554840839788
 21
342.2963872036010002
 31
0.0
  0
LINE
  5
DCC8
  8
0
 10
5236.3136781828734456
 20
341.4617415343009839
 30
0.0
 11
5246.4013554840839788
 21
341.4617415343009839
 31
0.0
  0
LINE
  5
DCC9
  8
0
 10
5247.9761586336853725
 20
341.4617415343009839
 30
0.0
 11
5310.9468192507720232
 21
341.4617415343009839
 31
0.0
  0
LINE
  5
DCCA
  8
0
 10
5236.3136781828734456
 20
341.4617415343009839
 30
0.0
 11
5236.3136781828843596
 21
266.6585919280009875
 31
0.0
  0
LINE
  5
DCCB
  8
0
 10
5310.3365680696851996
 20
267.2491431091009986
 30
0.0
 11
5248.5864098147721961
 21
267.2491431091009986
 31
0.0
  0
LINE
  5
DCCC
  8
0
 10
5322.6092997015712172
 20
266.6585919280009875
 30
0.0
 11
5236.3136781828843596
 21
266.6585919280009875
 31
0.0
  0
LINE
  5
DCCD
  8
0
 10
5251.1257649328717889
 20
267.2491431091009986
 30
0.0
 11
5251.1257649328817934
 21
341.4223714554917137
 31
0.0
  0
LINE
  5
DCCE
  8
0
 10
5251.8562194297719543
 20
267.4459935028010023
 30
0.0
 11
5251.1257649328717889
 21
267.4459935028010023
 31
0.0
  0
LINE
  5
DCCF
  8
0
 10
5251.8562194297719543
 20
267.4459935028010023
 30
0.0
 11
5251.8562194297719543
 21
277.4853635815010193
 31
0.0
  0
LINE
  5
DCD0
  8
0
 10
5251.8562194297719543
 20
279.4538675184010117
 30
0.0
 11
5251.8562194297719543
 21
328.6664659438509943
 31
0.0
  0
LINE
  5
DCD1
  8
0
 10
5251.8562194297719543
 20
330.6349698807509867
 30
0.0
 11
5251.8562194297719543
 21
341.4617415343009839
 31
0.0
  0
LINE
  5
DCD2
  8
0
 10
5251.4407255627729683
 20
267.4459935028010023
 30
0.0
 11
5251.4407255627729683
 21
277.9381194870010177
 31
0.0
  0
LINE
  5
DCD3
  8
0
 10
5251.4407255627729683
 20
279.0011116129010134
 30
0.0
 11
5251.4407255627729683
 21
329.1192218493509927
 31
0.0
  0
LINE
  5
DCD4
  8
0
 10
5251.4407255627729683
 20
330.1822139752509884
 30
0.0
 11
5251.4407255627729683
 21
341.4617415343009839
 31
0.0
  0
LINE
  5
DCD5
  8
0
 10
5251.4800956415710971
 20
267.4459935028010023
 30
0.0
 11
5251.4800956415710971
 21
267.2491431091009986
 31
0.0
  0
LINE
  5
DCD6
  8
0
 10
5251.0863948541718855
 20
341.4223714555009792
 30
0.0
 11
5251.0863948541718855
 21
330.6349698807509867
 31
0.0
  0
LINE
  5
DCD7
  8
0
 10
5251.0863948541718855
 20
328.6664659438509943
 30
0.0
 11
5251.0863948541718855
 21
267.2491431091009986
 31
0.0
  0
LINE
  5
DCD8
  8
0
 10
5251.1257649328817934
 20
341.4223714554917137
 30
0.0
 11
5251.0863948541718855
 21
341.4617415343009839
 31
0.0
  0
LINE
  5
DCD9
  8
0
 10
5251.0863948541718855
 20
341.4223714555009792
 30
0.0
 11
5247.9761586336853725
 21
341.4223714555009792
 31
0.0
  0
LINE
  5
DCDA
  8
0
 10
5246.4013554840839788
 20
341.4223714555009792
 30
0.0
 11
5236.9525954382716009
 21
341.4223714555009792
 31
0.0
  0
LINE
  5
DCDB
  8
0
 10
5236.9525954382716009
 20
341.4617415343009839
 30
0.0
 11
5236.9525954382716009
 21
330.6349698807509867
 31
0.0
  0
LINE
  5
DCDC
  8
0
 10
5236.9525954382716009
 20
328.6664659437510068
 30
0.0
 11
5236.9525954382716009
 21
279.4538675184010117
 31
0.0
  0
LINE
  5
DCDD
  8
0
 10
5236.9525954382716009
 20
277.4853635814009749
 30
0.0
 11
5236.9525954382716009
 21
266.6585919280009875
 31
0.0
  0
LINE
  5
DCDE
  8
0
 10
5238.3304893423719477
 20
342.0995368098965059
 30
0.0
 11
5246.4013554840839788
 21
342.0995368098987797
 31
0.0
  0
LINE
  5
DCDF
  8
0
 10
5247.9761586336853725
 20
342.0995368098992913
 30
0.0
 11
5310.9468192507720232
 21
342.0995368099175948
 31
0.0
  0
LINE
  5
DCE0
  8
0
 10
5238.3304893423719477
 20
341.7058360225009892
 30
0.0
 11
5246.4013554840839788
 21
341.7058360225009892
 31
0.0
  0
LINE
  5
DCE1
  8
0
 10
5247.9761586336853725
 20
341.7058360225009892
 30
0.0
 11
5310.9468192507720232
 21
341.7058360225009892
 31
0.0
  0
LINE
  5
DCE2
  8
0
 10
5251.0863948541718855
 20
341.4223714555009792
 30
0.0
 11
5251.106079893522292
 21
341.44205649490101
 31
0.0
  0
LINE
  5
DCE3
  8
0
 10
5247.4840476100716842
 20
328.6664659438509943
 30
0.0
 11
5251.1257649328717889
 21
328.6664659438509943
 31
0.0
  0
LINE
  5
DCE4
  8
0
 10
5247.4643476100718544
 20
328.6861659438511083
 30
0.0
 11
5247.4643476100718544
 21
330.6152698807509864
 31
0.0
  0
ARC
  5
DCE5
  8
0
 10
5247.4840476100716842
 20
328.6861659438511083
 30
0.0
 40
0.0197
 50
179.999999999980389
 51
270.0
  0
ARC
  5
DCE6
  8
0
 10
5250.649723697324589
 20
311.4855732068058956
 30
0.0
 40
17.4705008215183284
 50
89.8904781666356882
 51
95.7699161222250268
  0
ARC
  5
DCE7
  8
0
 10
5250.7410945103811173
 20
310.8795971590851082
 30
0.0
 40
18.0826175007186585
 50
95.8649308653004937
 51
100.3767683412723954
  0
LINE
  5
DCE8
  8
0
 10
5247.4840476100716842
 20
330.6349698807509867
 30
0.0
 11
5251.1257649328717889
 21
330.6349698807509867
 31
0.0
  0
ARC
  5
DCE9
  8
0
 10
5247.4840476100716842
 20
330.6152698807509864
 30
0.0
 40
0.0197
 50
90.0
 51
180.0
  0
ARC
  5
DCEA
  8
0
 10
5250.649723697324589
 20
347.8158626177963129
 30
0.0
 40
17.4705008215183284
 50
264.2300838777749732
 51
270.109521833364397
  0
ARC
  5
DCEB
  8
0
 10
5250.741332393871744
 20
348.4235057729371192
 30
0.0
 40
18.084300189677549
 50
259.6234416736186859
 51
264.1348591198434974
  0
LINE
  5
DCEC
  8
0
 10
5255.1326213977717998
 20
328.6664659438509943
 30
0.0
 11
5251.5059282459724272
 21
328.6664659438509943
 31
0.0
  0
LINE
  5
DCED
  8
0
 10
5252.5651165683420913
 20
329.075914762751097
 30
0.0
 11
5251.5059282459724272
 21
329.075914762751097
 31
0.0
  0
LINE
  5
DCEE
  8
0
 10
5252.5848165683419211
 20
329.0956147627510973
 30
0.0
 11
5252.5848165683419211
 21
330.2058210618511112
 31
0.0
  0
ARC
  5
DCEF
  8
0
 10
5252.5651165683420913
 20
329.0956147627510973
 30
0.0
 40
0.0197
 50
270.0
 51
0.0000000000097707
  0
LINE
  5
DCF0
  8
0
 10
5255.1523213977734486
 20
328.6861659438511083
 30
0.0
 11
5255.1523213977734486
 21
330.6152698807509864
 31
0.0
  0
ARC
  5
DCF1
  8
0
 10
5255.1326213977717998
 20
328.6861659438511083
 30
0.0
 40
0.0197
 50
270.0
 51
0.0000000000195413
  0
LINE
  5
DCF2
  8
0
 10
5251.5350805060670609
 20
328.9560421106401122
 30
0.0
 11
5251.9335501786199529
 21
328.9560421106401122
 31
0.0
  0
ARC
  5
DCF3
  8
0
 10
5251.966945310518895
 20
311.4855732068058956
 30
0.0
 40
17.4705008215183284
 50
84.2300838777749732
 51
90.1095218333642833
  0
ARC
  5
DCF4
  8
0
 10
5251.8755744974632762
 20
310.8795971590851082
 30
0.0
 40
18.0826175007186585
 50
79.6232316587275619
 51
84.1350691346995205
  0
LINE
  5
DCF5
  8
0
 10
5252.5848165683419211
 20
329.3711903532511087
 30
0.0
 11
5252.5572575132418933
 21
329.3711903532511087
 31
0.0
  0
LINE
  5
DCF6
  8
0
 10
5252.5572575132418933
 20
329.3711903532511087
 30
0.0
 11
5252.5572575132418933
 21
329.174339959551105
 31
0.0
  0
LINE
  5
DCF7
  8
0
 10
5252.5572575132418933
 20
329.174339959551105
 30
0.0
 11
5252.5848165683419211
 21
329.174339959551105
 31
0.0
  0
LINE
  5
DCF8
  8
0
 10
5252.5454464896420177
 20
329.1861510537510753
 30
0.0
 11
5252.5454464896420177
 21
329.3593792590510816
 31
0.0
  0
LINE
  5
DCF9
  8
0
 10
5252.5454464896420177
 20
329.3593792590510816
 30
0.0
 11
5252.5572575132418933
 21
329.3711903532511087
 31
0.0
  0
LINE
  5
DCFA
  8
0
 10
5252.5572575132418933
 20
329.174339959551105
 30
0.0
 11
5252.5454464896420177
 21
329.1861510537510753
 31
0.0
  0
LINE
  5
DCFB
  8
0
 10
5251.1257649328790649
 20
329.1192218493509927
 30
0.0
 11
5252.5143181431421908
 21
329.1192218493509927
 31
0.0
  0
ARC
  5
DCFC
  8
0
 10
5252.5143181431421908
 20
329.1271218493511128
 30
0.0
 40
0.0079
 50
270.0
 51
0.0
  0
LINE
  5
DCFD
  8
0
 10
5252.5222181431408899
 20
329.1271218493511128
 30
0.0
 11
5252.5222181431408899
 21
330.174339959551105
 31
0.0
  0
LINE
  5
DCFE
  8
0
 10
5251.974974048643162
 20
329.1192218493509927
 30
0.0
 11
5251.974974048643162
 21
329.0798517705511017
 31
0.0
  0
LINE
  5
DCFF
  8
0
 10
5251.974974048643162
 20
329.0798517705511017
 30
0.0
 11
5252.4867850723421725
 21
329.0798517705511017
 31
0.0
  0
LINE
  5
DD00
  8
0
 10
5252.4867850723421725
 20
329.0798517705511017
 30
0.0
 11
5252.4867850723421725
 21
329.1192218493509927
 31
0.0
  0
LINE
  5
DD01
  8
0
 10
5252.1525331038419608
 20
329.0798517705511017
 30
0.0
 11
5252.1525331038419608
 21
329.075914762751097
 31
0.0
  0
LINE
  5
DD02
  8
0
 10
5252.3092260171433736
 20
329.075914762751097
 30
0.0
 11
5252.3092260171433736
 21
329.0798517705511017
 31
0.0
  0
LINE
  5
DD03
  8
0
 10
5251.5476570467417332
 20
329.075914762751097
 30
0.0
 11
5251.5476570467417332
 21
329.1192218493509927
 31
0.0
  0
LINE
  5
DD04
  8
0
 10
5255.1326213977717998
 20
330.6349698807509867
 30
0.0
 11
5251.5059282459724272
 21
330.6349698807509867
 31
0.0
  0
ARC
  5
DD05
  8
0
 10
5255.1326213977717998
 20
330.6152698807509864
 30
0.0
 40
0.0197
 50
0.0
 51
90.0
  0
LINE
  5
DD06
  8
0
 10
5252.5651165683420913
 20
330.2255210618511114
 30
0.0
 11
5251.5059282459724272
 21
330.2255210618511114
 31
0.0
  0
ARC
  5
DD07
  8
0
 10
5252.5651165683420913
 20
330.2058210618511112
 30
0.0
 40
0.0197
 50
359.9999999999902229
 51
90.0
  0
LINE
  5
DD08
  8
0
 10
5251.5349662877888477
 20
330.3453937139620962
 30
0.0
 11
5251.9335501786199529
 21
330.3453937139620962
 31
0.0
  0
ARC
  5
DD09
  8
0
 10
5251.966945310518895
 20
347.8158626177963129
 30
0.0
 40
17.4705008215183284
 50
269.8904781666357167
 51
275.7699161222250268
  0
ARC
  5
DD0A
  8
0
 10
5251.8754668139672503
 20
348.4225933204797911
 30
0.0
 40
18.0833792089973109
 50
275.8650259382487775
 51
280.3766732683075134
  0
LINE
  5
DD0B
  8
0
 10
5252.5848165683419211
 20
329.930245471350986
 30
0.0
 11
5252.5572575132418933
 21
329.930245471350986
 31
0.0
  0
LINE
  5
DD0C
  8
0
 10
5252.5572575132418933
 20
329.930245471350986
 30
0.0
 11
5252.5572575132418933
 21
330.1270958650511034
 31
0.0
  0
LINE
  5
DD0D
  8
0
 10
5252.5572575132418933
 20
330.1270958650511034
 30
0.0
 11
5252.5848165683419211
 21
330.1270958650511034
 31
0.0
  0
LINE
  5
DD0E
  8
0
 10
5252.5454464896420177
 20
330.1152847708510194
 30
0.0
 11
5252.5454464896420177
 21
329.9420565655511268
 31
0.0
  0
LINE
  5
DD0F
  8
0
 10
5252.5454464896420177
 20
329.9420565655511268
 30
0.0
 11
5252.5572575132418933
 21
329.930245471350986
 31
0.0
  0
LINE
  5
DD10
  8
0
 10
5252.5572575132418933
 20
330.1270958650511034
 30
0.0
 11
5252.5454464896420177
 21
330.1152847708510194
 31
0.0
  0
LINE
  5
DD11
  8
0
 10
5251.1257649328790649
 20
330.1822139752509884
 30
0.0
 11
5252.5143181431421908
 21
330.1822139752509884
 31
0.0
  0
ARC
  5
DD12
  8
0
 10
5252.5143181431421908
 20
330.1743139752510956
 30
0.0
 40
0.0079
 50
0.0
 51
90.0
  0
LINE
  5
DD13
  8
0
 10
5251.974974048643162
 20
330.1822139752509884
 30
0.0
 11
5251.974974048643162
 21
330.2215840540511067
 31
0.0
  0
LINE
  5
DD14
  8
0
 10
5251.974974048643162
 20
330.2215840540511067
 30
0.0
 11
5252.4867850723421725
 21
330.2215840540511067
 31
0.0
  0
LINE
  5
DD15
  8
0
 10
5252.4867850723421725
 20
330.2215840540511067
 30
0.0
 11
5252.4867850723421725
 21
330.1822139752509884
 31
0.0
  0
LINE
  5
DD16
  8
0
 10
5252.1525331038419608
 20
330.2215840540511067
 30
0.0
 11
5252.1525331038419608
 21
330.2255210618511114
 31
0.0
  0
LINE
  5
DD17
  8
0
 10
5252.3092260171433736
 20
330.2255210618511114
 30
0.0
 11
5252.3092260171433736
 21
330.2215840540511067
 31
0.0
  0
LINE
  5
DD18
  8
0
 10
5251.5476570467417332
 20
330.2255210618511114
 30
0.0
 11
5251.5476570467417332
 21
330.1822139752509884
 31
0.0
  0
LINE
  5
DD19
  8
0
 10
5251.5059282459724272
 20
330.1822139752509884
 30
0.0
 11
5251.5059282459724272
 21
341.4617415343009839
 31
0.0
  0
LINE
  5
DD1A
  8
0
 10
5251.5059282459724272
 20
329.1192218493509927
 30
0.0
 11
5251.5059282459724272
 21
279.0011116129010134
 31
0.0
  0
LINE
  5
DD1B
  8
0
 10
5251.5059282459724272
 20
277.9381194870010177
 30
0.0
 11
5251.5059282459724272
 21
267.4459935028010023
 31
0.0
  0
LINE
  5
DD1C
  8
0
 10
5250.6831188292253501
 20
330.3453937139620962
 30
0.0
 11
5251.1257649328790649
 21
330.3453937139620962
 31
0.0
  0
LINE
  5
DD1D
  8
0
 10
5250.6831188292253501
 20
328.9560421106401122
 30
0.0
 11
5251.1257649328790649
 21
328.9560421106401122
 31
0.0
  0
LINE
  5
DD1E
  8
0
 10
5251.5355851375088605
 20
330.2255210618511114
 30
0.0
 11
5251.5356843994723022
 21
330.3284131771649754
 31
0.0
  0
LINE
  5
DD1F
  8
0
 10
5251.5356843994723022
 20
330.3284131771649754
 30
0.0
 11
5251.5347783149618408
 21
330.3498385372378721
 31
0.0
  0
LINE
  5
DD20
  8
0
 10
5251.5347783149618408
 20
330.3498385372378721
 30
0.0
 11
5251.5092837231795784
 21
330.6349698807509867
 31
0.0
  0
ARC
  5
DD21
  8
0
 10
5252.1774546074793761
 20
330.3438423444329146
 30
0.0
 40
0.6606322574426277
 50
174.0324805866441125
 51
185.9961061123991044
  0
ARC
  5
DD22
  8
0
 10
5250.8729459299856899
 20
330.3435169138509764
 30
0.0
 40
0.6511235371237105
 50
353.9447989949641169
 51
6.0837877040735142
  0
LINE
  5
DD23
  8
0
 10
5251.5355825319802534
 20
329.075914762751097
 30
0.0
 11
5251.5356843994723022
 21
328.9703218312268973
 31
0.0
  0
LINE
  5
DD24
  8
0
 10
5251.5356843994723022
 20
328.9703218312268973
 30
0.0
 11
5251.5347783149618408
 21
328.9488964711540007
 31
0.0
  0
LINE
  5
DD25
  8
0
 10
5251.5347783149618408
 20
328.9488964711540007
 30
0.0
 11
5251.5095252126138803
 21
328.6664659438509943
 31
0.0
  0
ARC
  5
DD26
  8
0
 10
5252.1774546074793761
 20
328.954892663959015
 30
0.0
 40
0.6606322574426277
 50
174.0038938876008103
 51
185.9675194133558023
  0
ARC
  5
DD27
  8
0
 10
5250.8729459299856899
 20
328.9552180945407827
 30
0.0
 40
0.6511235371237105
 50
353.9162122959265275
 51
6.0552010050358929
  0
LINE
  5
DD28
  8
0
 10
5238.4682696572708664
 20
279.4538675184010117
 30
0.0
 11
5236.3816754182325894
 21
279.4538675184010117
 31
0.0
  0
LINE
  5
DD29
  8
0
 10
5236.3816754182325894
 20
277.4853635814009749
 30
0.0
 11
5238.4682696572708664
 21
277.4853635814009749
 31
0.0
  0
LINE
  5
DD2A
  8
0
 10
5238.4879696572716057
 20
277.5050635814010889
 30
0.0
 11
5238.4879696572716057
 21
279.4341675184010114
 31
0.0
  0
LINE
  5
DD2B
  8
0
 10
5236.3619754182327597
 20
277.5050635814010889
 30
0.0
 11
5236.3619754182327597
 21
279.4341675184010114
 31
0.0
  0
ARC
  5
DD2C
  8
0
 10
5236.3816754182325894
 20
277.5050635814010889
 30
0.0
 40
0.0197
 50
179.9999999999901945
 51
270.0
  0
ARC
  5
DD2D
  8
0
 10
5238.4682696572708664
 20
277.5050635814010889
 30
0.0
 40
0.0197
 50
270.0
 51
0.0
  0
ARC
  5
DD2E
  8
0
 10
5238.4682696572708664
 20
279.4341675184010114
 30
0.0
 40
0.0197
 50
359.9999999999902229
 51
90.0
  0
ARC
  5
DD2F
  8
0
 10
5236.3816754182325894
 20
279.4341675184010114
 30
0.0
 40
0.0197
 50
90.0
 51
180.0
  0
ARC
  5
DD30
  8
0
 10
5235.3049832905653602
 20
296.5852359166207179
 30
0.0
 40
17.4209690842188891
 50
273.4784750726067841
 51
280.4617597296580129
  0
ARC
  5
DD31
  8
0
 10
5235.303625956263204
 20
260.3439402820367832
 30
0.0
 40
17.4311033065127994
 50
79.5398541502575682
 51
86.5190799811110338
  0
LINE
  5
DD32
  8
0
 10
5247.4840476100716842
 20
277.4853635815010193
 30
0.0
 11
5251.1257649328717889
 21
277.4853635815010193
 31
0.0
  0
LINE
  5
DD33
  8
0
 10
5247.4643476100718544
 20
277.5050635815010764
 30
0.0
 11
5247.4643476100718544
 21
279.4314667021906757
 31
0.0
  0
ARC
  5
DD34
  8
0
 10
5247.4840476100716842
 20
277.5050635815010764
 30
0.0
 40
0.0197
 50
179.999999999980389
 51
270.0
  0
ARC
  5
DD35
  8
0
 10
5247.4840476100716842
 20
279.4314667021906757
 30
0.0
 40
0.0197
 50
90.0
 51
180.0000000000098055
  0
ARC
  5
DD36
  8
0
 10
5250.649723697324589
 20
260.3044708444559205
 30
0.0
 40
17.4705008215183284
 50
89.8904781666356882
 51
95.7699161222250268
  0
ARC
  5
DD37
  8
0
 10
5250.7410945103811173
 20
259.6984947967350763
 30
0.0
 40
18.0826175007186585
 50
95.8649308653004937
 51
100.3767683412723954
  0
LINE
  5
DD38
  8
0
 10
5247.4840476100716842
 20
279.4538675184010117
 30
0.0
 11
5251.1257649328717889
 21
279.4538675184010117
 31
0.0
  0
ARC
  5
DD39
  8
0
 10
5247.4840476100716842
 20
279.4341675184011251
 30
0.0
 40
0.0197
 50
90.0
 51
180.0000000000194973
  0
ARC
  5
DD3A
  8
0
 10
5250.649723697324589
 20
296.634760255446281
 30
0.0
 40
17.4705008215183284
 50
264.2300838777749732
 51
270.109521833364397
  0
ARC
  5
DD3B
  8
0
 10
5250.7410945103811173
 20
297.2407363031670116
 30
0.0
 40
18.0826175007186585
 50
259.6232316587276046
 51
264.1350691346993926
  0
LINE
  5
DD3C
  8
0
 10
5255.1326213977717998
 20
277.4853635815010193
 30
0.0
 11
5251.5059282459724272
 21
277.4853635815010193
 31
0.0
  0
LINE
  5
DD3D
  8
0
 10
5252.5651165683420913
 20
277.894812400401122
 30
0.0
 11
5251.5059282459724272
 21
277.894812400401122
 31
0.0
  0
LINE
  5
DD3E
  8
0
 10
5252.5848165683419211
 20
277.9145124004010086
 30
0.0
 11
5252.5848165683419211
 21
279.0247186995010225
 31
0.0
  0
ARC
  5
DD3F
  8
0
 10
5252.5651165683420913
 20
277.9145124004010086
 30
0.0
 40
0.0197
 50
270.0
 51
0.0000000000097707
  0
LINE
  5
DD40
  8
0
 10
5255.1523213977734486
 20
277.5050635815010764
 30
0.0
 11
5255.1523213977734486
 21
279.4314667021906757
 31
0.0
  0
ARC
  5
DD41
  8
0
 10
5255.1326213977717998
 20
277.5050635815010764
 30
0.0
 40
0.0197
 50
270.0
 51
0.0000000000195413
  0
ARC
  5
DD42
  8
0
 10
5255.1326213977717998
 20
279.4314667021906757
 30
0.0
 40
0.0197
 50
359.9999999999902229
 51
90.0
  0
LINE
  5
DD43
  8
0
 10
5251.5350805060670609
 20
277.7749397482900804
 30
0.0
 11
5251.9335501786199529
 21
277.7749397482900804
 31
0.0
  0
ARC
  5
DD44
  8
0
 10
5251.966945310518895
 20
260.3044708444559205
 30
0.0
 40
17.4705008215183284
 50
84.2300838777749732
 51
90.1095218333642833
  0
ARC
  5
DD45
  8
0
 10
5251.8755744974632762
 20
259.6984947967350763
 30
0.0
 40
18.0826175007186585
 50
79.6232316587275619
 51
84.1350691346995205
  0
LINE
  5
DD46
  8
0
 10
5252.5848165683419211
 20
278.19008799090102
 30
0.0
 11
5252.5572575132418933
 21
278.19008799090102
 31
0.0
  0
LINE
  5
DD47
  8
0
 10
5252.5572575132418933
 20
278.19008799090102
 30
0.0
 11
5252.5572575132418933
 21
277.9932375972010732
 31
0.0
  0
LINE
  5
DD48
  8
0
 10
5252.5572575132418933
 20
277.9932375972010732
 30
0.0
 11
5252.5848165683419211
 21
277.9932375972010732
 31
0.0
  0
LINE
  5
DD49
  8
0
 10
5252.5454464896420177
 20
278.0050486914011003
 30
0.0
 11
5252.5454464896420177
 21
278.1782768967011066
 31
0.0
  0
LINE
  5
DD4A
  8
0
 10
5252.5454464896420177
 20
278.1782768967011066
 30
0.0
 11
5252.5572575132418933
 21
278.19008799090102
 31
0.0
  0
LINE
  5
DD4B
  8
0
 10
5252.5572575132418933
 20
277.9932375972010732
 30
0.0
 11
5252.5454464896420177
 21
278.0050486914011003
 31
0.0
  0
LINE
  5
DD4C
  8
0
 10
5251.1257649328790649
 20
277.9381194870010177
 30
0.0
 11
5252.5143181431421908
 21
277.9381194870010177
 31
0.0
  0
ARC
  5
DD4D
  8
0
 10
5252.5143181431421908
 20
277.946019487001081
 30
0.0
 40
0.0079
 50
270.0
 51
0.0
  0
LINE
  5
DD4E
  8
0
 10
5252.5222181431408899
 20
277.946019487001081
 30
0.0
 11
5252.5222181431408899
 21
278.9932375972010732
 31
0.0
  0
LINE
  5
DD4F
  8
0
 10
5251.974974048643162
 20
277.9381194870010177
 30
0.0
 11
5251.974974048643162
 21
277.8987494082011267
 31
0.0
  0
LINE
  5
DD50
  8
0
 10
5251.974974048643162
 20
277.8987494082011267
 30
0.0
 11
5252.4867850723421725
 21
277.8987494082011267
 31
0.0
  0
LINE
  5
DD51
  8
0
 10
5252.4867850723421725
 20
277.8987494082011267
 30
0.0
 11
5252.4867850723421725
 21
277.9381194870010177
 31
0.0
  0
LINE
  5
DD52
  8
0
 10
5252.1525331038419608
 20
277.8987494082011267
 30
0.0
 11
5252.1525331038419608
 21
277.894812400401122
 31
0.0
  0
LINE
  5
DD53
  8
0
 10
5252.3092260171433736
 20
277.894812400401122
 30
0.0
 11
5252.3092260171433736
 21
277.8987494082011267
 31
0.0
  0
LINE
  5
DD54
  8
0
 10
5251.5476570467417332
 20
277.894812400401122
 30
0.0
 11
5251.5476570467417332
 21
277.9381194870010177
 31
0.0
  0
LINE
  5
DD55
  8
0
 10
5255.1326213977717998
 20
279.4538675184010117
 30
0.0
 11
5251.5059282459724272
 21
279.4538675184010117
 31
0.0
  0
LINE
  5
DD56
  8
0
 10
5252.5651165683420913
 20
279.0444186995010796
 30
0.0
 11
5251.5059282459724272
 21
279.0444186995010796
 31
0.0
  0
ARC
  5
DD57
  8
0
 10
5252.5651165683420913
 20
279.0247186995010225
 30
0.0
 40
0.0197
 50
359.9999999999902229
 51
90.0
  0
ARC
  5
DD58
  8
0
 10
5255.1326213977717998
 20
279.4341675184011251
 30
0.0
 40
0.0197
 50
359.9999999999805027
 51
90.0
  0
LINE
  5
DD59
  8
0
 10
5251.5349662877888477
 20
279.1642913516120075
 30
0.0
 11
5251.9335501786199529
 21
279.1642913516120075
 31
0.0
  0
ARC
  5
DD5A
  8
0
 10
5251.966945310518895
 20
296.634760255446281
 30
0.0
 40
17.4705008215183284
 50
269.8904781666357167
 51
275.7699161222250268
  0
ARC
  5
DD5B
  8
0
 10
5251.8755744974632762
 20
297.2407363031670116
 30
0.0
 40
18.0826175007186585
 50
275.8649308653004937
 51
280.3767683412723954
  0
LINE
  5
DD5C
  8
0
 10
5252.5848165683419211
 20
278.749143109001011
 30
0.0
 11
5252.5572575132418933
 21
278.749143109001011
 31
0.0
  0
LINE
  5
DD5D
  8
0
 10
5252.5572575132418933
 20
278.749143109001011
 30
0.0
 11
5252.5572575132418933
 21
278.9459935027011284
 31
0.0
  0
LINE
  5
DD5E
  8
0
 10
5252.5572575132418933
 20
278.9459935027011284
 30
0.0
 11
5252.5848165683419211
 21
278.9459935027011284
 31
0.0
  0
LINE
  5
DD5F
  8
0
 10
5252.5454464896420177
 20
278.9341824085009875
 30
0.0
 11
5252.5454464896420177
 21
278.760954203201095
 31
0.0
  0
LINE
  5
DD60
  8
0
 10
5252.5454464896420177
 20
278.760954203201095
 30
0.0
 11
5252.5572575132418933
 21
278.749143109001011
 31
0.0
  0
LINE
  5
DD61
  8
0
 10
5252.5572575132418933
 20
278.9459935027011284
 30
0.0
 11
5252.5454464896420177
 21
278.9341824085009875
 31
0.0
  0
LINE
  5
DD62
  8
0
 10
5251.1257649328790649
 20
279.0011116129010134
 30
0.0
 11
5252.5143181431421908
 21
279.0011116129010134
 31
0.0
  0
ARC
  5
DD63
  8
0
 10
5252.5143181431421908
 20
278.9932116129011206
 30
0.0
 40
0.0079
 50
0.0
 51
90.0
  0
LINE
  5
DD64
  8
0
 10
5251.974974048643162
 20
279.0011116129010134
 30
0.0
 11
5251.974974048643162
 21
279.0404816917010749
 31
0.0
  0
LINE
  5
DD65
  8
0
 10
5251.974974048643162
 20
279.0404816917010749
 30
0.0
 11
5252.4867850723421725
 21
279.0404816917010749
 31
0.0
  0
LINE
  5
DD66
  8
0
 10
5252.4867850723421725
 20
279.0404816917010749
 30
0.0
 11
5252.4867850723421725
 21
279.0011116129010134
 31
0.0
  0
LINE
  5
DD67
  8
0
 10
5252.1525331038419608
 20
279.0404816917010749
 30
0.0
 11
5252.1525331038419608
 21
279.0444186995010796
 31
0.0
  0
LINE
  5
DD68
  8
0
 10
5252.3092260171433736
 20
279.0444186995010796
 30
0.0
 11
5252.3092260171433736
 21
279.0404816917010749
 31
0.0
  0
LINE
  5
DD69
  8
0
 10
5251.5476570467417332
 20
279.0444186995010796
 30
0.0
 11
5251.5476570467417332
 21
279.0011116129010134
 31
0.0
  0
LINE
  5
DD6A
  8
0
 10
5250.6831188292253501
 20
279.1642913516120075
 30
0.0
 11
5251.1257649328790649
 21
279.1642913516120075
 31
0.0
  0
LINE
  5
DD6B
  8
0
 10
5250.6831188292253501
 20
277.7749397482900804
 30
0.0
 11
5251.1257649328790649
 21
277.7749397482900804
 31
0.0
  0
LINE
  5
DD6C
  8
0
 10
5251.5355851375088605
 20
279.0444186995010796
 30
0.0
 11
5251.5356843994723022
 21
279.1473108148148867
 31
0.0
  0
LINE
  5
DD6D
  8
0
 10
5251.5356843994723022
 20
279.1473108148148867
 30
0.0
 11
5251.5347783149618408
 21
279.1687361748877834
 31
0.0
  0
LINE
  5
DD6E
  8
0
 10
5251.5347783149618408
 20
279.1687361748877834
 30
0.0
 11
5251.5092837231795784
 21
279.4538675184010117
 31
0.0
  0
ARC
  5
DD6F
  8
0
 10
5252.1774546074793761
 20
279.1627399820828828
 30
0.0
 40
0.6606322574426277
 50
174.0324805866441125
 51
185.9961061123991044
  0
ARC
  5
DD70
  8
0
 10
5250.8729459299856899
 20
279.1624145515008877
 30
0.0
 40
0.6511235371237105
 50
353.9447989949641169
 51
6.0837877040735142
  0
LINE
  5
DD71
  8
0
 10
5251.5355825319802534
 20
277.894812400401122
 30
0.0
 11
5251.5356843994723022
 21
277.7892194688769223
 31
0.0
  0
LINE
  5
DD72
  8
0
 10
5251.5356843994723022
 20
277.7892194688769223
 30
0.0
 11
5251.5347783149618408
 21
277.7677941088040257
 31
0.0
  0
LINE
  5
DD73
  8
0
 10
5251.5347783149618408
 20
277.7677941088040257
 30
0.0
 11
5251.5095252126138803
 21
277.4853635815010193
 31
0.0
  0
ARC
  5
DD74
  8
0
 10
5252.1774546074793761
 20
277.7737903016089263
 30
0.0
 40
0.6606322574426277
 50
174.0038938876008103
 51
185.9675194133558023
  0
ARC
  5
DD75
  8
0
 10
5250.8729459299856899
 20
277.7741157321909213
 30
0.0
 40
0.6511235371237105
 50
353.9162122959265275
 51
6.0552010050358929
  0
LINE
  5
DD76
  8
0
 10
5280.3365830301718233
 20
341.4223714555009792
 30
0.0
 11
5310.9468192507720232
 21
341.4223714555009792
 31
0.0
  0
LINE
  5
DD77
  8
0
 10
5248.5667098147723664
 20
267.2294431091009983
 30
0.0
 11
5248.5667098147723664
 21
266.6782919280009878
 31
0.0
  0
ARC
  5
DD78
  8
0
 10
5248.5864098147721961
 20
267.2294431091009983
 30
0.0
 40
0.0197
 50
90.0
 51
180.0000000000098055
  0
ARC
  5
DD79
  8
0
 10
5248.5864098147721961
 20
266.6782919280009878
 30
0.0
 40
0.0197
 50
179.999999999980389
 51
270.0
  0
LINE
  5
DD7A
  8
0
 10
5279.0785208384841098
 20
267.6428438965010059
 30
0.0
 11
5278.192694066770855
 21
267.6428438965010059
 31
0.0
  0
LINE
  5
DD7B
  8
0
 10
5252.3265523344716712
 20
267.6428438965010059
 30
0.0
 11
5251.8562194297719543
 21
267.6428438965010059
 31
0.0
  0
LINE
  5
DD7C
  8
0
 10
5279.0785208384841098
 20
267.6428438965010059
 30
0.0
 11
5279.0785208384841098
 21
267.2491431091009986
 31
0.0
  0
LINE
  5
DD7D
  8
0
 10
5252.5667247650853824
 20
279.0247186995010793
 30
0.0
 11
5252.5667247650853824
 21
278.9459935027011284
 31
0.0
  0
LINE
  5
DD7E
  8
0
 10
5252.5667247650853824
 20
278.749143109001011
 30
0.0
 11
5252.5667247650853824
 21
278.19008799090102
 31
0.0
  0
LINE
  5
DD7F
  8
0
 10
5252.5667247650853824
 20
277.9932375972010732
 30
0.0
 11
5252.5667247650853824
 21
277.9145124004011222
 31
0.0
  0
ARC
  5
DD80
  8
0
 10
5252.5470247650837337
 20
279.0247186995010793
 30
0.0
 40
0.0197
 50
359.9999999999836859
 51
90.0
  0
ARC
  5
DD81
  8
0
 10
5252.5470247650837337
 20
277.9145124004011222
 30
0.0
 40
0.0197
 50
270.0
 51
0.0000000000195413
  0
LINE
  5
DD82
  8
0
 10
5252.5667247650853824
 20
330.2058210618511112
 30
0.0
 11
5252.5667247650853824
 21
330.1270958650511034
 31
0.0
  0
LINE
  5
DD83
  8
0
 10
5252.5667247650853824
 20
329.930245471350986
 30
0.0
 11
5252.5667247650853824
 21
329.3711903532511087
 31
0.0
  0
LINE
  5
DD84
  8
0
 10
5252.5667247650853824
 20
329.174339959551105
 30
0.0
 11
5252.5667247650853824
 21
329.0956147627510973
 31
0.0
  0
ARC
  5
DD85
  8
0
 10
5252.5470247650837337
 20
330.2058210618511112
 30
0.0
 40
0.0197
 50
359.9999999999836859
 51
90.0
  0
ARC
  5
DD86
  8
0
 10
5252.5470247650837337
 20
329.0956147627510973
 30
0.0
 40
0.0197
 50
270.0
 51
0.0000000000195413
  0
ARC
  5
DD87
  8
0
 10
5266.0456394590828495
 20
304.6960715962824793
 30
0.0
 40
0.577469998129241
 50
253.5078548146312016
 51
286.7781719833118927
  0
ARC
  5
DD88
  8
0
 10
5266.0483003198396545
 20
303.6300471840302748
 30
0.0
 40
0.5387187456188803
 50
72.2723780417040729
 51
80.8348216162446391
  0
ARC
  5
DD89
  8
0
 10
5266.0483003198396545
 20
303.6300471840302748
 30
0.0
 40
0.5387187456188803
 50
99.3236393563305029
 51
108.0136487562965044
  0
ARC
  5
DD8A
  8
0
 10
5276.6783318168054393
 20
304.6960715962824793
 30
0.0
 40
0.577469998129241
 50
253.2218280166881073
 51
286.4921451853687131
  0
ARC
  5
DD8B
  8
0
 10
5276.6756709560486343
 20
303.6300471840302748
 30
0.0
 40
0.5387187456188803
 50
99.1651783837553467
 51
107.7276219582958987
  0
ARC
  5
DD8C
  8
0
 10
5276.6756709560486343
 20
303.6300471840302748
 30
0.0
 40
0.5387187456188803
 50
71.9863512437035098
 51
80.6763606436695113
  0
LINE
  5
DD8D
  8
0
 10
5320.4547082271838008
 20
330.6349698807509867
 30
0.0
 11
5322.5413024662229873
 21
330.6349698807509867
 31
0.0
  0
LINE
  5
DD8E
  8
0
 10
5322.5413024662229873
 20
328.6664659437510068
 30
0.0
 11
5320.4547082271838008
 21
328.6664659437510068
 31
0.0
  0
LINE
  5
DD8F
  8
0
 10
5320.435008227183971
 20
328.6861659437511207
 30
0.0
 11
5320.435008227183971
 21
330.6152698807509864
 31
0.0
  0
LINE
  5
DD90
  8
0
 10
5322.561002466222817
 20
328.6861659437511207
 30
0.0
 11
5322.561002466222817
 21
330.6152698807509864
 31
0.0
  0
ARC
  5
DD91
  8
0
 10
5322.5413024662229873
 20
328.6861659437511207
 30
0.0
 40
0.0197
 50
270.0
 51
0.0000000000097707
  0
ARC
  5
DD92
  8
0
 10
5320.4547082271838008
 20
328.6861659437511207
 30
0.0
 40
0.0197
 50
180.0
 51
270.0
  0
ARC
  5
DD93
  8
0
 10
5320.4547082271838008
 20
330.6152698807509864
 30
0.0
 40
0.0197
 50
90.0
 51
180.0000000000098055
  0
ARC
  5
DD94
  8
0
 10
5322.5413024662229873
 20
330.6152698807509864
 30
0.0
 40
0.0197
 50
0.0
 51
90.0
  0
ARC
  5
DD95
  8
0
 10
5323.6179945938902165
 20
347.7663382789708066
 30
0.0
 40
17.4209690842188891
 50
259.5382402703419871
 51
266.5215249273412041
  0
ARC
  5
DD96
  8
0
 10
5323.6193519281941917
 20
311.525042644386815
 30
0.0
 40
17.4311033065127994
 50
93.4809200188889236
 51
100.4601458497424034
  0
LINE
  5
DD97
  8
0
 10
5293.7615832506453444
 20
305.4693907543838236
 30
0.0
 11
5293.7615832506453444
 21
303.6351907553906244
 31
0.0
  0
LINE
  5
DD98
  8
0
 10
5293.7458536391413872
 20
303.6523203678819982
 30
0.0
 11
5293.7458536391413872
 21
305.4522611552438889
 31
0.0
  0
LINE
  5
DD99
  8
0
 10
5293.7536832506448263
 20
305.4772907543837164
 30
0.0
 11
5291.9194827969167818
 21
305.4772907543837164
 31
0.0
  0
LINE
  5
DD9A
  8
0
 10
5291.9402361104066586
 20
305.4615611552439987
 30
0.0
 11
5293.7365536391416754
 21
305.4615611552439987
 31
0.0
  0
LINE
  5
DD9B
  8
0
 10
5291.9194827969167818
 20
303.627290755390618
 30
0.0
 11
5293.7536832506448263
 21
303.627290755390618
 31
0.0
  0
LINE
  5
DD9C
  8
0
 10
5291.9402361104066586
 20
303.6430203678821158
 30
0.0
 11
5293.7365536391416754
 21
303.6430203678821158
 31
0.0
  0
LINE
  5
DD9D
  8
0
 10
5291.9115827969171733
 20
305.4693907543838236
 30
0.0
 11
5291.9115827969171733
 21
304.9459919885874797
 31
0.0
  0
LINE
  5
DD9E
  8
0
 10
5291.9115827969171733
 20
304.1585904628389017
 30
0.0
 11
5291.9115827969171733
 21
303.6351907553906244
 31
0.0
  0
LINE
  5
DD9F
  8
0
 10
5291.9309361104069467
 20
305.4522611552438889
 30
0.0
 11
5291.9309361104069467
 21
304.9459919885874797
 31
0.0
  0
LINE
  5
DDA0
  8
0
 10
5291.9309361104069467
 20
304.1585904628389017
 30
0.0
 11
5291.9309361104069467
 21
303.6523203678819982
 31
0.0
  0
LINE
  5
DDA1
  8
0
 10
5293.6736832440637954
 20
303.7072911933094019
 30
0.0
 11
5291.9994828130393216
 21
303.7072911933094019
 31
0.0
  0
LINE
  5
DDA2
  8
0
 10
5291.9915828130388036
 20
303.7151911933094084
 30
0.0
 11
5291.9915828130388036
 21
304.1585904628389017
 31
0.0
  0
LINE
  5
DDA3
  8
0
 10
5291.9915828130388036
 20
304.9459919885874797
 30
0.0
 11
5291.9915828130388036
 21
305.3893911889834953
 31
0.0
  0
LINE
  5
DDA4
  8
0
 10
5293.6736832440637954
 20
305.3972911889835018
 30
0.0
 11
5291.9994828130393216
 21
305.3972911889835018
 31
0.0
  0
LINE
  5
DDA5
  8
0
 10
5293.6815832440643135
 20
305.3893911889834953
 30
0.0
 11
5293.6815832440643135
 21
303.7151911933094084
 31
0.0
  0
ARC
  5
DDA6
  8
0
 10
5293.6736832440637954
 20
305.3893911889834953
 30
0.0
 40
0.0079
 50
0.0000000000130276
 51
90.0
  0
ARC
  5
DDA7
  8
0
 10
5293.6736832440637954
 20
303.7151911933094084
 30
0.0
 40
0.0079
 50
270.0
 51
359.9999999999869829
  0
ARC
  5
DDA8
  8
0
 10
5291.9994828130393216
 20
303.7151911933094084
 30
0.0
 40
0.0079
 50
180.0000000000260059
 51
270.0
  0
ARC
  5
DDA9
  8
0
 10
5291.9994828130393216
 20
305.3893911889834953
 30
0.0
 40
0.0079
 50
90.0
 51
179.9999999999870113
  0
ARC
  5
DDAA
  8
0
 10
5291.9402361104066586
 20
305.4522611552438889
 30
0.0
 40
0.0093
 50
90.0
 51
180.0
  0
ARC
  5
DDAB
  8
0
 10
5291.9402361104066586
 20
303.6523203678819982
 30
0.0
 40
0.0093
 50
180.0000000000098055
 51
270.0
  0
ARC
  5
DDAC
  8
0
 10
5293.7365536391416754
 20
303.6523203678819982
 30
0.0
 40
0.0093
 50
270.0
 51
359.9999999999935199
  0
ARC
  5
DDAD
  8
0
 10
5293.7365536391416754
 20
305.4522611552438889
 30
0.0
 40
0.0093
 50
0.0
 51
90.0
  0
ARC
  5
DDAE
  8
0
 10
5293.7536832506448263
 20
305.4693907543838236
 30
0.0
 40
0.0079
 50
0.0
 51
90.0
  0
ARC
  5
DDAF
  8
0
 10
5291.9194827969167818
 20
305.4693907543838236
 30
0.0
 40
0.0079
 50
90.0
 51
179.9999999999870113
  0
ARC
  5
DDB0
  8
0
 10
5291.9194827969167818
 20
303.6351907553906244
 30
0.0
 40
0.0079
 50
180.0000000000129887
 51
270.0
  0
ARC
  5
DDB1
  8
0
 10
5293.7536832506448263
 20
303.6351907553906244
 30
0.0
 40
0.0079
 50
270.0
 51
359.9999999999740226
  0
CIRCLE
  5
DDB2
  8
0
 10
5292.8365830322718466
 20
304.5522938451575214
 30
0.0
 40
0.4000000000000002
  0
LINE
  5
DDB3
  8
0
 10
5293.2157191504311413
 20
304.6797920957625934
 30
0.0
 11
5293.2297225213951606
 21
304.9371123172664966
 31
0.0
  0
LINE
  5
DDB4
  8
0
 10
5293.2213994237436054
 20
304.9454296275395109
 30
0.0
 11
5292.964548308807025
 21
304.931272588626598
 31
0.0
  0
ARC
  5
DDB5
  8
0
 10
5293.2218341935522403
 20
304.9375416002059183
 30
0.0
 40
0.0079
 50
356.8850352790591955
 51
93.1548185894246643
  0
LINE
  5
DDB6
  8
0
 10
5292.9646991663948938
 20
304.1733660734416844
 30
0.0
 11
5293.2213986807519177
 21
304.159151495473111
 31
0.0
  0
LINE
  5
DDB7
  8
0
 10
5293.2297243193461327
 20
304.1674589873858281
 30
0.0
 11
5293.2159939984439916
 21
304.4256158330611015
 31
0.0
  0
ARC
  5
DDB8
  8
0
 10
5293.2218354692458888
 20
304.1670394112821896
 30
0.0
 40
0.0079
 50
266.830518301215875
 51
3.0444628019079252
  0
LINE
  5
DDB9
  8
0
 10
5292.4520660265607148
 20
304.7786690861947818
 30
0.0
 11
5292.4434435431494421
 21
304.9371123172664966
 31
0.0
  0
LINE
  5
DDBA
  8
0
 10
5292.4517666408000878
 20
304.9454296275395109
 30
0.0
 11
5292.7086177557375777
 21
304.931272588626598
 31
0.0
  0
ARC
  5
DDBB
  8
0
 10
5292.4513318709914529
 20
304.9375416002059183
 30
0.0
 40
0.0079
 50
86.8451814105753357
 51
183.1149647209408045
  0
LINE
  5
DDBC
  8
0
 10
5292.7084668981497089
 20
304.1733660734416844
 30
0.0
 11
5292.4517673837917755
 21
304.159151495473111
 31
0.0
  0
LINE
  5
DDBD
  8
0
 10
5292.4434417451993795
 20
304.1674589873858281
 30
0.0
 11
5292.4518692844958423
 21
304.3259131835715152
 31
0.0
  0
ARC
  5
DDBE
  8
0
 10
5292.4513305952978044
 20
304.1670394112821896
 30
0.0
 40
0.0079
 50
176.9555371980920881
 51
273.169481698784125
  0
LINE
  5
DDBF
  8
0
 10
5293.6792693876341218
 20
303.7096050497381157
 30
0.0
 11
5293.2274155150353181
 21
304.1614471765780081
 31
0.0
  0
LINE
  5
DDC0
  8
0
 10
5293.2274183939780414
 20
304.943129686247687
 30
0.0
 11
5293.6792694085852418
 21
305.3949773116044071
 31
0.0
  0
LINE
  5
DDC1
  8
0
 10
5292.4457476705665613
 20
304.943129686247687
 30
0.0
 11
5291.9938966694671763
 21
305.3949773325549017
 31
0.0
  0
LINE
  5
DDC2
  8
0
 10
5292.4457505495083751
 20
304.1614471765780081
 30
0.0
 11
5291.9938965959063353
 21
303.7096051232996956
 31
0.0
  0
LINE
  5
DDC3
  8
0
 10
5292.057081521348664
 20
304.3259131835715152
 30
0.0
 11
5292.5068076601482971
 21
304.3259131835715152
 31
0.0
  0
LINE
  5
DDC4
  8
0
 10
5292.057081521348664
 20
304.7786690861947818
 30
0.0
 11
5292.5068039391717321
 21
304.7786690861947818
 31
0.0
  0
LINE
  5
DDC5
  8
0
 10
5292.0491815213490554
 20
304.1664904628390218
 30
0.0
 11
5292.0491815213490554
 21
304.9380919885874732
 31
0.0
  0
LINE
  5
DDC6
  8
0
 10
5292.0412815213494468
 20
304.9459919885874797
 30
0.0
 11
5283.0019632793946585
 21
304.9459919885874797
 31
0.0
  0
LINE
  5
DDC7
  8
0
 10
5292.0412815213494468
 20
304.1585904628389017
 30
0.0
 11
5283.0019632793946585
 21
304.1585904628389017
 31
0.0
  0
ARC
  5
DDC8
  8
0
 10
5292.0412815213494468
 20
304.1664904628390218
 30
0.0
 40
0.0079
 50
270.0
 51
359.9999999999869829
  0
ARC
  5
DDC9
  8
0
 10
5292.0412815213494468
 20
304.9380919885874732
 30
0.0
 40
0.0079
 50
0.0000000000260551
 51
90.0
  0
ARC
  5
DDCA
  8
0
 10
5292.057081521348664
 20
304.7865690861946746
 30
0.0
 40
0.0079
 50
180.0
 51
270.0
  0
ARC
  5
DDCB
  8
0
 10
5292.057081521348664
 20
304.3180131835715088
 30
0.0
 40
0.0079
 50
90.0
 51
180.0
  0
LINE
  5
DDCC
  8
0
 10
5281.2816615500987609
 20
305.4693907543838236
 30
0.0
 11
5281.2816615500987609
 21
303.6351907553906244
 31
0.0
  0
LINE
  5
DDCD
  8
0
 10
5281.2973911616027181
 20
303.6523203678819982
 30
0.0
 11
5281.2973911616027181
 21
305.4522611552438889
 31
0.0
  0
LINE
  5
DDCE
  8
0
 10
5281.2895615500983695
 20
305.4772907543837164
 30
0.0
 11
5283.1237620038273235
 21
305.4772907543837164
 31
0.0
  0
LINE
  5
DDCF
  8
0
 10
5283.1030086903356278
 20
305.4615611552439987
 30
0.0
 11
5281.3066911616033394
 21
305.4615611552439987
 31
0.0
  0
LINE
  5
DDD0
  8
0
 10
5283.1237620038273235
 20
303.627290755390618
 30
0.0
 11
5281.2895615500983695
 21
303.627290755390618
 31
0.0
  0
LINE
  5
DDD1
  8
0
 10
5283.1030086903356278
 20
303.6430203678821158
 30
0.0
 11
5281.3066911616033394
 21
303.6430203678821158
 31
0.0
  0
LINE
  5
DDD2
  8
0
 10
5283.1316620038269321
 20
305.4693907543838236
 30
0.0
 11
5283.1316620038269321
 21
304.9459919885874797
 31
0.0
  0
LINE
  5
DDD3
  8
0
 10
5283.1316620038269321
 20
304.1585904628389017
 30
0.0
 11
5283.1316620038269321
 21
303.6351907553906244
 31
0.0
  0
LINE
  5
DDD4
  8
0
 10
5283.1123086903362491
 20
305.4522611552438889
 30
0.0
 11
5283.1123086903362491
 21
304.9459919885874797
 31
0.0
  0
LINE
  5
DDD5
  8
0
 10
5283.1123086903362491
 20
304.1585904628389017
 30
0.0
 11
5283.1123086903362491
 21
303.6523203678819982
 31
0.0
  0
LINE
  5
DDD6
  8
0
 10
5281.3695615566803099
 20
303.7072911933094019
 30
0.0
 11
5283.0437619877047837
 21
303.7072911933094019
 31
0.0
  0
LINE
  5
DDD7
  8
0
 10
5283.0516619877053017
 20
303.7151911933094084
 30
0.0
 11
5283.0516619877053017
 21
304.1585904628389017
 31
0.0
  0
LINE
  5
DDD8
  8
0
 10
5283.0516619877053017
 20
304.9459919885874797
 30
0.0
 11
5283.0516619877053017
 21
305.3893911889834953
 31
0.0
  0
LINE
  5
DDD9
  8
0
 10
5281.3695615566803099
 20
305.3972911889835018
 30
0.0
 11
5283.0437619877047837
 21
305.3972911889835018
 31
0.0
  0
LINE
  5
DDDA
  8
0
 10
5281.3616615566797918
 20
305.3893911889834953
 30
0.0
 11
5281.3616615566797918
 21
303.7151911933094084
 31
0.0
  0
ARC
  5
DDDB
  8
0
 10
5281.3695615566803099
 20
305.3893911889834953
 30
0.0
 40
0.0079
 50
90.0
 51
179.9999999999870113
  0
ARC
  5
DDDC
  8
0
 10
5281.3695615566803099
 20
303.7151911933094084
 30
0.0
 40
0.0079
 50
180.0000000000129887
 51
270.0
  0
ARC
  5
DDDD
  8
0
 10
5283.0437619877047837
 20
303.7151911933094084
 30
0.0
 40
0.0079
 50
270.0
 51
359.9999999999740226
  0
ARC
  5
DDDE
  8
0
 10
5283.0437619877047837
 20
305.3893911889834953
 30
0.0
 40
0.0079
 50
0.0000000000130276
 51
90.0
  0
ARC
  5
DDDF
  8
0
 10
5283.1030086903356278
 20
305.4522611552438889
 30
0.0
 40
0.0093
 50
0.0
 51
90.0
  0
ARC
  5
DDE0
  8
0
 10
5283.1030086903356278
 20
303.6523203678819982
 30
0.0
 40
0.0093
 50
270.0
 51
359.9999999999902229
  0
ARC
  5
DDE1
  8
0
 10
5281.3066911616033394
 20
303.6523203678819982
 30
0.0
 40
0.0093
 50
180.0000000000065086
 51
270.0
  0
ARC
  5
DDE2
  8
0
 10
5281.3066911616033394
 20
305.4522611552438889
 30
0.0
 40
0.0093
 50
90.0
 51
180.0
  0
ARC
  5
DDE3
  8
0
 10
5281.2895615500983695
 20
305.4693907543838236
 30
0.0
 40
0.0079
 50
90.0
 51
180.0
  0
ARC
  5
DDE4
  8
0
 10
5283.1237620038273235
 20
305.4693907543838236
 30
0.0
 40
0.0079
 50
0.0000000000130276
 51
90.0
  0
ARC
  5
DDE5
  8
0
 10
5283.1237620038273235
 20
303.6351907553906244
 30
0.0
 40
0.0079
 50
270.0
 51
359.9999999999869829
  0
ARC
  5
DDE6
  8
0
 10
5281.2895615500983695
 20
303.6351907553906244
 30
0.0
 40
0.0079
 50
180.0000000000260059
 51
270.0
  0
CIRCLE
  5
DDE7
  8
0
 10
5282.2066617684731682
 20
304.5522938451575214
 30
0.0
 40
0.4000000000000002
  0
LINE
  5
DDE8
  8
0
 10
5281.827525650312964
 20
304.6797920957625934
 30
0.0
 11
5281.8135222793498542
 21
304.9371123172664966
 31
0.0
  0
LINE
  5
DDE9
  8
0
 10
5281.8218453769986809
 20
304.9454296275395109
 30
0.0
 11
5282.0786964919370803
 21
304.931272588626598
 31
0.0
  0
ARC
  5
DDEA
  8
0
 10
5281.821410607191865
 20
304.9375416002059183
 30
0.0
 40
0.0079
 50
86.8451814105753357
 51
183.1149647209408045
  0
LINE
  5
DDEB
  8
0
 10
5282.0785456343492115
 20
304.1733660734416844
 30
0.0
 11
5281.8218461199921876
 21
304.159151495473111
 31
0.0
  0
LINE
  5
DDEC
  8
0
 10
5281.8135204813988821
 20
304.1674589873858281
 30
0.0
 11
5281.8272508023001137
 21
304.4256158330611015
 31
0.0
  0
ARC
  5
DDED
  8
0
 10
5281.821409331499126
 20
304.1670394112821896
 30
0.0
 40
0.0079
 50
176.9555371980920881
 51
273.169481698784125
  0
LINE
  5
DDEE
  8
0
 10
5282.5911787741833905
 20
304.7786690861947818
 30
0.0
 11
5282.5998012575955727
 21
304.9371123172664966
 31
0.0
  0
LINE
  5
DDEF
  8
0
 10
5282.5914781599440175
 20
304.9454296275395109
 30
0.0
 11
5282.3346270450056181
 21
304.931272588626598
 31
0.0
  0
ARC
  5
DDF0
  8
0
 10
5282.5919129297526524
 20
304.9375416002059183
 30
0.0
 40
0.0079
 50
356.8850352790591955
 51
93.1548185894246643
  0
LINE
  5
DDF1
  8
0
 10
5282.3347779025943964
 20
304.1733660734416844
 30
0.0
 11
5282.5914774169523298
 21
304.159151495473111
 31
0.0
  0
LINE
  5
DDF2
  8
0
 10
5282.5998030555456353
 20
304.1674589873858281
 30
0.0
 11
5282.591375516248263
 21
304.3259131835715152
 31
0.0
  0
ARC
  5
DDF3
  8
0
 10
5282.5919142054453914
 20
304.1670394112821896
 30
0.0
 40
0.0079
 50
266.830518301215875
 51
3.0444628019079252
  0
LINE
  5
DDF4
  8
0
 10
5281.363975413109074
 20
303.7096050497381157
 30
0.0
 11
5281.8158292857087872
 21
304.1614471765780081
 31
0.0
  0
LINE
  5
DDF5
  8
0
 10
5281.8158264067660639
 20
304.943129686247687
 30
0.0
 11
5281.3639753921588635
 21
305.3949773116044071
 31
0.0
  0
LINE
  5
DDF6
  8
0
 10
5282.5974971301766345
 20
304.943129686247687
 30
0.0
 11
5283.0493481312769291
 21
305.3949773325549017
 31
0.0
  0
LINE
  5
DDF7
  8
0
 10
5282.5974942512357302
 20
304.1614471765780081
 30
0.0
 11
5283.04934820483777
 21
303.7096051232996956
 31
0.0
  0
LINE
  5
DDF8
  8
0
 10
5282.9861632793954414
 20
304.3259131835715152
 30
0.0
 11
5282.5364371405958082
 21
304.3259131835715152
 31
0.0
  0
LINE
  5
DDF9
  8
0
 10
5282.9861632793954414
 20
304.7786690861947818
 30
0.0
 11
5282.5364408615705543
 21
304.7786690861947818
 31
0.0
  0
LINE
  5
DDFA
  8
0
 10
5282.9940632793950499
 20
304.1664904628390218
 30
0.0
 11
5282.9940632793950499
 21
304.9380919885874732
 31
0.0
  0
ARC
  5
DDFB
  8
0
 10
5283.0019632793946585
 20
304.1664904628390218
 30
0.0
 40
0.0079
 50
180.0000000000129887
 51
270.0
  0
ARC
  5
DDFC
  8
0
 10
5283.0019632793946585
 20
304.9380919885874732
 30
0.0
 40
0.0079
 50
90.0
 51
179.9999999999739089
  0
ARC
  5
DDFD
  8
0
 10
5282.9861632793954414
 20
304.7865690861946746
 30
0.0
 40
0.0079
 50
270.0
 51
0.0
  0
ARC
  5
DDFE
  8
0
 10
5282.9861632793954414
 20
304.3180131835715088
 30
0.0
 40
0.0079
 50
0.0
 51
90.0
  0
LINE
  5
DDFF
  8
0
 10
5322.5609924790842342
 20
342.2963872036010002
 30
0.0
 11
5320.592488542085448
 21
342.2963872036010002
 31
0.0
  0
LINE
  5
DE00
  8
0
 10
5320.592488542085448
 20
342.2963872036010002
 30
0.0
 11
5320.592488542085448
 21
341.5089856288009855
 31
0.0
  0
LINE
  5
DE01
  8
0
 10
5320.592488542085448
 20
341.5089856288009855
 30
0.0
 11
5322.5609924790842342
 21
341.5089856288009855
 31
0.0
  0
LINE
  5
DE02
  8
0
 10
5322.5609924790842342
 20
341.5089856288009855
 30
0.0
 11
5322.5609924790842342
 21
342.2963872036010002
 31
0.0
  0
LINE
  5
DE03
  8
0
 10
5312.5216224003734169
 20
342.2963872036010002
 30
0.0
 11
5310.9468192507720232
 21
342.2963872036010002
 31
0.0
  0
LINE
  5
DE04
  8
0
 10
5310.9468192507720232
 20
342.2963872036010002
 30
0.0
 11
5310.9468192507720232
 21
339.4144974398009822
 31
0.0
  0
LINE
  5
DE05
  8
0
 10
5310.9468192507720232
 20
339.4144974398009822
 30
0.0
 11
5312.5216224003734169
 21
339.4144974398009822
 31
0.0
  0
LINE
  5
DE06
  8
0
 10
5312.5216224003734169
 20
339.4144974398009822
 30
0.0
 11
5312.5216224003734169
 21
342.2963872036010002
 31
0.0
  0
LINE
  5
DE07
  8
0
 10
5322.6092997015839501
 20
341.4617415343009839
 30
0.0
 11
5312.5216224003734169
 21
341.4617415343009839
 31
0.0
  0
LINE
  5
DE08
  8
0
 10
5322.6092997015839501
 20
341.4617415343009839
 30
0.0
 11
5322.6092997015712172
 21
266.6585919280009875
 31
0.0
  0
LINE
  5
DE09
  8
0
 10
5307.7972129515837878
 20
267.2491431091009986
 30
0.0
 11
5307.7972129515746929
 21
341.4223714554917137
 31
0.0
  0
LINE
  5
DE0A
  8
0
 10
5307.0667584546836224
 20
267.4459935028010023
 30
0.0
 11
5307.7972129515837878
 21
267.4459935028010023
 31
0.0
  0
LINE
  5
DE0B
  8
0
 10
5307.0667584546836224
 20
267.4459935028010023
 30
0.0
 11
5307.0667584546836224
 21
277.4853635815010193
 31
0.0
  0
LINE
  5
DE0C
  8
0
 10
5307.0667584546836224
 20
279.4538675184010117
 30
0.0
 11
5307.0667584546836224
 21
328.6664659438509943
 31
0.0
  0
LINE
  5
DE0D
  8
0
 10
5307.0667584546836224
 20
330.6349698807509867
 30
0.0
 11
5307.0667584546836224
 21
341.4617415343009839
 31
0.0
  0
LINE
  5
DE0E
  8
0
 10
5307.4822523216844274
 20
267.4459935028010023
 30
0.0
 11
5307.4822523216844274
 21
277.9381194870010177
 31
0.0
  0
LINE
  5
DE0F
  8
0
 10
5307.4822523216844274
 20
279.0011116129010134
 30
0.0
 11
5307.4822523216844274
 21
329.1192218493509927
 31
0.0
  0
LINE
  5
DE10
  8
0
 10
5307.4822523216844274
 20
330.1822139752509884
 30
0.0
 11
5307.4822523216844274
 21
341.4617415343009839
 31
0.0
  0
LINE
  5
DE11
  8
0
 10
5307.4428822428835701
 20
267.4459935028010023
 30
0.0
 11
5307.4428822428835701
 21
267.2491431091009986
 31
0.0
  0
LINE
  5
DE12
  8
0
 10
5307.8365830302827817
 20
341.4223714555009792
 30
0.0
 11
5307.8365830302827817
 21
330.6349698807509867
 31
0.0
  0
LINE
  5
DE13
  8
0
 10
5307.8365830302827817
 20
328.6664659438509943
 30
0.0
 11
5307.8365830302827817
 21
267.2491431091009986
 31
0.0
  0
LINE
  5
DE14
  8
0
 10
5307.7972129515746929
 20
341.4223714554917137
 30
0.0
 11
5307.8365830302827817
 21
341.4617415343009839
 31
0.0
  0
LINE
  5
DE15
  8
0
 10
5307.8365830302827817
 20
341.4223714555009792
 30
0.0
 11
5310.9468192507720232
 21
341.4223714555009792
 31
0.0
  0
LINE
  5
DE16
  8
0
 10
5312.5216224003734169
 20
341.4223714555009792
 30
0.0
 11
5321.9703824461839758
 21
341.4223714555009792
 31
0.0
  0
LINE
  5
DE17
  8
0
 10
5321.9703824461839758
 20
341.4617415343009839
 30
0.0
 11
5321.9703824461839758
 21
330.6349698807509867
 31
0.0
  0
LINE
  5
DE18
  8
0
 10
5321.9703824461839758
 20
328.6664659437510068
 30
0.0
 11
5321.9703824461839758
 21
279.4538675184010117
 31
0.0
  0
LINE
  5
DE19
  8
0
 10
5321.9703824461839758
 20
277.4853635814009749
 30
0.0
 11
5321.9703824461839758
 21
266.6585919280009875
 31
0.0
  0
LINE
  5
DE1A
  8
0
 10
5320.592488542085448
 20
342.0995368098965059
 30
0.0
 11
5312.5216224003734169
 21
342.0995368098987797
 31
0.0
  0
LINE
  5
DE1B
  8
0
 10
5320.592488542085448
 20
341.7058360225009892
 30
0.0
 11
5312.5216224003734169
 21
341.7058360225009892
 31
0.0
  0
LINE
  5
DE1C
  8
0
 10
5307.8365830302827817
 20
341.4223714555009792
 30
0.0
 11
5307.8168979909341942
 21
341.44205649490101
 31
0.0
  0
LINE
  5
DE1D
  8
0
 10
5311.4389302743838925
 20
328.6664659438509943
 30
0.0
 11
5307.7972129515837878
 21
328.6664659438509943
 31
0.0
  0
LINE
  5
DE1E
  8
0
 10
5311.4586302743828128
 20
328.6861659438511083
 30
0.0
 11
5311.4586302743828128
 21
330.6152698807509864
 31
0.0
  0
ARC
  5
DE1F
  8
0
 10
5311.4389302743838925
 20
328.6861659438511083
 30
0.0
 40
0.0197
 50
270.0
 51
0.0000000000195413
  0
ARC
  5
DE20
  8
0
 10
5308.2732541871309877
 20
311.4855732068058956
 30
0.0
 40
17.4705008215183284
 50
84.2300838777749732
 51
90.1095218333642833
  0
ARC
  5
DE21
  8
0
 10
5308.1818833740753689
 20
310.8795971590851082
 30
0.0
 40
18.0826175007186585
 50
79.6232316587275619
 51
84.1350691346995205
  0
LINE
  5
DE22
  8
0
 10
5311.4389302743838925
 20
330.6349698807509867
 30
0.0
 11
5307.7972129515837878
 21
330.6349698807509867
 31
0.0
  0
ARC
  5
DE23
  8
0
 10
5311.4389302743838925
 20
330.6152698807509864
 30
0.0
 40
0.0197
 50
0.0
 51
90.0
  0
ARC
  5
DE24
  8
0
 10
5308.2732541871309877
 20
347.8158626177963129
 30
0.0
 40
17.4705008215183284
 50
269.8904781666357167
 51
275.7699161222250268
  0
ARC
  5
DE25
  8
0
 10
5308.1816454905838327
 20
348.4235057729371192
 30
0.0
 40
18.084300189677549
 50
275.8651408801565026
 51
280.3765583263812005
  0
LINE
  5
DE26
  8
0
 10
5303.7903564866828674
 20
328.6664659438509943
 30
0.0
 11
5307.417049638484059
 21
328.6664659438509943
 31
0.0
  0
LINE
  5
DE27
  8
0
 10
5306.3578613161153044
 20
329.075914762751097
 30
0.0
 11
5307.417049638484059
 21
329.075914762751097
 31
0.0
  0
LINE
  5
DE28
  8
0
 10
5306.3381613161136556
 20
329.0956147627510973
 30
0.0
 11
5306.3381613161136556
 21
330.2058210618511112
 31
0.0
  0
ARC
  5
DE29
  8
0
 10
5306.3578613161153044
 20
329.0956147627510973
 30
0.0
 40
0.0197
 50
179.9999999999901945
 51
270.0
  0
LINE
  5
DE2A
  8
0
 10
5303.7706564866830377
 20
328.6861659438511083
 30
0.0
 11
5303.7706564866830377
 21
330.6152698807509864
 31
0.0
  0
ARC
  5
DE2B
  8
0
 10
5303.7903564866828674
 20
328.6861659438511083
 30
0.0
 40
0.0197
 50
179.999999999980389
 51
270.0
  0
LINE
  5
DE2C
  8
0
 10
5307.3878973783876063
 20
328.9560421106401122
 30
0.0
 11
5306.9894277058356238
 21
328.9560421106401122
 31
0.0
  0
ARC
  5
DE2D
  8
0
 10
5306.9560325739357722
 20
311.4855732068058956
 30
0.0
 40
17.4705008215183284
 50
89.8904781666356882
 51
95.7699161222250268
  0
ARC
  5
DE2E
  8
0
 10
5307.04740338699321
 20
310.8795971590851082
 30
0.0
 40
18.0826175007186585
 50
95.8649308653004937
 51
100.3767683412723954
  0
LINE
  5
DE2F
  8
0
 10
5306.3381613161136556
 20
329.3711903532511087
 30
0.0
 11
5306.3657203712136834
 21
329.3711903532511087
 31
0.0
  0
LINE
  5
DE30
  8
0
 10
5306.3657203712136834
 20
329.3711903532511087
 30
0.0
 11
5306.3657203712136834
 21
329.174339959551105
 31
0.0
  0
LINE
  5
DE31
  8
0
 10
5306.3657203712136834
 20
329.174339959551105
 30
0.0
 11
5306.3381613161136556
 21
329.174339959551105
 31
0.0
  0
LINE
  5
DE32
  8
0
 10
5306.377531394815378
 20
329.1861510537510753
 30
0.0
 11
5306.377531394815378
 21
329.3593792590510816
 31
0.0
  0
LINE
  5
DE33
  8
0
 10
5306.377531394815378
 20
329.3593792590510816
 30
0.0
 11
5306.3657203712136834
 21
329.3711903532511087
 31
0.0
  0
LINE
  5
DE34
  8
0
 10
5306.3657203712136834
 20
329.174339959551105
 30
0.0
 11
5306.377531394815378
 21
329.1861510537510753
 31
0.0
  0
LINE
  5
DE35
  8
0
 10
5307.7972129515774213
 20
329.1192218493509927
 30
0.0
 11
5306.4086597413152049
 21
329.1192218493509927
 31
0.0
  0
ARC
  5
DE36
  8
0
 10
5306.4086597413152049
 20
329.1271218493511128
 30
0.0
 40
0.0079
 50
180.0
 51
270.0
  0
LINE
  5
DE37
  8
0
 10
5306.4007597413137773
 20
329.1271218493511128
 30
0.0
 11
5306.4007597413137773
 21
330.174339959551105
 31
0.0
  0
LINE
  5
DE38
  8
0
 10
5306.9480038358142338
 20
329.1192218493509927
 30
0.0
 11
5306.9480038358142338
 21
329.0798517705511017
 31
0.0
  0
LINE
  5
DE39
  8
0
 10
5306.9480038358142338
 20
329.0798517705511017
 30
0.0
 11
5306.4361928121143137
 21
329.0798517705511017
 31
0.0
  0
LINE
  5
DE3A
  8
0
 10
5306.4361928121143137
 20
329.0798517705511017
 30
0.0
 11
5306.4361928121143137
 21
329.1192218493509927
 31
0.0
  0
LINE
  5
DE3B
  8
0
 10
5306.7704447806136159
 20
329.0798517705511017
 30
0.0
 11
5306.7704447806136159
 21
329.075914762751097
 31
0.0
  0
LINE
  5
DE3C
  8
0
 10
5306.6137518673140221
 20
329.075914762751097
 30
0.0
 11
5306.6137518673140221
 21
329.0798517705511017
 31
0.0
  0
LINE
  5
DE3D
  8
0
 10
5307.3753208377138435
 20
329.075914762751097
 30
0.0
 11
5307.3753208377138435
 21
329.1192218493509927
 31
0.0
  0
LINE
  5
DE3E
  8
0
 10
5303.7903564866828674
 20
330.6349698807509867
 30
0.0
 11
5307.417049638484059
 21
330.6349698807509867
 31
0.0
  0
ARC
  5
DE3F
  8
0
 10
5303.7903564866828674
 20
330.6152698807509864
 30
0.0
 40
0.0197
 50
90.0
 51
180.0
  0
LINE
  5
DE40
  8
0
 10
5306.3578613161153044
 20
330.2255210618511114
 30
0.0
 11
5307.417049638484059
 21
330.2255210618511114
 31
0.0
  0
ARC
  5
DE41
  8
0
 10
5306.3578613161153044
 20
330.2058210618511112
 30
0.0
 40
0.0197
 50
90.0
 51
180.0000000000098055
  0
LINE
  5
DE42
  8
0
 10
5307.388011596666729
 20
330.3453937139620962
 30
0.0
 11
5306.9894277058356238
 21
330.3453937139620962
 31
0.0
  0
ARC
  5
DE43
  8
0
 10
5306.9560325739357722
 20
347.8158626177963129
 30
0.0
 40
17.4705008215183284
 50
264.2300838777749732
 51
270.109521833364397
  0
ARC
  5
DE44
  8
0
 10
5307.0475110704901454
 20
348.4225933204797911
 30
0.0
 40
18.0833792089973109
 50
259.6233267316924866
 51
264.1349740617512225
  0
LINE
  5
DE45
  8
0
 10
5306.3381613161136556
 20
329.930245471350986
 30
0.0
 11
5306.3657203712136834
 21
329.930245471350986
 31
0.0
  0
LINE
  5
DE46
  8
0
 10
5306.3657203712136834
 20
329.930245471350986
 30
0.0
 11
5306.3657203712136834
 21
330.1270958650511034
 31
0.0
  0
LINE
  5
DE47
  8
0
 10
5306.3657203712136834
 20
330.1270958650511034
 30
0.0
 11
5306.3381613161136556
 21
330.1270958650511034
 31
0.0
  0
LINE
  5
DE48
  8
0
 10
5306.377531394815378
 20
330.1152847708510194
 30
0.0
 11
5306.377531394815378
 21
329.9420565655511268
 31
0.0
  0
LINE
  5
DE49
  8
0
 10
5306.377531394815378
 20
329.9420565655511268
 30
0.0
 11
5306.3657203712136834
 21
329.930245471350986
 31
0.0
  0
LINE
  5
DE4A
  8
0
 10
5306.3657203712136834
 20
330.1270958650511034
 30
0.0
 11
5306.377531394815378
 21
330.1152847708510194
 31
0.0
  0
LINE
  5
DE4B
  8
0
 10
5307.7972129515774213
 20
330.1822139752509884
 30
0.0
 11
5306.4086597413152049
 21
330.1822139752509884
 31
0.0
  0
ARC
  5
DE4C
  8
0
 10
5306.4086597413152049
 20
330.1743139752510956
 30
0.0
 40
0.0079
 50
90.0
 51
180.0
  0
LINE
  5
DE4D
  8
0
 10
5306.9480038358142338
 20
330.1822139752509884
 30
0.0
 11
5306.9480038358142338
 21
330.2215840540511067
 31
0.0
  0
LINE
  5
DE4E
  8
0
 10
5306.9480038358142338
 20
330.2215840540511067
 30
0.0
 11
5306.4361928121143137
 21
330.2215840540511067
 31
0.0
  0
LINE
  5
DE4F
  8
0
 10
5306.4361928121143137
 20
330.2215840540511067
 30
0.0
 11
5306.4361928121143137
 21
330.1822139752509884
 31
0.0
  0
LINE
  5
DE50
  8
0
 10
5306.7704447806136159
 20
330.2215840540511067
 30
0.0
 11
5306.7704447806136159
 21
330.2255210618511114
 31
0.0
  0
LINE
  5
DE51
  8
0
 10
5306.6137518673140221
 20
330.2255210618511114
 30
0.0
 11
5306.6137518673140221
 21
330.2215840540511067
 31
0.0
  0
LINE
  5
DE52
  8
0
 10
5307.3753208377138435
 20
330.2255210618511114
 30
0.0
 11
5307.3753208377138435
 21
330.1822139752509884
 31
0.0
  0
LINE
  5
DE53
  8
0
 10
5307.417049638484059
 20
330.1822139752509884
 30
0.0
 11
5307.417049638484059
 21
341.4617415343009839
 31
0.0
  0
LINE
  5
DE54
  8
0
 10
5307.417049638484059
 20
329.1192218493509927
 30
0.0
 11
5307.417049638484059
 21
279.0011116129010134
 31
0.0
  0
LINE
  5
DE55
  8
0
 10
5307.417049638484059
 20
277.9381194870010177
 30
0.0
 11
5307.417049638484059
 21
267.4459935028010023
 31
0.0
  0
LINE
  5
DE56
  8
0
 10
5308.2398590552320456
 20
330.3453937139620962
 30
0.0
 11
5307.7972129515774213
 21
330.3453937139620962
 31
0.0
  0
LINE
  5
DE57
  8
0
 10
5308.2398590552320456
 20
328.9560421106401122
 30
0.0
 11
5307.7972129515774213
 21
328.9560421106401122
 31
0.0
  0
LINE
  5
DE58
  8
0
 10
5307.3873927469476257
 20
330.2255210618511114
 30
0.0
 11
5307.3872934849850935
 21
330.3284131771649754
 31
0.0
  0
LINE
  5
DE59
  8
0
 10
5307.3872934849850935
 20
330.3284131771649754
 30
0.0
 11
5307.3881995694937359
 21
330.3498385372378721
 31
0.0
  0
LINE
  5
DE5A
  8
0
 10
5307.3881995694937359
 20
330.3498385372378721
 30
0.0
 11
5307.4136941612769078
 21
330.6349698807509867
 31
0.0
  0
ARC
  5
DE5B
  8
0
 10
5306.7455232769780196
 20
330.3438423444329146
 30
0.0
 40
0.6606322574426277
 50
354.0038938876007819
 51
5.9675194133558573
  0
ARC
  5
DE5C
  8
0
 10
5308.0500319544689773
 20
330.3435169138509764
 30
0.0
 40
0.6511235371237105
 50
173.9162122959264991
 51
186.0552010050359115
  0
LINE
  5
DE5D
  8
0
 10
5307.3873953524753233
 20
329.075914762751097
 30
0.0
 11
5307.3872934849850935
 21
328.9703218312268973
 31
0.0
  0
LINE
  5
DE5E
  8
0
 10
5307.3872934849850935
 20
328.9703218312268973
 30
0.0
 11
5307.3881995694937359
 21
328.9488964711540007
 31
0.0
  0
LINE
  5
DE5F
  8
0
 10
5307.3881995694937359
 20
328.9488964711540007
 30
0.0
 11
5307.4134526718416964
 21
328.6664659438509943
 31
0.0
  0
ARC
  5
DE60
  8
0
 10
5306.7455232769780196
 20
328.954892663959015
 30
0.0
 40
0.6606322574426277
 50
354.0324805866442262
 51
5.9961061123991639
  0
ARC
  5
DE61
  8
0
 10
5308.0500319544689773
 20
328.9552180945407827
 30
0.0
 40
0.6511235371237105
 50
173.9447989949640885
 51
186.0837877040735009
  0
LINE
  5
DE62
  8
0
 10
5320.4547082271838008
 20
279.4538675184010117
 30
0.0
 11
5322.5413024662229873
 21
279.4538675184010117
 31
0.0
  0
LINE
  5
DE63
  8
0
 10
5322.5413024662229873
 20
277.4853635814009749
 30
0.0
 11
5320.4547082271838008
 21
277.4853635814009749
 31
0.0
  0
LINE
  5
DE64
  8
0
 10
5320.435008227183971
 20
277.5050635814010889
 30
0.0
 11
5320.435008227183971
 21
279.4341675184010114
 31
0.0
  0
LINE
  5
DE65
  8
0
 10
5322.561002466222817
 20
277.5050635814010889
 30
0.0
 11
5322.561002466222817
 21
279.4341675184010114
 31
0.0
  0
ARC
  5
DE66
  8
0
 10
5322.5413024662229873
 20
277.5050635814010889
 30
0.0
 40
0.0197
 50
270.0
 51
0.0000000000097707
  0
ARC
  5
DE67
  8
0
 10
5320.4547082271838008
 20
277.5050635814010889
 30
0.0
 40
0.0197
 50
180.0
 51
270.0
  0
ARC
  5
DE68
  8
0
 10
5320.4547082271838008
 20
279.4341675184010114
 30
0.0
 40
0.0197
 50
90.0
 51
180.0000000000098055
  0
ARC
  5
DE69
  8
0
 10
5322.5413024662229873
 20
279.4341675184010114
 30
0.0
 40
0.0197
 50
0.0
 51
90.0
  0
ARC
  5
DE6A
  8
0
 10
5323.6179945938902165
 20
296.5852359166207179
 30
0.0
 40
17.4209690842188891
 50
259.5382402703419871
 51
266.5215249273412041
  0
ARC
  5
DE6B
  8
0
 10
5323.6193519281941917
 20
260.3439402820367832
 30
0.0
 40
17.4311033065127994
 50
93.4809200188889236
 51
100.4601458497424034
  0
LINE
  5
DE6C
  8
0
 10
5311.4389302743838925
 20
277.4853635815010193
 30
0.0
 11
5307.7972129515837878
 21
277.4853635815010193
 31
0.0
  0
LINE
  5
DE6D
  8
0
 10
5311.4586302743828128
 20
277.5050635815010764
 30
0.0
 11
5311.4586302743828128
 21
279.4314667021906757
 31
0.0
  0
ARC
  5
DE6E
  8
0
 10
5311.4389302743838925
 20
277.5050635815010764
 30
0.0
 40
0.0197
 50
270.0
 51
0.0000000000195413
  0
ARC
  5
DE6F
  8
0
 10
5311.4389302743838925
 20
279.4314667021906757
 30
0.0
 40
0.0197
 50
359.9999999999902229
 51
90.0
  0
ARC
  5
DE70
  8
0
 10
5308.2732541871309877
 20
260.3044708444559205
 30
0.0
 40
17.4705008215183284
 50
84.2300838777749732
 51
90.1095218333642833
  0
ARC
  5
DE71
  8
0
 10
5308.1818833740753689
 20
259.6984947967350763
 30
0.0
 40
18.0826175007186585
 50
79.6232316587275619
 51
84.1350691346995205
  0
LINE
  5
DE72
  8
0
 10
5311.4389302743838925
 20
279.4538675184010117
 30
0.0
 11
5307.7972129515837878
 21
279.4538675184010117
 31
0.0
  0
ARC
  5
DE73
  8
0
 10
5311.4389302743838925
 20
279.4341675184011251
 30
0.0
 40
0.0197
 50
359.9999999999805027
 51
90.0
  0
ARC
  5
DE74
  8
0
 10
5308.2732541871309877
 20
296.634760255446281
 30
0.0
 40
17.4705008215183284
 50
269.8904781666357167
 51
275.7699161222250268
  0
ARC
  5
DE75
  8
0
 10
5308.1818833740753689
 20
297.2407363031670116
 30
0.0
 40
18.0826175007186585
 50
275.8649308653006074
 51
280.3767683412723954
  0
LINE
  5
DE76
  8
0
 10
5303.7903564866828674
 20
277.4853635815010193
 30
0.0
 11
5307.417049638484059
 21
277.4853635815010193
 31
0.0
  0
LINE
  5
DE77
  8
0
 10
5306.3578613161153044
 20
277.894812400401122
 30
0.0
 11
5307.417049638484059
 21
277.894812400401122
 31
0.0
  0
LINE
  5
DE78
  8
0
 10
5306.3381613161136556
 20
277.9145124004010086
 30
0.0
 11
5306.3381613161136556
 21
279.0247186995010225
 31
0.0
  0
ARC
  5
DE79
  8
0
 10
5306.3578613161153044
 20
277.9145124004010086
 30
0.0
 40
0.0197
 50
179.9999999999901945
 51
270.0
  0
LINE
  5
DE7A
  8
0
 10
5303.7706564866830377
 20
277.5050635815010764
 30
0.0
 11
5303.7706564866830377
 21
279.4314667021906757
 31
0.0
  0
ARC
  5
DE7B
  8
0
 10
5303.7903564866828674
 20
277.5050635815010764
 30
0.0
 40
0.0197
 50
179.999999999980389
 51
270.0
  0
ARC
  5
DE7C
  8
0
 10
5303.7903564866828674
 20
279.4314667021906757
 30
0.0
 40
0.0197
 50
90.0
 51
180.0000000000098055
  0
LINE
  5
DE7D
  8
0
 10
5307.3878973783876063
 20
277.7749397482900804
 30
0.0
 11
5306.9894277058356238
 21
277.7749397482900804
 31
0.0
  0
ARC
  5
DE7E
  8
0
 10
5306.9560325739357722
 20
260.3044708444559205
 30
0.0
 40
17.4705008215183284
 50
89.8904781666356882
 51
95.7699161222250268
  0
ARC
  5
DE7F
  8
0
 10
5307.04740338699321
 20
259.6984947967350763
 30
0.0
 40
18.0826175007186585
 50
95.8649308653004937
 51
100.3767683412723954
  0
LINE
  5
DE80
  8
0
 10
5306.3381613161136556
 20
278.19008799090102
 30
0.0
 11
5306.3657203712136834
 21
278.19008799090102
 31
0.0
  0
LINE
  5
DE81
  8
0
 10
5306.3657203712136834
 20
278.19008799090102
 30
0.0
 11
5306.3657203712136834
 21
277.9932375972010732
 31
0.0
  0
LINE
  5
DE82
  8
0
 10
5306.3657203712136834
 20
277.9932375972010732
 30
0.0
 11
5306.3381613161136556
 21
277.9932375972010732
 31
0.0
  0
LINE
  5
DE83
  8
0
 10
5306.377531394815378
 20
278.0050486914011003
 30
0.0
 11
5306.377531394815378
 21
278.1782768967011066
 31
0.0
  0
LINE
  5
DE84
  8
0
 10
5306.377531394815378
 20
278.1782768967011066
 30
0.0
 11
5306.3657203712136834
 21
278.19008799090102
 31
0.0
  0
LINE
  5
DE85
  8
0
 10
5306.3657203712136834
 20
277.9932375972010732
 30
0.0
 11
5306.377531394815378
 21
278.0050486914011003
 31
0.0
  0
LINE
  5
DE86
  8
0
 10
5307.7972129515774213
 20
277.9381194870010177
 30
0.0
 11
5306.4086597413152049
 21
277.9381194870010177
 31
0.0
  0
ARC
  5
DE87
  8
0
 10
5306.4086597413152049
 20
277.946019487001081
 30
0.0
 40
0.0079
 50
180.0
 51
270.0
  0
LINE
  5
DE88
  8
0
 10
5306.4007597413137773
 20
277.946019487001081
 30
0.0
 11
5306.4007597413137773
 21
278.9932375972010732
 31
0.0
  0
LINE
  5
DE89
  8
0
 10
5306.9480038358142338
 20
277.9381194870010177
 30
0.0
 11
5306.9480038358142338
 21
277.8987494082011267
 31
0.0
  0
LINE
  5
DE8A
  8
0
 10
5306.9480038358142338
 20
277.8987494082011267
 30
0.0
 11
5306.4361928121143137
 21
277.8987494082011267
 31
0.0
  0
LINE
  5
DE8B
  8
0
 10
5306.4361928121143137
 20
277.8987494082011267
 30
0.0
 11
5306.4361928121143137
 21
277.9381194870010177
 31
0.0
  0
LINE
  5
DE8C
  8
0
 10
5306.7704447806136159
 20
277.8987494082011267
 30
0.0
 11
5306.7704447806136159
 21
277.894812400401122
 31
0.0
  0
LINE
  5
DE8D
  8
0
 10
5306.6137518673140221
 20
277.894812400401122
 30
0.0
 11
5306.6137518673140221
 21
277.8987494082011267
 31
0.0
  0
LINE
  5
DE8E
  8
0
 10
5307.3753208377138435
 20
277.894812400401122
 30
0.0
 11
5307.3753208377138435
 21
277.9381194870010177
 31
0.0
  0
LINE
  5
DE8F
  8
0
 10
5303.7903564866828674
 20
279.4538675184010117
 30
0.0
 11
5307.417049638484059
 21
279.4538675184010117
 31
0.0
  0
LINE
  5
DE90
  8
0
 10
5306.3578613161153044
 20
279.0444186995010796
 30
0.0
 11
5307.417049638484059
 21
279.0444186995010796
 31
0.0
  0
ARC
  5
DE91
  8
0
 10
5306.3578613161153044
 20
279.0247186995010225
 30
0.0
 40
0.0197
 50
90.0
 51
180.0000000000098055
  0
ARC
  5
DE92
  8
0
 10
5303.7903564866828674
 20
279.4341675184011251
 30
0.0
 40
0.0197
 50
90.0
 51
180.0000000000194973
  0
LINE
  5
DE93
  8
0
 10
5307.388011596666729
 20
279.1642913516120075
 30
0.0
 11
5306.9894277058356238
 21
279.1642913516120075
 31
0.0
  0
ARC
  5
DE94
  8
0
 10
5306.9560325739357722
 20
296.634760255446281
 30
0.0
 40
17.4705008215183284
 50
264.2300838777749732
 51
270.109521833364397
  0
ARC
  5
DE95
  8
0
 10
5307.04740338699321
 20
297.2407363031670116
 30
0.0
 40
18.0826175007186585
 50
259.6232316587276046
 51
264.1350691346995063
  0
LINE
  5
DE96
  8
0
 10
5306.3381613161136556
 20
278.749143109001011
 30
0.0
 11
5306.3657203712136834
 21
278.749143109001011
 31
0.0
  0
LINE
  5
DE97
  8
0
 10
5306.3657203712136834
 20
278.749143109001011
 30
0.0
 11
5306.3657203712136834
 21
278.9459935027011284
 31
0.0
  0
LINE
  5
DE98
  8
0
 10
5306.3657203712136834
 20
278.9459935027011284
 30
0.0
 11
5306.3381613161136556
 21
278.9459935027011284
 31
0.0
  0
LINE
  5
DE99
  8
0
 10
5306.377531394815378
 20
278.9341824085009875
 30
0.0
 11
5306.377531394815378
 21
278.760954203201095
 31
0.0
  0
LINE
  5
DE9A
  8
0
 10
5306.377531394815378
 20
278.760954203201095
 30
0.0
 11
5306.3657203712136834
 21
278.749143109001011
 31
0.0
  0
LINE
  5
DE9B
  8
0
 10
5306.3657203712136834
 20
278.9459935027011284
 30
0.0
 11
5306.377531394815378
 21
278.9341824085009875
 31
0.0
  0
LINE
  5
DE9C
  8
0
 10
5307.7972129515774213
 20
279.0011116129010134
 30
0.0
 11
5306.4086597413152049
 21
279.0011116129010134
 31
0.0
  0
ARC
  5
DE9D
  8
0
 10
5306.4086597413152049
 20
278.9932116129011206
 30
0.0
 40
0.0079
 50
90.0
 51
180.0
  0
LINE
  5
DE9E
  8
0
 10
5306.9480038358142338
 20
279.0011116129010134
 30
0.0
 11
5306.9480038358142338
 21
279.0404816917010749
 31
0.0
  0
LINE
  5
DE9F
  8
0
 10
5306.9480038358142338
 20
279.0404816917010749
 30
0.0
 11
5306.4361928121143137
 21
279.0404816917010749
 31
0.0
  0
LINE
  5
DEA0
  8
0
 10
5306.4361928121143137
 20
279.0404816917010749
 30
0.0
 11
5306.4361928121143137
 21
279.0011116129010134
 31
0.0
  0
LINE
  5
DEA1
  8
0
 10
5306.7704447806136159
 20
279.0404816917010749
 30
0.0
 11
5306.7704447806136159
 21
279.0444186995010796
 31
0.0
  0
LINE
  5
DEA2
  8
0
 10
5306.6137518673140221
 20
279.0444186995010796
 30
0.0
 11
5306.6137518673140221
 21
279.0404816917010749
 31
0.0
  0
LINE
  5
DEA3
  8
0
 10
5307.3753208377138435
 20
279.0444186995010796
 30
0.0
 11
5307.3753208377138435
 21
279.0011116129010134
 31
0.0
  0
LINE
  5
DEA4
  8
0
 10
5308.2398590552320456
 20
279.1642913516120075
 30
0.0
 11
5307.7972129515774213
 21
279.1642913516120075
 31
0.0
  0
LINE
  5
DEA5
  8
0
 10
5308.2398590552320456
 20
277.7749397482900804
 30
0.0
 11
5307.7972129515774213
 21
277.7749397482900804
 31
0.0
  0
LINE
  5
DEA6
  8
0
 10
5307.3873927469476257
 20
279.0444186995010796
 30
0.0
 11
5307.3872934849850935
 21
279.1473108148148867
 31
0.0
  0
LINE
  5
DEA7
  8
0
 10
5307.3872934849850935
 20
279.1473108148148867
 30
0.0
 11
5307.3881995694937359
 21
279.1687361748877834
 31
0.0
  0
LINE
  5
DEA8
  8
0
 10
5307.3881995694937359
 20
279.1687361748877834
 30
0.0
 11
5307.4136941612769078
 21
279.4538675184010117
 31
0.0
  0
ARC
  5
DEA9
  8
0
 10
5306.7455232769780196
 20
279.1627399820828828
 30
0.0
 40
0.6606322574426277
 50
354.0038938876007819
 51
5.9675194133558573
  0
ARC
  5
DEAA
  8
0
 10
5308.0500319544689773
 20
279.1624145515008877
 30
0.0
 40
0.6511235371237105
 50
173.9162122959264991
 51
186.0552010050359115
  0
LINE
  5
DEAB
  8
0
 10
5307.3873953524753233
 20
277.894812400401122
 30
0.0
 11
5307.3872934849850935
 21
277.7892194688769223
 31
0.0
  0
LINE
  5
DEAC
  8
0
 10
5307.3872934849850935
 20
277.7892194688769223
 30
0.0
 11
5307.3881995694937359
 21
277.7677941088040257
 31
0.0
  0
LINE
  5
DEAD
  8
0
 10
5307.3881995694937359
 20
277.7677941088040257
 30
0.0
 11
5307.4134526718416964
 21
277.4853635815010193
 31
0.0
  0
ARC
  5
DEAE
  8
0
 10
5306.7455232769780196
 20
277.7737903016089263
 30
0.0
 40
0.6606322574426277
 50
354.0324805866442262
 51
5.9961061123991639
  0
ARC
  5
DEAF
  8
0
 10
5308.0500319544689773
 20
277.7741157321909213
 30
0.0
 40
0.6511235371237105
 50
173.9447989949640885
 51
186.0837877040735009
  0
LINE
  5
DEB0
  8
0
 10
5310.3562680696841198
 20
267.2294431091009983
 30
0.0
 11
5310.3562680696841198
 21
266.6782919280009878
 31
0.0
  0
ARC
  5
DEB1
  8
0
 10
5310.3365680696851996
 20
267.2294431091009983
 30
0.0
 40
0.0197
 50
359.9999999999902229
 51
90.0
  0
ARC
  5
DEB2
  8
0
 10
5310.3365680696851996
 20
266.6782919280009878
 30
0.0
 40
0.0197
 50
270.0
 51
0.0000000000195413
  0
LINE
  5
DEB3
  8
0
 10
5279.8444570459723764
 20
267.6428438965010059
 30
0.0
 11
5280.690913738872041
 21
267.6428438965010059
 31
0.0
  0
LINE
  5
DEB4
  8
0
 10
5306.5477496550747674
 20
267.6428438965010059
 30
0.0
 11
5307.0667584546836224
 21
267.6428438965010059
 31
0.0
  0
LINE
  5
DEB5
  8
0
 10
5279.8444570459723764
 20
267.6428438965010059
 30
0.0
 11
5279.8444570459723764
 21
267.2491431091009986
 31
0.0
  0
LINE
  5
DEB6
  8
0
 10
5306.3562531193720133
 20
279.0247186995010793
 30
0.0
 11
5306.3562531193720133
 21
278.9459935027011284
 31
0.0
  0
LINE
  5
DEB7
  8
0
 10
5306.3562531193720133
 20
278.749143109001011
 30
0.0
 11
5306.3562531193720133
 21
278.19008799090102
 31
0.0
  0
LINE
  5
DEB8
  8
0
 10
5306.3562531193720133
 20
277.9932375972010732
 30
0.0
 11
5306.3562531193720133
 21
277.9145124004011222
 31
0.0
  0
ARC
  5
DEB9
  8
0
 10
5306.3759531193709336
 20
279.0247186995010793
 30
0.0
 40
0.0197
 50
90.0
 51
180.0000000000163141
  0
ARC
  5
DEBA
  8
0
 10
5306.3759531193709336
 20
277.9145124004011222
 30
0.0
 40
0.0197
 50
179.999999999980389
 51
270.0
  0
LINE
  5
DEBB
  8
0
 10
5306.3562531193720133
 20
330.2058210618511112
 30
0.0
 11
5306.3562531193720133
 21
330.1270958650511034
 31
0.0
  0
LINE
  5
DEBC
  8
0
 10
5306.3562531193720133
 20
329.930245471350986
 30
0.0
 11
5306.3562531193720133
 21
329.3711903532511087
 31
0.0
  0
LINE
  5
DEBD
  8
0
 10
5306.3562531193720133
 20
329.174339959551105
 30
0.0
 11
5306.3562531193720133
 21
329.0956147627510973
 31
0.0
  0
ARC
  5
DEBE
  8
0
 10
5306.3759531193709336
 20
330.2058210618511112
 30
0.0
 40
0.0197
 50
90.0
 51
180.0000000000163141
  0
ARC
  5
DEBF
  8
0
 10
5306.3759531193709336
 20
329.0956147627510973
 30
0.0
 40
0.0197
 50
179.999999999980389
 51
270.0
  0
ARC
  5
DEC0
  8
0
 10
5292.837968579234257
 20
304.6960715962824793
 30
0.0
 40
0.577469998129241
 50
253.2218280166881073
 51
286.4921451853687131
  0
ARC
  5
DEC1
  8
0
 10
5292.835307718475633
 20
303.6300471840302748
 30
0.0
 40
0.5387187456188803
 50
99.1651783837553467
 51
107.7276219582958987
  0
ARC
  5
DEC2
  8
0
 10
5292.835307718475633
 20
303.6300471840302748
 30
0.0
 40
0.5387187456188803
 50
71.9863512437035098
 51
80.6763606436695113
  0
ARC
  5
DEC3
  8
0
 10
5282.2052762215098483
 20
304.6960715962824793
 30
0.0
 40
0.577469998129241
 50
253.5078548146312016
 51
286.7781719833118927
  0
ARC
  5
DEC4
  8
0
 10
5282.2079370822675628
 20
303.6300471840302748
 30
0.0
 40
0.5387187456188803
 50
72.2723780417040729
 51
80.8348216162446391
  0
ARC
  5
DEC5
  8
0
 10
5282.2079370822675628
 20
303.6300471840302748
 30
0.0
 40
0.5387187456188803
 50
99.3236393563305029
 51
108.0136487562965044
  0
LINE
  5
DEC6
  8
0
 10
5280.3365830301718233
 20
341.4617415343009839
 30
0.0
 11
5280.3365830301718233
 21
267.6428438965010059
 31
0.0
  0
LINE
  5
DEC7
  8
0
 10
5279.9174129232724226
 20
341.4617415343009839
 30
0.0
 11
5279.9174129232724226
 21
267.6428438965010059
 31
0.0
  0
LINE
  5
DEC8
  8
0
 10
5279.7893389356722764
 20
341.4617415343009839
 30
0.0
 11
5279.7893389356722764
 21
267.2491431091009986
 31
0.0
  0
LINE
  5
DEC9
  8
0
 10
5279.700562133171843
 20
341.4617415343009839
 30
0.0
 11
5279.700562133171843
 21
267.2491431091009986
 31
0.0
  0
LINE
  5
DECA
  8
0
 10
5279.6880433140722744
 20
341.4617415343009839
 30
0.0
 11
5279.6880433140722744
 21
267.2491431091009986
 31
0.0
  0
LINE
  5
DECB
  8
0
 10
5279.5839798805718601
 20
341.4617415343009839
 30
0.0
 11
5279.5839798805718601
 21
267.2491431091009986
 31
0.0
  0
LINE
  5
DECC
  8
0
 10
5279.4863873402719037
 20
341.4617415343009839
 30
0.0
 11
5279.4863873402719037
 21
267.2491431091009986
 31
0.0
  0
LINE
  5
DECD
  8
0
 10
5279.0942688698723941
 20
341.4617415343009839
 30
0.0
 11
5279.0942688698723941
 21
267.2491431091009986
 31
0.0
  0
LINE
  5
DECE
  8
0
 10
5278.9661948822722479
 20
341.4617415343009839
 30
0.0
 11
5278.9661948822722479
 21
267.6428438965010059
 31
0.0
  0
LINE
  5
DECF
  8
0
 10
5278.5470247753719377
 20
341.4617415343009839
 30
0.0
 11
5278.5470247753719377
 21
267.6428438965010059
 31
0.0
  0
LINE
  5
DED0
  8
0
 10
5252.3265523344716712
 20
268.0189676848009981
 30
0.0
 11
5252.3265523344716712
 21
267.2491431091009986
 31
0.0
  0
LINE
  5
DED1
  8
0
 10
5252.3265523344716712
 20
268.0189676848009981
 30
0.0
 11
5278.192694066770855
 21
268.0189676848009981
 31
0.0
  0
LINE
  5
DED2
  8
0
 10
5280.690913738872041
 20
268.0189676848009981
 30
0.0
 11
5306.5477496550747674
 21
268.0189676848009981
 31
0.0
  0
LINE
  5
DED3
  8
0
 10
5306.5477496550747674
 20
267.2491431091009986
 30
0.0
 11
5306.5477496550747674
 21
268.0189676848009981
 31
0.0
  0
LINE
  5
DED4
  8
0
 10
5280.690913738872041
 20
268.0189676848009981
 30
0.0
 11
5280.690913738872041
 21
267.2491431091009986
 31
0.0
  0
LINE
  5
DED5
  8
0
 10
5278.192694066770855
 20
268.0189676848009981
 30
0.0
 11
5278.192694066770855
 21
267.2491431091009986
 31
0.0
  0
ENDSEC
  0
EOF
