  0
SECTION
  2
HEADER
  9
$ACADVER
  1
AC1009
  9
$INSBASE
 10
5580.4546254120068625
 20
255.0352248108542881
 30
0.0
  9
$EXTMIN
 10
5577.7523109876310627
 20
255.0304850909406866
 30
-0.0015258207003583
  9
$EXTMAX
 10
5615.5040197404478022
 20
330.6905032369228934
 30
0.0000000349246037
  9
$LIMMIN
 10
0.0
 20
0.0
  9
$LIMMAX
 10
11.6929133858000007
 20
8.2677165353999982
  9
$ORTHOMODE
 70
     0
  9
$REGENMODE
 70
     1
  9
$FILLMODE
 70
     1
  9
$QTEXTMODE
 70
     0
  9
$MIRRTEXT
 70
     0
  9
$DRAGMODE
 70
     2
  9
$LTSCALE
 40
0.6431102362
  9
$OSMODE
 70
  4095
  9
$ATTMODE
 70
     1
  9
$TEXTSIZE
 40
0.2
  9
$TRACEWID
 40
0.05
  9
$TEXTSTYLE
  7
STANDARD
  9
$CLAYER
  8
0
  9
$CELTYPE
  6
BYLAYER
  9
$CECOLOR
 62
   256
  9
$DIMSCALE
 40
1.0
  9
$DIMASZ
 40
0.1875
  9
$DIMEXO
 40
0.0625
  9
$DIMDLI
 40
0.4443307087
  9
$DIMRND
 40
0.0
  9
$DIMDLE
 40
0.0
  9
$DIMEXE
 40
0.125
  9
$DIMTP
 40
0.01
  9
$DIMTM
 40
0.01
  9
$DIMTXT
 40
2.0
  9
$DIMCEN
 40
0.1052362205
  9
$DIMTSZ
 40
0.0
  9
$DIMTOL
 70
     1
  9
$DIMLIM
 70
     0
  9
$DIMTIH
 70
     1
  9
$DIMTOH
 70
     1
  9
$DIMSE1
 70
     0
  9
$DIMSE2
 70
     0
  9
$DIMTAD
 70
     0
  9
$DIMZIN
 70
     0
  9
$DIMBLK
  1

  9
$DIMASO
 70
     1
  9
$DIMSHO
 70
     1
  9
$DIMPOST
  1
\X
  9
$DIMAPOST
  1

  9
$DIMALT
 70
     1
  9
$DIMALTD
 70
     2
  9
$DIMALTF
 40
25.3999999999999986
  9
$DIMLFAC
 40
1.0
  9
$DIMTOFL
 70
     0
  9
$DIMTVP
 40
0.0
  9
$DIMTIX
 70
     0
  9
$DIMSOXD
 70
     0
  9
$DIMSAH
 70
     0
  9
$DIMBLK1
  1

  9
$DIMBLK2
  1

  9
$DIMSTYLE
  2
STANDARD
  9
$DIMCLRD
 70
     0
  9
$DIMCLRE
 70
     0
  9
$DIMCLRT
 70
     0
  9
$DIMTFAC
 40
1.0
  9
$DIMGAP
 40
0.09
  9
$LUNITS
 70
     2
  9
$LUPREC
 70
     4
  9
$SKETCHINC
 40
0.1
  9
$FILLETRAD
 40
0.0
  9
$AUNITS
 70
     0
  9
$AUPREC
 70
     0
  9
$MENU
  1
.
  9
$ELEVATION
 40
0.0
  9
$PELEVATION
 40
0.0
  9
$THICKNESS
 40
0.0
  9
$LIMCHECK
 70
     0
  9
$BLIPMODE
 70
     0
  9
$CHAMFERA
 40
0.0
  9
$CHAMFERB
 40
0.0
  9
$SKPOLY
 70
     0
  9
$TDCREATE
 40
2458060.468368056230247
  9
$TDUPDATE
 40
2459187.5726157408207655
  9
$TDINDWG
 40
0.3704700231
  9
$TDUSRTIMER
 40
0.3704700231
  9
$USRTIMER
 70
     1
  9
$ANGBASE
 50
0.0
  9
$ANGDIR
 70
     0
  9
$PDMODE
 70
     0
  9
$PDSIZE
 40
0.3125
  9
$PLINEWID
 40
0.0
  9
$COORDS
 70
     1
  9
$SPLFRAME
 70
     0
  9
$SPLINETYPE
 70
     6
  9
$SPLINESEGS
 70
     8
  9
$ATTDIA
 70
     1
  9
$ATTREQ
 70
     1
  9
$HANDLING
 70
     1
  9
$HANDSEED
  5
F148
  9
$SURFTAB1
 70
     6
  9
$SURFTAB2
 70
     6
  9
$SURFTYPE
 70
     6
  9
$SURFU
 70
     6
  9
$SURFV
 70
     6
  9
$UCSNAME
  2

  9
$UCSORG
 10
0.0
 20
0.0
 30
0.0
  9
$UCSXDIR
 10
1.0
 20
0.0
 30
0.0
  9
$UCSYDIR
 10
0.0
 20
1.0
 30
0.0
  9
$PUCSNAME
  2

  9
$PUCSORG
 10
0.0
 20
0.0
 30
0.0
  9
$PUCSXDIR
 10
1.0
 20
0.0
 30
0.0
  9
$PUCSYDIR
 10
0.0
 20
1.0
 30
0.0
  9
$USERI1
 70
     0
  9
$USERI2
 70
     0
  9
$USERI3
 70
     0
  9
$USERI4
 70
     0
  9
$USERI5
 70
     0
  9
$USERR1
 40
0.0
  9
$USERR2
 40
0.0
  9
$USERR3
 40
0.0
  9
$USERR4
 40
0.0
  9
$USERR5
 40
0.0
  9
$WORLDVIEW
 70
     1
  9
$SHADEDGE
 70
     3
  9
$SHADEDIF
 70
    70
  9
$TILEMODE
 70
     1
  9
$MAXACTVP
 70
    64
  9
$PLIMCHECK
 70
     0
  9
$PEXTMIN
 10
1.0000000000000000E+20
 20
1.0000000000000000E+20
 30
1.0000000000000000E+20
  9
$PEXTMAX
 10
-1.0000000000000000E+20
 20
-1.0000000000000000E+20
 30
-1.0000000000000000E+20
  9
$PLIMMIN
 10
0.0
 20
0.0
  9
$PLIMMAX
 10
12.0
 20
9.0
  9
$UNITMODE
 70
     0
  9
$VISRETAIN
 70
     1
  9
$PLINEGEN
 70
     0
  9
$PSLTSCALE
 70
     1
  0
ENDSEC
  0
SECTION
  2
TABLES
  0
TABLE
  2
VPORT
 70
     1
  0
VPORT
  2
*ACTIVE
 70
     0
 10
0.0
 20
0.0
 11
1.0
 21
1.0
 12
656.3978799326359876
 22
-21.4125015757124402
 13
0.0
 23
0.0
 14
1.0
 24
1.0
 15
0.0
 25
0.0
 16
0.0
 26
0.0
 36
326.4906812651062182
 17
4940.2302854314038996
 27
314.272995739644216
 37
0.0
 40
76.6238400331920815
 41
2.887234042553191
 42
50.0
 43
0.0
 44
0.0
 50
0.0
 51
0.0
 71
     0
 72
   100
 73
     1
 74
     1
 75
     0
 76
     0
 77
     0
 78
     0
  0
ENDTAB
  0
TABLE
  2
LTYPE
 70
     2
  0
LTYPE
  2
CONTINUOUS
 70
     0
  3
Solid line
 72
    65
 73
     0
 40
0.0
  0
LTYPE
  2
PHANTOM2
 70
     0
  3
___ _ _ ___ _ _ ___ _ _ ___ _ _
 72
    65
 73
     6
 40
1.25
 49
0.625
 49
-0.125
 49
0.125
 49
-0.125
 49
0.125
 49
-0.125
  0
ENDTAB
  0
TABLE
  2
LAYER
 70
     2
  0
LAYER
  2
0
 70
     0
 62
   255
  6
CONTINUOUS
  0
LAYER
  2
DEFPOINTS
 70
     0
 62
     7
  6
CONTINUOUS
  0
ENDTAB
  0
TABLE
  2
STYLE
 70
     1
  0
STYLE
  2
STANDARD
 70
     0
 40
0.0
 41
0.8
 50
0.0
 71
     0
 42
0.2
  3
txt
  4

  0
ENDTAB
  0
TABLE
  2
VIEW
 70
     0
  0
ENDTAB
  0
TABLE
  2
UCS
 70
     0
  0
ENDTAB
  0
TABLE
  2
APPID
 70
     9
  0
APPID
  2
ACAD
 70
     0
  0
APPID
  2
ACAD_MLEADERVER
 70
     0
  0
APPID
  2
ACAD_EXEMPT_FROM_CAD_STANDARDS
 70
     0
  0
APPID
  2
ACAD_NAV_VCDISPLAY
 70
     0
  0
APPID
  2
ACAECLAYERSTANDARD
 70
     0
  0
APPID
  2
ACCMTRANSPARENCY
 70
     0
  0
APPID
  2
ACAD_DSTYLE_DIMJAG
 70
     0
  0
APPID
  2
ACAD_DSTYLE_DIMTALN
 70
     0
  0
APPID
  2
ACDBATTR
 70
     0
  0
ENDTAB
  0
TABLE
  2
DIMSTYLE
 70
     1
  0
DIMSTYLE
  2
STANDARD
 70
     0
  3

  4

  5

  6

  7

 40
1.0
 41
0.1875
 42
0.0625
 43
0.38
 44
0.125
 45
0.0
 46
0.0
 47
0.01
 48
0.01
140
0.15625
141
0.09
142
0.0
143
25.3999999999999986
144
1.0
145
0.0
146
1.0
147
0.09
 71
     1
 72
     0
 73
     1
 74
     1
 75
     0
 76
     0
 77
     0
 78
     4
170
     0
171
     2
172
     0
173
     0
174
     0
175
     0
176
     0
177
     0
178
     0
  0
ENDTAB
  0
ENDSEC
  0
SECTION
  2
BLOCKS
  0
BLOCK
  8
0
  2
$MODEL_SPACE
 70
     0
 10
0.0
 20
0.0
 30
0.0
  3
$MODEL_SPACE
  1

  0
ENDBLK
  5
21
  8
0
  0
BLOCK
 67
     1
  8
0
  2
$PAPER_SPACE
 70
     0
 10
0.0
 20
0.0
 30
0.0
  3
$PAPER_SPACE
  1

  0
ENDBLK
  5
1D
 67
     1
  8
0
  0
ENDSEC
  0
SECTION
  2
ENTITIES
  0
ATTDEF
  5
3930
  8
DEFPOINTS
 10
5580.4515757190556542
 20
255.039691422225701
 30
0.0
 40
0.001
  1
K-76578T-L
  3

  2
MODELNUMBER
 70
     0
1001
ACDBATTR
1070
     0
1070
     1
  0
ATTDEF
  5
3931
  8
DEFPOINTS
 10
5580.4515757190556542
 20
255.0380247555590074
 30
0.0
 40
0.001
  1
NEW MEMOIRS
  3

  2
TRADENAME
 70
     0
1001
ACDBATTR
1070
     0
1070
     1
  0
ATTDEF
  5
3932
  8
DEFPOINTS
 10
5580.4515757190556542
 20
255.0363580888923138
 30
0.0
 40
0.001
  1
SHOWER DOOR
  3

  2
PRODUCT
 70
     0
1001
ACDBATTR
1070
     0
1070
     1
  0
LINE
  5
EEEA
  8
0
 10
5580.8179066814727776
 20
293.8409113040659122
 30
0.0
 11
5580.8880198208371439
 21
293.8409113040659122
 31
0.0
  0
LINE
  5
EEEB
  8
0
 10
5578.0642313553662461
 20
293.3959139602399091
 30
0.0
 11
5578.7378657657382064
 21
293.3959139602399091
 31
0.0
  0
LINE
  5
EEEC
  8
0
 10
5578.0642313521329925
 20
292.595913960239784
 30
0.0
 11
5578.7379741279801237
 21
292.595913960239784
 31
0.0
  0
LINE
  5
EEED
  8
0
 10
5580.8175974874657186
 20
292.1509113083918123
 30
0.0
 11
5580.8878615369512772
 21
292.1509113083918123
 31
0.0
  0
ARC
  5
EEEE
  8
0
 10
5578.6706025272069382
 20
292.9959139577397877
 30
0.0
 40
0.7300000000000246
 50
147.1119318003520107
 51
212.8880677271993136
  0
ARC
  5
EEEF
  8
0
 10
5578.0642313553662461
 20
293.3880139602404142
 30
0.0
 40
0.0079
 50
89.9999999989056647
 51
147.1119318030067973
  0
ARC
  5
EEF0
  8
0
 10
5578.064231352132083
 20
292.6038139602392789
 30
0.0
 40
0.0079
 50
212.8880677243402886
 51
270.0000000009900987
  0
LINE
  5
EEF1
  8
0
 10
5578.7430841449458967
 20
292.5977892007751962
 30
0.0
 11
5578.8406117708191232
 21
292.6805091542954074
 31
0.0
  0
LINE
  5
EEF2
  8
0
 10
5578.8406117708191232
 20
293.3666802829209246
 30
0.0
 11
5578.8406117708191232
 21
292.6251483825586774
 31
0.0
  0
LINE
  5
EEF3
  8
0
 10
5578.8367949085959481
 20
293.315198965910497
 30
0.0
 11
5578.7429481848821524
 21
293.3940620190722939
 31
0.0
  0
ARC
  5
EEF4
  8
0
 10
5578.7378657657382064
 20
293.388013960239789
 30
0.0
 40
0.0079
 50
49.958357838080353
 51
89.9999999998957776
  0
ARC
  5
EEF5
  8
0
 10
5578.7379741279801237
 20
292.6038139602399042
 30
0.0
 40
0.0079
 50
270.0000000000521254
 51
310.3035919272721799
  0
LINE
  5
EEF6
  8
0
 10
5578.0575974616976964
 20
292.5995242635490854
 30
0.0
 11
5578.0575974649646014
 21
293.3923036569852911
 31
0.0
  0
LINE
  5
EEF7
  8
0
 10
5578.7429481848821524
 20
293.3940620190722939
 30
0.0
 11
5578.7430841449458967
 21
292.5977892007751962
 31
0.0
  0
ARC
  5
EEF8
  8
0
 10
5578.447888170790975
 20
286.6379661416169142
 30
0.0
 40
6.0000325562987138
 50
66.7695656688604373
 51
74.3354640377110485
  0
ARC
  5
EEF9
  8
0
 10
5578.4479081934987335
 20
286.6380375442922741
 30
0.0
 40
5.9999583993645746
 50
74.3354640377110485
 51
83.786201274717385
  0
ARC
  5
EEFA
  8
0
 10
5578.4458333397060414
 20
286.6189809369644763
 30
0.0
 40
6.0191276273384311
 50
83.786201274717385
 51
86.2394241138612188
  0
ARC
  5
EEFB
  8
0
 10
5580.8175974874657186
 20
292.1588113083918756
 30
0.0
 40
0.0079
 50
246.769565669084102
 51
269.999999999895806
  0
LINE
  5
EEFC
  8
0
 10
5580.8959665665197463
 20
292.0938785412844254
 30
0.0
 11
5580.8959665665197463
 21
293.8979501241950061
 31
0.0
  0
ARC
  5
EEFD
  8
0
 10
5580.9761584317202505
 20
292.2597649563693949
 30
0.0
 40
0.1888541833749502
 50
246.4527306202251111
 51
270.0583747421608791
  0
ARC
  5
EEFE
  8
0
 10
5580.9038665665211738
 20
292.0938785412847096
 30
0.0
 40
0.0079
 50
180.0000000021528024
 51
246.4501297378010065
  0
ARC
  5
EEFF
  8
0
 10
5578.447888170790975
 20
299.3538625238628015
 30
0.0
 40
6.0000325562987138
 50
285.6645359622889941
 51
293.2304343311395769
  0
ARC
  5
EF00
  8
0
 10
5578.4479081934987335
 20
299.3537911211873279
 30
0.0
 40
5.9999583993645746
 50
276.2137987252825724
 51
285.6645359622889941
  0
ARC
  5
EF01
  8
0
 10
5578.4458333397060414
 20
299.3728477285151257
 30
0.0
 40
6.0191276273384311
 50
273.7605758861387812
 51
276.2137987252825724
  0
ARC
  5
EF02
  8
0
 10
5580.8175974874657186
 20
293.8330173570877264
 30
0.0
 40
0.0079
 50
87.7569572605527526
 51
113.230434330915898
  0
ARC
  5
EF03
  8
0
 10
5580.9761584317202505
 20
293.7320637091103208
 30
0.0
 40
0.1888541833749502
 50
89.5058930474329202
 51
113.5472693797749031
  0
ARC
  5
EF04
  8
0
 10
5580.9038665665211738
 20
293.8979501241950061
 30
0.0
 40
0.0079
 50
113.549870262198894
 51
179.9999999978471976
  0
ARC
  5
EF05
  8
0
 10
5580.8880277692551317
 20
293.8489651088527808
 30
0.0
 40
0.0080538087131639
 50
269.9434247595013971
 51
350.3054937965633826
  0
ARC
  5
EF06
  8
0
 10
5580.8880805766411868
 20
292.1430086981117142
 30
0.0
 40
0.0079056452943837
 50
4.041104596299891
 51
91.5876826628948351
  0
ARC
  5
EF07
  8
0
 10
5578.3090918974094166
 20
293.6554922350250081
 30
0.0
 40
0.832047620386098
 50
309.7030995284749224
 51
341.3258764009150923
  0
ARC
  5
EF08
  8
0
 10
5578.3492944418339903
 20
292.3561416279491141
 30
0.0
 40
0.7876422344692235
 50
18.2456395592713996
 51
51.4071286488653101
  0
LINE
  5
EF09
  8
0
 10
5581.6665201921259722
 20
293.8409113057753075
 30
0.0
 11
5581.5964070527616059
 21
293.8409113057753075
 31
0.0
  0
LINE
  5
EF0A
  8
0
 10
5584.4201955182343227
 20
293.3959139619493044
 30
0.0
 11
5583.7465611078623624
 21
293.3959139619493044
 31
0.0
  0
LINE
  5
EF0B
  8
0
 10
5584.4201955214666668
 20
292.595913961949293
 30
0.0
 11
5583.7464527456204451
 21
292.595913961949293
 31
0.0
  0
LINE
  5
EF0C
  8
0
 10
5581.6668293861339407
 20
292.1509113101013213
 30
0.0
 11
5581.5965653366465631
 21
292.1509113101013213
 31
0.0
  0
ARC
  5
EF0D
  8
0
 10
5583.8138243463927211
 20
292.9959139594492967
 30
0.0
 40
0.7300000000000246
 50
327.1119322728006864
 51
32.8880681996479893
  0
ARC
  5
EF0E
  8
0
 10
5584.4201955182343227
 20
293.3880139619498095
 30
0.0
 40
0.0079
 50
32.8880681969932311
 51
90.0000000010943069
  0
ARC
  5
EF0F
  8
0
 10
5584.4201955214666668
 20
292.6038139619486742
 30
0.0
 40
0.0079
 50
269.9999999990099013
 51
327.111932275659683
  0
LINE
  5
EF10
  8
0
 10
5583.7413427286528531
 20
292.5977892024847051
 30
0.0
 11
5583.6438151027796266
 21
292.6805091560048027
 31
0.0
  0
LINE
  5
EF11
  8
0
 10
5583.6438151027796266
 20
293.3666802846303767
 30
0.0
 11
5583.6438151027796266
 21
292.6251483842681864
 31
0.0
  0
LINE
  5
EF12
  8
0
 10
5583.6476319650028017
 20
293.3151989676198923
 30
0.0
 11
5583.7414786887156879
 21
293.3940620207818029
 31
0.0
  0
ARC
  5
EF13
  8
0
 10
5583.7465611078623624
 20
293.3880139619492979
 30
0.0
 40
0.0079
 50
90.0000000001042082
 51
130.0416421619196115
  0
ARC
  5
EF14
  8
0
 10
5583.7464527456204451
 20
292.6038139619492995
 30
0.0
 40
0.0079
 50
229.6964080727279054
 51
269.9999999999478746
  0
LINE
  5
EF15
  8
0
 10
5584.4268294119019629
 20
292.5995242652585944
 30
0.0
 11
5584.4268294086332389
 21
293.3923036586946864
 31
0.0
  0
LINE
  5
EF16
  8
0
 10
5583.7414786887156879
 20
293.3940620207818029
 30
0.0
 11
5583.7413427286528531
 21
292.5977892024847051
 31
0.0
  0
ARC
  5
EF17
  8
0
 10
5584.0365387028068653
 20
286.6379661433263095
 30
0.0
 40
6.0000325562987138
 50
105.6645359622888947
 51
113.2304343311395058
  0
ARC
  5
EF18
  8
0
 10
5584.0365186801000164
 20
286.6380375460017831
 30
0.0
 40
5.9999583993645746
 50
96.213798725282615
 51
105.6645359622888947
  0
ARC
  5
EF19
  8
0
 10
5584.0385935338936179
 20
286.6189809386739853
 30
0.0
 40
6.0191276273384311
 50
93.7605758861387812
 51
96.213798725282615
  0
ARC
  5
EF1A
  8
0
 10
5581.6668293861339407
 20
292.1588113101013846
 30
0.0
 40
0.0079
 50
270.000000000104194
 51
293.230434330915898
  0
LINE
  5
EF1B
  8
0
 10
5581.5884603070790035
 20
292.0938785429938207
 30
0.0
 11
5581.5884603070790035
 21
293.8979501259045151
 31
0.0
  0
ARC
  5
EF1C
  8
0
 10
5581.5066325359694019
 20
292.2639387419615105
 30
0.0
 40
0.1933340457969957
 50
270.4795375099363923
 51
293.4975513355378212
  0
ARC
  5
EF1D
  8
0
 10
5581.5805603070766665
 20
292.0938785429941049
 30
0.0
 40
0.0079
 50
293.5498702621990219
 51
359.999999997847226
  0
ARC
  5
EF1E
  8
0
 10
5584.0365387028068653
 20
299.3538625255723105
 30
0.0
 40
6.0000325562987138
 50
246.7695656688603947
 51
254.3354640377110059
  0
ARC
  5
EF1F
  8
0
 10
5584.0365186801000164
 20
299.3537911228967801
 30
0.0
 40
5.9999583993645746
 50
254.3354640377110059
 51
263.7862012747174276
  0
ARC
  5
EF20
  8
0
 10
5584.0385935338936179
 20
299.3728477302245778
 30
0.0
 40
6.0191276273384311
 50
263.7862012747174276
 51
266.2394241138612188
  0
ARC
  5
EF21
  8
0
 10
5581.6668293861339407
 20
293.8330173587971785
 30
0.0
 40
0.0079
 50
66.7695656690840735
 51
92.2430427394993444
  0
ARC
  5
EF22
  8
0
 10
5581.5963991043454371
 20
293.8489651105621761
 30
0.0
 40
0.0080538087131639
 50
189.694506203436589
 51
270.0565752404464206
  0
ARC
  5
EF23
  8
0
 10
5581.596346296957563
 20
292.1430086998212232
 30
0.0
 40
0.0079056452943837
 50
88.4123173371051507
 51
175.9588954037000974
  0
ARC
  5
EF24
  8
0
 10
5584.1753349761902427
 20
293.6554922367344034
 30
0.0
 40
0.832047620386098
 50
198.674123599084794
 51
230.296900471525106
  0
ARC
  5
EF25
  8
0
 10
5584.13513243176385
 20
292.3561416296585094
 30
0.0
 40
0.7876422344692235
 50
128.5928713511347041
 51
161.7543604407285898
  0
LINE
  5
EF26
  8
0
 10
5580.8144814898359982
 20
293.8402768721387019
 30
0.0
 11
5580.8144814898359982
 21
292.1515517933409001
 31
0.0
  0
LINE
  5
EF27
  8
0
 10
5581.6699453837627516
 20
293.8402768738482109
 30
0.0
 11
5581.6699453837627516
 21
292.1515517950502954
 31
0.0
  0
LINE
  5
EF28
  8
0
 10
5580.4940254120074314
 20
255.0352248109041966
 30
0.0
 11
5615.1113885272070547
 21
255.0352248109041966
 31
0.0
  0
LINE
  5
EF29
  8
0
 10
5580.4940254120074314
 20
255.6257759919932937
 30
0.0
 11
5580.927006568806064
 21
255.6257759919930947
 31
0.0
  0
ARC
  5
EF2A
  8
0
 10
5580.8089261995055494
 20
255.5863759919932079
 30
0.0
 40
0.0394
 50
0.0
 51
90.0
  0
LINE
  5
EF2B
  8
0
 10
5581.4782474593057486
 20
255.6257759919930095
 30
0.0
 11
5581.9900285617068221
 21
255.6257759919930095
 31
0.0
  0
LINE
  5
EF2C
  8
0
 10
5580.4546254120068625
 20
255.5863759919932079
 30
0.0
 11
5580.4546254120068625
 21
255.0746248109041971
 31
0.0
  0
LINE
  5
EF2D
  8
0
 10
5582.0294285617073911
 20
255.58637599199281
 30
0.0
 11
5582.0294285617073911
 21
255.0352248109041966
 31
0.0
  0
LINE
  5
EF2E
  8
0
 10
5581.4782474593057486
 20
255.0352248109041966
 30
0.0
 11
5581.4782474593057486
 21
255.6257759919930095
 31
0.0
  0
ARC
  5
EF2F
  8
0
 10
5580.4940254120074314
 20
255.5863759919932079
 30
0.0
 40
0.0394
 50
90.0
 51
179.9999999999901945
  0
ARC
  5
EF30
  8
0
 10
5580.4940254120074314
 20
255.0746248109041971
 30
0.0
 40
0.0394
 50
179.9999999999836859
 51
270.0
  0
ARC
  5
EF31
  8
0
 10
5581.9900285617068221
 20
255.58637599199281
 30
0.0
 40
0.0394
 50
0.0000000000065138
 51
89.9999999999478888
  0
LINE
  5
EF32
  8
0
 10
5581.4703474593070496
 20
255.0549098503041989
 30
0.0
 11
5581.4084399816056248
 21
255.0549098503041989
 31
0.0
  0
ARC
  5
EF33
  8
0
 10
5581.4703474593070496
 20
255.0628098503042054
 30
0.0
 40
0.0079
 50
270.000000000104194
 51
359.9999999999478746
  0
LINE
  5
EF34
  8
0
 10
5580.9664364358068269
 20
327.7911303227043049
 30
0.0
 11
5580.9664364358068269
 21
329.8383744172043066
 31
0.0
  0
LINE
  5
EF35
  8
0
 10
5580.9664364358068269
 20
329.8383744172043066
 30
0.0
 11
5581.4084399816056248
 21
329.8383744172043066
 31
0.0
  0
LINE
  5
EF36
  8
0
 10
5581.6357277744073144
 20
327.7911303227043049
 30
0.0
 11
5581.4084399816056248
 21
327.7911303227043049
 31
0.0
  0
LINE
  5
EF37
  8
0
 10
5580.9664364358068269
 20
327.7911303227043049
 30
0.0
 11
5580.533365569705893
 21
327.7911303227043049
 31
0.0
  0
LINE
  5
EF38
  8
0
 10
5580.533365569705893
 20
327.7911303227043049
 30
0.0
 11
5580.533365569705893
 21
330.673020086504323
 31
0.0
  0
LINE
  5
EF39
  8
0
 10
5580.533365569705893
 20
330.673020086504323
 30
0.0
 11
5585.2971450972063394
 21
330.673020086504323
 31
0.0
  0
LINE
  5
EF3A
  8
0
 10
5585.2971450972063394
 20
329.9053185117043085
 30
0.0
 11
5585.2971450972063394
 21
330.673020086504323
 31
0.0
  0
ARC
  5
EF3B
  8
0
 10
5585.2774450972056002
 20
329.9053185117043085
 30
0.0
 40
0.0197
 50
270.0
 51
0.0
  0
LINE
  5
EF3C
  8
0
 10
5580.9270663571069235
 20
329.8856185117043083
 30
0.0
 11
5585.2774450972056002
 21
329.8856185117043083
 31
0.0
  0
LINE
  5
EF3D
  8
0
 10
5580.9270663571069235
 20
327.7911303227043049
 30
0.0
 11
5580.9270663571069235
 21
329.8856185117043083
 31
0.0
  0
LINE
  5
EF3E
  8
0
 10
5581.3798222626073766
 20
329.8777444959043237
 30
0.0
 11
5580.9270663571069235
 21
329.8777444959043237
 31
0.0
  0
LINE
  5
EF3F
  8
0
 10
5581.3995073019068514
 20
329.8777444959043237
 30
0.0
 11
5581.6357277744073144
 21
329.8777444959043237
 31
0.0
  0
LINE
  5
EF40
  8
0
 10
5581.3798222626073766
 20
329.8777444959043237
 30
0.0
 11
5581.3798222626073766
 21
329.8383744172043066
 31
0.0
  0
LINE
  5
EF41
  8
0
 10
5581.3995073019068514
 20
329.8777444959043237
 30
0.0
 11
5581.3995073019068514
 21
329.8383744172043066
 31
0.0
  0
LINE
  5
EF42
  8
0
 10
5581.6357277744073144
 20
329.8777444959043237
 30
0.0
 11
5581.6357277744073144
 21
327.7911303227043049
 31
0.0
  0
LINE
  5
EF43
  8
0
 10
5583.7223419476058552
 20
329.9053185116542863
 30
0.0
 11
5583.7223419476058552
 21
330.6533200864543005
 31
0.0
  0
ARC
  5
EF44
  8
0
 10
5583.7420419476065945
 20
329.9053185116542863
 30
0.0
 40
0.0197
 50
180.0000000000194973
 51
269.9999999999478746
  0
ARC
  5
EF45
  8
0
 10
5583.7420419476065945
 20
330.6533200864543005
 30
0.0
 40
0.0197
 50
90.0000000000521254
 51
179.999999999980389
  0
LINE
  5
EF46
  8
0
 10
5581.4388773807058897
 20
267.8305004013042776
 30
0.0
 11
5583.0727206877063509
 21
267.8305004013042776
 31
0.0
  0
LINE
  5
EF47
  8
0
 10
5581.4388773807058897
 20
265.8619964644042852
 30
0.0
 11
5583.0727206877063509
 21
265.8619964644042852
 31
0.0
  0
LINE
  5
EF48
  8
0
 10
5583.0924206877070901
 20
265.8816964644043992
 30
0.0
 11
5583.0924206877052711
 21
267.810800401304391
 31
0.0
  0
ARC
  5
EF49
  8
0
 10
5583.0727206877063509
 20
265.8816964644043992
 30
0.0
 40
0.0197
 50
270.0000000000521254
 51
0.0000000000195413
  0
ARC
  5
EF4A
  8
0
 10
5583.0727206877063509
 20
267.810800401304391
 30
0.0
 40
0.0197
 50
0.0000000000325689
 51
90.0
  0
LINE
  5
EF4B
  8
0
 10
5580.927006568806064
 20
255.6060909526042906
 30
0.0
 11
5580.927006568806064
 21
265.8619964644042852
 31
0.0
  0
LINE
  5
EF4C
  8
0
 10
5580.927006568806064
 20
267.8305004013042776
 30
0.0
 11
5580.927006568806064
 21
292.0774191394438049
 31
0.0
  0
LINE
  5
EF4D
  8
0
 10
5580.927006568806064
 20
293.9144095260357972
 30
0.0
 11
5580.927006568806064
 21
317.0430988267543171
 31
0.0
  0
LINE
  5
EF4E
  8
0
 10
5580.927006568806064
 20
319.0116027636543095
 30
0.0
 11
5580.927006568806064
 21
327.7911303227043049
 31
0.0
  0
LINE
  5
EF4F
  8
0
 10
5580.9968730583059369
 20
255.0352248109041966
 30
0.0
 11
5580.9968730582531862
 21
329.8383744172043066
 31
0.0
  0
LINE
  5
EF50
  8
0
 10
5580.8483261995070279
 20
255.5981909526043125
 30
0.0
 11
5580.8483261995070279
 21
255.0628098503042906
 31
0.0
  0
ARC
  5
EF51
  8
0
 10
5580.8089261995055494
 20
255.0746248109041971
 30
0.0
 40
0.0394
 50
270.0
 51
0.0
  0
LINE
  5
EF52
  8
0
 10
5581.4703474593070496
 20
255.6060909526042906
 30
0.0
 11
5581.4084399816056248
 21
255.6060909526042906
 31
0.0
  0
ARC
  5
EF53
  8
0
 10
5581.4703474593070496
 20
255.5981909526043125
 30
0.0
 40
0.0079
 50
0.0000000000260551
 51
89.9999999998957776
  0
LINE
  5
EF54
  8
0
 10
5581.4783072477057431
 20
255.6060909526042906
 30
0.0
 11
5581.4783072477057431
 21
256.1777010561999077
 31
0.0
  0
LINE
  5
EF55
  8
0
 10
5581.4783072477057431
 20
256.249481872401077
 30
0.0
 11
5581.4783072477057431
 21
265.8619964644042852
 31
0.0
  0
LINE
  5
EF56
  8
0
 10
5581.4783072477057431
 20
267.8305004013042776
 30
0.0
 11
5581.4783072477057431
 21
317.0430988267543171
 31
0.0
  0
LINE
  5
EF57
  8
0
 10
5581.4783072477057431
 20
319.0116027636543095
 30
0.0
 11
5581.4783072477057431
 21
327.7911303227043049
 31
0.0
  0
LINE
  5
EF58
  8
0
 10
5581.4084399816056248
 20
255.0352248109041966
 30
0.0
 11
5581.4084399816056248
 21
329.8383744172043066
 31
0.0
  0
LINE
  5
EF59
  8
0
 10
5580.856226199505727
 20
255.0549098503043126
 30
0.0
 11
5580.9585364358063089
 21
255.0549098503043126
 31
0.0
  0
ARC
  5
EF5A
  8
0
 10
5580.856226199505727
 20
255.0628098503042906
 30
0.0
 40
0.0079
 50
180.0
 51
270.0
  0
LINE
  5
EF5B
  8
0
 10
5580.856226199505727
 20
255.6060909526042906
 30
0.0
 11
5580.9585364358063089
 21
255.6060909526042906
 31
0.0
  0
ARC
  5
EF5C
  8
0
 10
5580.856226199505727
 20
255.5981909526043125
 30
0.0
 40
0.0079
 50
90.0
 51
180.000000000052097
  0
LINE
  5
EF5D
  8
0
 10
5581.4388773807058897
 20
265.8619964644042852
 30
0.0
 11
5581.4388773807058897
 21
267.8305004013042776
 31
0.0
  0
LINE
  5
EF5E
  8
0
 10
5581.4084399816056248
 20
265.9210515826043206
 30
0.0
 11
5581.4388773807058897
 21
265.9210515826043206
 31
0.0
  0
LINE
  5
EF5F
  8
0
 10
5581.4084399816056248
 20
267.7714452834043186
 30
0.0
 11
5581.4388773807058897
 21
267.7714452834043186
 31
0.0
  0
ARC
  5
EF60
  8
0
 10
5582.0392710815049213
 20
266.8462484330042912
 30
0.0
 40
0.0885826772000021
 50
90.0
 51
270.0
  0
ARC
  5
EF61
  8
0
 10
5582.3542317114061007
 20
266.8462484330042912
 30
0.0
 40
0.0885826771999941
 50
270.0
 51
90.0
  0
LINE
  5
EF62
  8
0
 10
5582.0392710815049213
 20
266.9348311102042999
 30
0.0
 11
5582.3542317114061007
 21
266.9348311102042999
 31
0.0
  0
LINE
  5
EF63
  8
0
 10
5582.3542317114061007
 20
266.7576657558042825
 30
0.0
 11
5582.0392710815049213
 21
266.7576657558042825
 31
0.0
  0
LINE
  5
EF64
  8
0
 10
5581.7117824755214315
 20
266.7970358345042996
 30
0.0
 11
5581.5359523734232425
 21
266.7970358345042996
 31
0.0
  0
LINE
  5
EF65
  8
0
 10
5581.5162523734215938
 20
265.9801216613042811
 30
0.0
 11
5581.5162523734215938
 21
266.7773358345042993
 31
0.0
  0
LINE
  5
EF66
  8
0
 10
5582.2361065146060355
 20
266.531287803004318
 30
0.0
 11
5582.0392710815958708
 21
266.531287803004318
 31
0.0
  0
LINE
  5
EF67
  8
0
 10
5582.2361065146060355
 20
265.9604216613042809
 30
0.0
 11
5581.5359523734232425
 21
265.9604216613042809
 31
0.0
  0
LINE
  5
EF68
  8
0
 10
5582.2558065146058652
 20
266.5115878030043177
 30
0.0
 11
5582.2558065146058652
 21
265.9801216613042811
 31
0.0
  0
ARC
  5
EF69
  8
0
 10
5582.0392710815958708
 20
266.8462484333862221
 30
0.0
 40
0.3149606302819059
 50
217.4280055865465897
 51
269.9999999835853259
  0
ARC
  5
EF6A
  8
0
 10
5582.0392710322403218
 20
266.8462483956122924
 30
0.0
 40
0.3149605681297918
 50
191.8832302636556051
 51
217.4280055865465897
  0
ARC
  5
EF6B
  8
0
 10
5581.7117824755214315
 20
266.7773358345049814
 30
0.0
 40
0.0197
 50
11.8832302617053607
 51
90.0000000006774314
  0
ARC
  5
EF6C
  8
0
 10
5582.2361065146060355
 20
266.5115878030043177
 30
0.0
 40
0.0197
 50
359.9999999999836859
 51
90.0
  0
ARC
  5
EF6D
  8
0
 10
5582.2361065146060355
 20
265.9801216613042811
 30
0.0
 40
0.0197
 50
269.9999999999478746
 51
0.000000000029312
  0
ARC
  5
EF6E
  8
0
 10
5581.5359523734232425
 20
265.9801216613042811
 30
0.0
 40
0.0197
 50
179.9999999999674003
 51
270.0000000000521254
  0
ARC
  5
EF6F
  8
0
 10
5581.5359523734232425
 20
266.7773358345042993
 30
0.0
 40
0.0197
 50
89.9999999999478888
 51
180.0000000000358114
  0
ARC
  5
EF70
  8
0
 10
5581.6668871006586414
 20
266.2537806480568179
 30
0.0
 40
0.0474198584006241
 50
342.8910127327744135
 51
356.9076356659911085
  0
LINE
  5
EF71
  8
0
 10
5581.7142379095057549
 20
266.2512225487113824
 30
0.0
 11
5581.7142379095057549
 21
266.7773507964009809
 31
0.0
  0
ARC
  5
EF72
  8
0
 10
5566.772773632512326
 20
274.367363243628688
 30
0.0
 40
17.0071604684500812
 50
330.3752268345306788
 51
331.4523873013383195
  0
ARC
  5
EF73
  8
0
 10
5581.6927585274515877
 20
266.7816089825047925
 30
0.0
 40
0.0218973971492215
 50
348.7867714003368178
 51
44.7896642858562188
  0
LINE
  5
EF74
  8
0
 10
5581.7142379095057549
 20
266.2512225487113824
 30
0.0
 11
5582.2558065146058652
 21
266.2512225487113824
 31
0.0
  0
LINE
  5
EF75
  8
0
 10
5582.9742954909061154
 20
266.7970358345042996
 30
0.0
 11
5582.642350244723275
 21
266.7970358345042996
 31
0.0
  0
LINE
  5
EF76
  8
0
 10
5582.9939954909050357
 20
265.9604216613042809
 30
0.0
 11
5582.9939954909050357
 21
266.7773358345042993
 31
0.0
  0
LINE
  5
EF77
  8
0
 10
5582.3542317114061007
 20
265.9604216613042809
 30
0.0
 11
5582.3542317114061007
 21
266.516842205006526
 31
0.0
  0
LINE
  5
EF78
  8
0
 10
5582.9939954909050357
 20
265.9604216613042809
 30
0.0
 11
5582.3542317114061007
 21
265.9604216613042809
 31
0.0
  0
ARC
  5
EF79
  8
0
 10
5582.9742954909061154
 20
266.7773358345042993
 30
0.0
 40
0.0197
 50
359.9999999999805027
 51
90.0000000000521254
  0
ARC
  5
EF7A
  8
0
 10
5582.314861632497923
 20
266.8462484332023905
 30
0.0
 40
0.3149606301862738
 50
280.1663916239454011
 51
348.1167653954493062
  0
ARC
  5
EF7B
  8
0
 10
5582.642350244723275
 20
266.7773358345049814
 30
0.0
 40
0.0197
 50
89.9999999991662349
 51
168.1167653974123084
  0
ARC
  5
EF7C
  8
0
 10
5582.3739317114050209
 20
266.5168422050066965
 30
0.0
 40
0.0197
 50
100.1663916220390007
 51
180.0000000007588028
  0
ARC
  5
EF7D
  8
0
 10
5582.3606695033977303
 20
265.379000638298578
 30
0.0
 40
0.8597396189808925
 50
42.5532950906099785
 51
90.4290389201044746
  0
LINE
  5
EF7E
  8
0
 10
5581.7117824755214315
 20
266.8954610315042828
 30
0.0
 11
5581.5359523734232425
 21
266.8954610315042828
 31
0.0
  0
LINE
  5
EF7F
  8
0
 10
5581.5162523734215938
 20
267.7123752047043013
 30
0.0
 11
5581.5162523734215938
 21
266.9151610315042831
 31
0.0
  0
LINE
  5
EF80
  8
0
 10
5582.2361065146060355
 20
267.1612090630043213
 30
0.0
 11
5582.0392710815958708
 21
267.1612090630043213
 31
0.0
  0
LINE
  5
EF81
  8
0
 10
5582.2361065146060355
 20
267.7320752047043015
 30
0.0
 11
5581.5359523734232425
 21
267.7320752047043015
 31
0.0
  0
LINE
  5
EF82
  8
0
 10
5582.2558065146058652
 20
267.1809090630043215
 30
0.0
 11
5582.2558065146058652
 21
267.7123752047043013
 31
0.0
  0
ARC
  5
EF83
  8
0
 10
5582.0392710815958708
 20
266.8462484326223034
 30
0.0
 40
0.3149606302819059
 50
90.0000000164147167
 51
142.5719944134534103
  0
ARC
  5
EF84
  8
0
 10
5582.0392710322403218
 20
266.8462484703961763
 30
0.0
 40
0.3149605681297918
 50
142.5719944134534103
 51
168.1167697363443096
  0
ARC
  5
EF85
  8
0
 10
5581.7117824755214315
 20
266.915161031503601
 30
0.0
 40
0.0197
 50
269.9999999992705284
 51
348.1167697382946926
  0
ARC
  5
EF86
  8
0
 10
5582.2361065146060355
 20
267.1809090630043215
 30
0.0
 40
0.0197
 50
270.0
 51
0.0000000000162844
  0
ARC
  5
EF87
  8
0
 10
5582.2361065146060355
 20
267.7123752047043013
 30
0.0
 40
0.0197
 50
359.9999999999674856
 51
90.0000000000521254
  0
ARC
  5
EF88
  8
0
 10
5581.5359523734232425
 20
267.7123752047043013
 30
0.0
 40
0.0197
 50
89.9999999999478888
 51
180.0000000000293028
  0
ARC
  5
EF89
  8
0
 10
5581.5359523734232425
 20
266.9151610315042831
 30
0.0
 40
0.0197
 50
179.9999999999641034
 51
270.0000000000521254
  0
ARC
  5
EF8A
  8
0
 10
5581.6668871006586414
 20
267.4387162179518214
 30
0.0
 40
0.0474198584006241
 50
3.092364334008876
 51
17.1089872672256185
  0
LINE
  5
EF8B
  8
0
 10
5581.7142379095057549
 20
267.4412743172970863
 30
0.0
 11
5581.7142379095057549
 21
266.9151460696074878
 31
0.0
  0
ARC
  5
EF8C
  8
0
 10
5566.772773632512326
 20
259.3251336223798944
 30
0.0
 40
17.0071604684500812
 50
28.5476126986617089
 51
29.6247731654692714
  0
ARC
  5
EF8D
  8
0
 10
5581.6927585274515877
 20
266.9108878835037899
 30
0.0
 40
0.0218973971492215
 50
315.2103357141438096
 51
11.2132285996600505
  0
LINE
  5
EF8E
  8
0
 10
5581.7142379095057549
 20
267.4412743172970863
 30
0.0
 11
5582.2558065146058652
 21
267.4412743172970863
 31
0.0
  0
LINE
  5
EF8F
  8
0
 10
5582.9742954909061154
 20
266.8954610315042828
 30
0.0
 11
5582.642350244723275
 21
266.8954610315042828
 31
0.0
  0
LINE
  5
EF90
  8
0
 10
5582.9939954909050357
 20
267.7320752047043015
 30
0.0
 11
5582.9939954909050357
 21
266.9151610315042831
 31
0.0
  0
LINE
  5
EF91
  8
0
 10
5582.3542317114061007
 20
267.7320752047043015
 30
0.0
 11
5582.3542317114061007
 21
267.1756546610021132
 31
0.0
  0
LINE
  5
EF92
  8
0
 10
5582.9939954909050357
 20
267.7320752047043015
 30
0.0
 11
5582.3542317114061007
 21
267.7320752047043015
 31
0.0
  0
ARC
  5
EF93
  8
0
 10
5582.9742954909061154
 20
266.9151610315042831
 30
0.0
 40
0.0197
 50
269.9999999999478746
 51
0.0000000000195413
  0
ARC
  5
EF94
  8
0
 10
5582.314861632497923
 20
266.8462484328060782
 30
0.0
 40
0.3149606301862738
 50
11.8832346045507204
 51
79.8336083760546273
  0
ARC
  5
EF95
  8
0
 10
5582.642350244723275
 20
266.915161031503601
 30
0.0
 40
0.0197
 50
191.8832346025876063
 51
270.0000000008337793
  0
ARC
  5
EF96
  8
0
 10
5582.3739317114050209
 20
267.1756546610018859
 30
0.0
 40
0.0197
 50
179.9999999992411119
 51
259.8336083779608998
  0
ARC
  5
EF97
  8
0
 10
5582.3606695033977303
 20
268.3134962277100044
 30
0.0
 40
0.8597396189808925
 50
269.5709610798954827
 51
317.446704909390121
  0
LINE
  5
EF98
  8
0
 10
5581.4388773807058897
 20
319.0116027636543095
 30
0.0
 11
5583.0727206877063509
 21
319.0116027636543095
 31
0.0
  0
LINE
  5
EF99
  8
0
 10
5581.4388773807058897
 20
317.0430988267543171
 30
0.0
 11
5583.0727206877063509
 21
317.0430988267543171
 31
0.0
  0
LINE
  5
EF9A
  8
0
 10
5583.0924206877070901
 20
317.0627988267543742
 30
0.0
 11
5583.0924206877052711
 21
318.9919027636544229
 31
0.0
  0
ARC
  5
EF9B
  8
0
 10
5583.0727206877063509
 20
317.0627988267543742
 30
0.0
 40
0.0197
 50
270.0000000000521254
 51
0.0000000000195413
  0
ARC
  5
EF9C
  8
0
 10
5583.0727206877063509
 20
318.9919027636544229
 30
0.0
 40
0.0197
 50
0.0000000000325689
 51
90.0
  0
LINE
  5
EF9D
  8
0
 10
5580.8556420014665491
 20
317.0430988267543171
 30
0.0
 11
5580.9968730582613716
 21
317.0430988267543171
 31
0.0
  0
LINE
  5
EF9E
  8
0
 10
5580.8556420016366246
 20
319.0116027636543095
 30
0.0
 11
5580.9968730582613716
 21
319.0116027636543095
 31
0.0
  0
LINE
  5
EF9F
  8
0
 10
5580.3568006317609616
 20
317.3326650899037986
 30
0.0
 11
5580.845723172592443
 21
317.0457938915650971
 31
0.0
  0
LINE
  5
EFA0
  8
0
 10
5580.347070066904962
 20
318.7050453156043091
 30
0.0
 11
5580.347070066904962
 21
318.6218539447042986
 31
0.0
  0
LINE
  5
EFA1
  8
0
 10
5580.3470700669058715
 20
317.432847645504296
 30
0.0
 11
5580.3470700669058715
 21
317.3496562747623102
 31
0.0
  0
LINE
  5
EFA2
  8
0
 10
5580.3667700669047917
 20
317.4525476455042963
 30
0.0
 11
5580.3837592704048802
 21
317.4525476455042963
 31
0.0
  0
LINE
  5
EFA3
  8
0
 10
5580.3568006317609616
 20
318.722036500463787
 30
0.0
 11
5580.8457231727643375
 21
319.0089076988443821
 31
0.0
  0
ARC
  5
EFA4
  8
0
 10
5580.3667700669047917
 20
318.7050453156043091
 30
0.0
 40
0.0197
 50
120.401922037523903
 51
180.0000000000813998
  0
ARC
  5
EFA5
  8
0
 10
5580.3667700669047917
 20
317.3496562747623102
 30
0.0
 40
0.0197
 50
180.0000000000619025
 51
239.5980779573378925
  0
LINE
  5
EFA6
  8
0
 10
5580.3837592704048802
 20
317.3496641035742982
 30
0.0
 11
5580.3837592704048802
 21
318.7050374871029135
 31
0.0
  0
ARC
  5
EFA7
  8
0
 10
5580.4034592704056195
 20
317.3496641035742982
 30
0.0
 40
0.0197
 50
180.0
 51
239.6323630159135121
  0
ARC
  5
EFA8
  8
0
 10
5580.3667700669047917
 20
318.6218539447042986
 30
0.0
 40
0.0197
 50
180.0000000000194973
 51
270.0
  0
ARC
  5
EFA9
  8
0
 10
5580.3667700669047917
 20
317.432847645504296
 30
0.0
 40
0.0197
 50
90.0
 51
180.0000000000619025
  0
ARC
  5
EFAA
  8
0
 10
5580.8556420016366246
 20
318.9920027636543978
 30
0.0
 40
0.0196
 50
89.9999999998957776
 51
120.4019220376517012
  0
ARC
  5
EFAB
  8
0
 10
5580.8556420014665491
 20
317.0626988267542856
 30
0.0
 40
0.0196
 50
239.5980779573438042
 51
270.0
  0
LINE
  5
EFAC
  8
0
 10
5580.9664364358059174
 20
317.0509988267543235
 30
0.0
 11
5580.9664364358059174
 21
319.003702763654303
 31
0.0
  0
ARC
  5
EFAD
  8
0
 10
5580.9585364358063089
 20
317.0509988267543235
 30
0.0
 40
0.0079
 50
270.0
 51
0.0
  0
ARC
  5
EFAE
  8
0
 10
5580.9585364358063089
 20
319.003702763654303
 30
0.0
 40
0.0079
 50
359.9999999999608917
 51
90.0
  0
LINE
  5
EFAF
  8
0
 10
5580.3935000043520631
 20
317.3326669561761832
 30
0.0
 11
5580.8876962785670912
 21
317.0430988267543171
 31
0.0
  0
LINE
  5
EFB0
  8
0
 10
5580.4405425614049818
 20
318.7383089466795241
 30
0.0
 11
5580.4405425614049818
 21
317.3163926440042246
 31
0.0
  0
LINE
  5
EFB1
  8
0
 10
5580.3935000043511536
 20
318.7220346345001758
 30
0.0
 11
5580.8876962780141184
 21
319.0116027636543095
 31
0.0
  0
ARC
  5
EFB2
  8
0
 10
5580.4034592704056195
 20
318.7050374871029135
 30
0.0
 40
0.0197
 50
120.3676369888584929
 51
180.0
  0
ARC
  5
EFB3
  8
0
 10
5580.4602425614057211
 20
318.7383089466795241
 30
0.0
 40
0.0197
 50
120.3676369889191022
 51
180.0000000000163141
  0
ARC
  5
EFB4
  8
0
 10
5580.4602425614057211
 20
317.3163926440042246
 30
0.0
 40
0.0197
 50
180.0000000000194973
 51
239.6323630159060087
  0
LINE
  5
EFB5
  8
0
 10
5580.907380301966441
 20
319.003702763654303
 30
0.0
 11
5580.907380301966441
 21
317.0509988267543235
 31
0.0
  0
ARC
  5
EFB6
  8
0
 10
5580.8994803019650135
 20
319.003702763654303
 30
0.0
 40
0.0079
 50
0.0000000000260551
 51
90.0
  0
ARC
  5
EFB7
  8
0
 10
5580.8994803019650135
 20
317.0509988267543235
 30
0.0
 40
0.0079
 50
270.0
 51
359.9999999999740226
  0
LINE
  5
EFB8
  8
0
 10
5580.5489287481495921
 20
317.3556720026367088
 30
0.0
 11
5580.7792943571466822
 21
317.220692153563391
 31
0.0
  0
LINE
  5
EFB9
  8
0
 10
5580.8089536232027967
 20
317.9584381968542743
 30
0.0
 11
5580.8089536232027967
 21
317.2376893009599144
 31
0.0
  0
LINE
  5
EFBA
  8
0
 10
5580.8089536232027967
 20
318.0962633937543274
 30
0.0
 11
5580.8089536232027967
 21
318.8170122896822818
 31
0.0
  0
LINE
  5
EFBB
  8
0
 10
5580.5391880142060472
 20
317.9584381968542743
 30
0.0
 11
5580.5391880142060472
 21
317.3726691500331185
 31
0.0
  0
LINE
  5
EFBC
  8
0
 10
5580.5391880142060472
 20
318.0962633937543274
 30
0.0
 11
5580.5391880142060472
 21
318.6820324406614873
 31
0.0
  0
LINE
  5
EFBD
  8
0
 10
5580.789253623202967
 20
317.9781381968542746
 30
0.0
 11
5580.558888014205877
 21
317.9781381968542746
 31
0.0
  0
LINE
  5
EFBE
  8
0
 10
5580.7792943571494106
 20
318.8340094370805105
 30
0.0
 11
5580.5489287481523206
 21
318.6990295880597159
 31
0.0
  0
ARC
  5
EFBF
  8
0
 10
5580.558888014205877
 20
317.3726691500331185
 30
0.0
 40
0.0197
 50
179.999999999980389
 51
239.6323630063006931
  0
ARC
  5
EFC0
  8
0
 10
5580.789253623202967
 20
317.2376893009599144
 30
0.0
 40
0.0197
 50
239.6323630063056953
 51
359.9999999999674856
  0
ARC
  5
EFC1
  8
0
 10
5580.789253623202967
 20
317.9584381968542743
 30
0.0
 40
0.0197
 50
359.9999999999641886
 51
90.0
  0
ARC
  5
EFC2
  8
0
 10
5580.558888014205877
 20
317.9584381968542743
 30
0.0
 40
0.0197
 50
90.0
 51
180.0000000000422915
  0
ARC
  5
EFC3
  8
0
 10
5580.789253623202967
 20
318.8170122896822818
 30
0.0
 40
0.0197
 50
359.9999999999544116
 51
120.3676369839710958
  0
ARC
  5
EFC4
  8
0
 10
5580.558888014205877
 20
318.6820324406614873
 30
0.0
 40
0.0197
 50
120.3676369839784996
 51
180.0000000000260059
  0
LINE
  5
EFC5
  8
0
 10
5580.558888014205877
 20
318.0765633937543271
 30
0.0
 11
5580.789253623202967
 21
318.0765633937543271
 31
0.0
  0
ARC
  5
EFC6
  8
0
 10
5580.558888014205877
 20
318.0962633937543274
 30
0.0
 40
0.0197
 50
179.9999999999901945
 51
270.0000000000521254
  0
ARC
  5
EFC7
  8
0
 10
5580.789253623202967
 20
318.0962633937543274
 30
0.0
 40
0.0197
 50
269.999999999895806
 51
0.0000000000553671
  0
ARC
  5
EFC8
  8
0
 10
5581.0897100458241766
 20
318.1048106001450719
 30
0.0
 40
0.3860105261811719
 50
153.8893828505914882
 51
181.3370167269249009
  0
ARC
  5
EFC9
  8
0
 10
5580.7234992501689703
 20
318.0962633937543274
 30
0.0
 40
0.0197
 50
181.3370167269216893
 51
270.0
  0
LINE
  5
EFCA
  8
0
 10
5580.7430934233061635
 20
318.2746959830261062
 30
0.0
 11
5580.7430934233061635
 21
318.8015082663052908
 31
0.0
  0
ARC
  5
EFCB
  8
0
 10
5580.7627934233059932
 20
318.8015082663052908
 30
0.0
 40
0.0197
 50
120.3676369840332967
 51
180.0000000000358114
  0
LINE
  5
EFCC
  8
0
 10
5580.7430934233061635
 20
317.2531933243428739
 30
0.0
 11
5580.7430934233061635
 21
317.7803430881465943
 31
0.0
  0
ARC
  5
EFCD
  8
0
 10
5581.1969774588269502
 20
317.9738804861938775
 30
0.0
 40
0.4934242010108151
 50
181.8680379286601863
 51
203.0935328258130141
  0
ARC
  5
EFCE
  8
0
 10
5580.7235050157805745
 20
317.9584381968542743
 30
0.0
 40
0.0197
 50
90.0
 51
181.8680379286633979
  0
ARC
  5
EFCF
  8
0
 10
5580.7627934233059932
 20
317.2531933243428739
 30
0.0
 40
0.0197
 50
180.0
 51
239.6323630062483119
  0
LINE
  5
EFD0
  8
0
 10
5581.4388773807058897
 20
317.0430988267543171
 30
0.0
 11
5581.4388773807058897
 21
319.0116027636543095
 31
0.0
  0
LINE
  5
EFD1
  8
0
 10
5581.4084399816056248
 20
317.1021539449542956
 30
0.0
 11
5581.4388773807058897
 21
317.1021539449542956
 31
0.0
  0
LINE
  5
EFD2
  8
0
 10
5580.9968730582986609
 20
317.1021539449542956
 30
0.0
 11
5580.9664364358059174
 21
317.1021539449542956
 31
0.0
  0
LINE
  5
EFD3
  8
0
 10
5581.4084399816056248
 20
318.9525476457542936
 30
0.0
 11
5581.4388773807058897
 21
318.9525476457542936
 31
0.0
  0
LINE
  5
EFD4
  8
0
 10
5580.9968730582959324
 20
318.9525476457542936
 30
0.0
 11
5580.9664364358059174
 21
318.9525476457542936
 31
0.0
  0
ARC
  5
EFD5
  8
0
 10
5582.0392710815049213
 20
318.0273507953543231
 30
0.0
 40
0.0885826772000021
 50
90.0
 51
270.0
  0
ARC
  5
EFD6
  8
0
 10
5582.3542317114061007
 20
318.0273507953543231
 30
0.0
 40
0.0885826771999941
 50
270.0
 51
90.0
  0
LINE
  5
EFD7
  8
0
 10
5582.0392710815049213
 20
318.1159334725542749
 30
0.0
 11
5582.3542317114061007
 21
318.1159334725542749
 31
0.0
  0
LINE
  5
EFD8
  8
0
 10
5582.3542317114061007
 20
317.9387681181543144
 30
0.0
 11
5582.0392710815049213
 21
317.9387681181543144
 31
0.0
  0
LINE
  5
EFD9
  8
0
 10
5581.7117824755214315
 20
317.9781381968542746
 30
0.0
 11
5581.5359523734232425
 21
317.9781381968542746
 31
0.0
  0
LINE
  5
EFDA
  8
0
 10
5581.5162523734215938
 20
317.161224023654313
 30
0.0
 11
5581.5162523734215938
 21
317.9584381968542743
 31
0.0
  0
LINE
  5
EFDB
  8
0
 10
5582.2361065146060355
 20
317.712390165354293
 30
0.0
 11
5582.0392710815958708
 21
317.712390165354293
 31
0.0
  0
LINE
  5
EFDC
  8
0
 10
5582.2361065146060355
 20
317.1415240236543127
 30
0.0
 11
5581.5359523734232425
 21
317.1415240236543127
 31
0.0
  0
LINE
  5
EFDD
  8
0
 10
5582.2558065146058652
 20
317.6926901653542927
 30
0.0
 11
5582.2558065146058652
 21
317.161224023654313
 31
0.0
  0
ARC
  5
EFDE
  8
0
 10
5582.0392710815958708
 20
318.0273507957361971
 30
0.0
 40
0.3149606302819059
 50
217.4280055865465897
 51
269.9999999835853259
  0
ARC
  5
EFDF
  8
0
 10
5582.0392710322403218
 20
318.0273507579623811
 30
0.0
 40
0.3149605681297918
 50
191.8832302636556051
 51
217.4280055865465897
  0
ARC
  5
EFE0
  8
0
 10
5581.7117824755214315
 20
317.958438196855127
 30
0.0
 40
0.0197
 50
11.8832302617053607
 51
90.0000000006774314
  0
ARC
  5
EFE1
  8
0
 10
5582.2361065146060355
 20
317.6926901653544064
 30
0.0
 40
0.0197
 50
359.9999999999836859
 51
90.0
  0
ARC
  5
EFE2
  8
0
 10
5582.2361065146060355
 20
317.161224023654313
 30
0.0
 40
0.0197
 50
269.9999999999478746
 51
0.000000000029312
  0
ARC
  5
EFE3
  8
0
 10
5581.5359523734232425
 20
317.161224023654313
 30
0.0
 40
0.0197
 50
179.9999999999674003
 51
270.0000000000521254
  0
ARC
  5
EFE4
  8
0
 10
5581.5359523734232425
 20
317.9584381968542743
 30
0.0
 40
0.0197
 50
89.9999999999478888
 51
180.0000000000358114
  0
ARC
  5
EFE5
  8
0
 10
5581.6668871006586414
 20
317.4348830104067929
 30
0.0
 40
0.0474198584006241
 50
342.8910127327744135
 51
356.9076356659911085
  0
LINE
  5
EFE6
  8
0
 10
5581.7142379095057549
 20
317.4323249110615279
 30
0.0
 11
5581.7142379095057549
 21
317.9584531587511265
 31
0.0
  0
ARC
  5
EFE7
  8
0
 10
5566.772773632512326
 20
325.5484656059787199
 30
0.0
 40
17.0071604684500812
 50
330.3752268345306788
 51
331.4523873013383195
  0
ARC
  5
EFE8
  8
0
 10
5581.6927585274515877
 20
317.9627113448548243
 30
0.0
 40
0.0218973971492215
 50
348.7867714003368178
 51
44.7896642858562188
  0
LINE
  5
EFE9
  8
0
 10
5581.7142379095057549
 20
317.4323249110615279
 30
0.0
 11
5582.2558065146058652
 21
317.4323249110615279
 31
0.0
  0
LINE
  5
EFEA
  8
0
 10
5582.9742954909061154
 20
317.9781381968542746
 30
0.0
 11
5582.642350244723275
 21
317.9781381968542746
 31
0.0
  0
LINE
  5
EFEB
  8
0
 10
5582.9939954909050357
 20
317.1415240236543127
 30
0.0
 11
5582.9939954909050357
 21
317.9584381968542743
 31
0.0
  0
LINE
  5
EFEC
  8
0
 10
5582.3542317114061007
 20
317.1415240236543127
 30
0.0
 11
5582.3542317114061007
 21
317.697944567356501
 31
0.0
  0
LINE
  5
EFED
  8
0
 10
5582.9939954909050357
 20
317.1415240236543127
 30
0.0
 11
5582.3542317114061007
 21
317.1415240236543127
 31
0.0
  0
ARC
  5
EFEE
  8
0
 10
5582.9742954909061154
 20
317.9584381968542743
 30
0.0
 40
0.0197
 50
359.9999999999805027
 51
90.0000000000521254
  0
ARC
  5
EFEF
  8
0
 10
5582.314861632497923
 20
318.0273507955524224
 30
0.0
 40
0.3149606301862738
 50
280.1663916239454011
 51
348.1167653954493062
  0
ARC
  5
EFF0
  8
0
 10
5582.642350244723275
 20
317.958438196855127
 30
0.0
 40
0.0197
 50
89.9999999991662349
 51
168.1167653974123084
  0
ARC
  5
EFF1
  8
0
 10
5582.3739317114050209
 20
317.6979445673567284
 30
0.0
 40
0.0197
 50
100.1663916220390007
 51
180.0000000007588028
  0
ARC
  5
EFF2
  8
0
 10
5582.3606695033977303
 20
316.5601030006486099
 30
0.0
 40
0.8597396189808925
 50
42.5532950906099785
 51
90.4290389201044746
  0
LINE
  5
EFF3
  8
0
 10
5581.7117824755214315
 20
318.0765633938543147
 30
0.0
 11
5581.5359523734232425
 21
318.0765633938543147
 31
0.0
  0
LINE
  5
EFF4
  8
0
 10
5581.5162523734215938
 20
318.8934775670542763
 30
0.0
 11
5581.5162523734215938
 21
318.0962633938543149
 31
0.0
  0
LINE
  5
EFF5
  8
0
 10
5582.2361065146060355
 20
318.3423114253542963
 30
0.0
 11
5582.0392710815958708
 21
318.3423114253542963
 31
0.0
  0
LINE
  5
EFF6
  8
0
 10
5582.2361065146060355
 20
318.9131775670542766
 30
0.0
 11
5581.5359523734232425
 21
318.9131775670542766
 31
0.0
  0
LINE
  5
EFF7
  8
0
 10
5582.2558065146058652
 20
318.3620114253542965
 30
0.0
 11
5582.2558065146058652
 21
318.8934775670542763
 31
0.0
  0
ARC
  5
EFF8
  8
0
 10
5582.0392710815958708
 20
318.0273507949723921
 30
0.0
 40
0.3149606302819059
 50
90.0000000164147167
 51
142.5719944134534103
  0
ARC
  5
EFF9
  8
0
 10
5582.0392710322403218
 20
318.0273508327463219
 30
0.0
 40
0.3149605681297918
 50
142.5719944134534103
 51
168.1167697363443096
  0
ARC
  5
EFFA
  8
0
 10
5581.7117824755214315
 20
318.096263393853576
 30
0.0
 40
0.0197
 50
269.9999999992705284
 51
348.1167697382946926
  0
ARC
  5
EFFB
  8
0
 10
5582.2361065146060355
 20
318.3620114253542965
 30
0.0
 40
0.0197
 50
270.0
 51
0.0000000000162844
  0
ARC
  5
EFFC
  8
0
 10
5582.2361065146060355
 20
318.8934775670542763
 30
0.0
 40
0.0197
 50
359.9999999999674856
 51
90.0000000000521254
  0
ARC
  5
EFFD
  8
0
 10
5581.5359523734232425
 20
318.8934775670542763
 30
0.0
 40
0.0197
 50
89.9999999999478888
 51
180.0000000000293028
  0
ARC
  5
EFFE
  8
0
 10
5581.5359523734232425
 20
318.0962633938543149
 30
0.0
 40
0.0197
 50
179.9999999999641034
 51
270.0000000000521254
  0
ARC
  5
EFFF
  8
0
 10
5581.6668871006586414
 20
318.6198185803017964
 30
0.0
 40
0.0474198584006241
 50
3.092364334008876
 51
17.1089872672256185
  0
LINE
  5
F000
  8
0
 10
5581.7142379095057549
 20
318.622376679647175
 30
0.0
 11
5581.7142379095057549
 21
318.0962484319575765
 31
0.0
  0
ARC
  5
F001
  8
0
 10
5566.772773632512326
 20
310.5062359847299263
 30
0.0
 40
17.0071604684500812
 50
28.5476126986617089
 51
29.6247731654692714
  0
ARC
  5
F002
  8
0
 10
5581.6927585274515877
 20
318.0919902458538218
 30
0.0
 40
0.0218973971492215
 50
315.2103357141438096
 51
11.2132285996600505
  0
LINE
  5
F003
  8
0
 10
5581.7142379095057549
 20
318.622376679647175
 30
0.0
 11
5582.2558065146058652
 21
318.622376679647175
 31
0.0
  0
LINE
  5
F004
  8
0
 10
5582.9742954909061154
 20
318.0765633938543147
 30
0.0
 11
5582.642350244723275
 21
318.0765633938543147
 31
0.0
  0
LINE
  5
F005
  8
0
 10
5582.9939954909050357
 20
318.9131775670542766
 30
0.0
 11
5582.9939954909050357
 21
318.0962633938543149
 31
0.0
  0
LINE
  5
F006
  8
0
 10
5582.3542317114061007
 20
318.9131775670542766
 30
0.0
 11
5582.3542317114061007
 21
318.3567570233520883
 31
0.0
  0
LINE
  5
F007
  8
0
 10
5582.9939954909050357
 20
318.9131775670542766
 30
0.0
 11
5582.3542317114061007
 21
318.9131775670542766
 31
0.0
  0
ARC
  5
F008
  8
0
 10
5582.9742954909061154
 20
318.0962633938543149
 30
0.0
 40
0.0197
 50
269.9999999999478746
 51
0.0000000000195413
  0
ARC
  5
F009
  8
0
 10
5582.314861632497923
 20
318.0273507951562237
 30
0.0
 40
0.3149606301862738
 50
11.8832346045507204
 51
79.8336083760546273
  0
ARC
  5
F00A
  8
0
 10
5582.642350244723275
 20
318.096263393853576
 30
0.0
 40
0.0197
 50
191.8832346025876063
 51
270.0000000008337793
  0
ARC
  5
F00B
  8
0
 10
5582.3739317114050209
 20
318.3567570233519177
 30
0.0
 40
0.0197
 50
179.9999999992411119
 51
259.8336083779608998
  0
ARC
  5
F00C
  8
0
 10
5582.3606695033977303
 20
319.4945985900599794
 30
0.0
 40
0.8597396189808925
 50
269.5709610798954827
 51
317.446704909390121
  0
ARC
  5
F00D
  8
0
 10
5580.8823114938240906
 20
328.8322482298203226
 30
0.0
 40
0.8164227397112677
 50
338.0711688148609255
 51
356.0059680046379071
  0
ARC
  5
F00E
  8
0
 10
5580.8823052663074122
 20
328.7185156435044178
 30
0.0
 40
0.816429001499239
 50
3.9940512023933001
 51
21.9287524891496801
  0
LINE
  5
F00F
  8
0
 10
5581.639664782305772
 20
328.5273513844060744
 30
0.0
 11
5581.639664782305772
 21
329.023413787175798
 31
0.0
  0
LINE
  5
F010
  8
0
 10
5581.639664782305772
 20
328.8580594566042805
 30
0.0
 11
5581.6357277744073144
 21
328.8580594566042805
 31
0.0
  0
LINE
  5
F011
  8
0
 10
5581.639664782305772
 20
328.6927051259042969
 30
0.0
 11
5581.6357277744073144
 21
328.6927051259042969
 31
0.0
  0
LINE
  5
F012
  8
0
 10
5581.5082506281023598
 20
292.0706114675215872
 30
0.0
 11
5581.4783072477057431
 21
292.0706114675215872
 31
0.0
  0
ARC
  5
F013
  8
0
 10
5581.5066325359694019
 20
293.7278899269371095
 30
0.0
 40
0.1933340457969957
 50
66.5024486644622499
 51
89.5204624900636077
  0
ARC
  5
F014
  8
0
 10
5581.5805603070766665
 20
293.8979501259045151
 30
0.0
 40
0.0079
 50
0.0
 51
66.4501297378010349
  0
LINE
  5
F015
  8
0
 10
5581.5082506281023598
 20
293.9212172013769759
 30
0.0
 11
5581.4783072477057431
 21
293.9212172013769759
 31
0.0
  0
ARC
  5
F016
  8
0
 10
5580.1783165814067615
 20
255.3606459890542908
 30
0.0
 40
1.5354330708999959
 50
9.9433515836441053
 51
36.759241916082253
  0
ARC
  5
F017
  8
0
 10
5580.1783165814067615
 20
255.3606459890542908
 30
0.0
 40
1.5748031496000059
 50
9.6923373665004373
 51
38.6359966906864187
  0
LINE
  5
F018
  8
0
 10
5580.9777870509506101
 20
293.9209108700043203
 30
0.0
 11
5580.9968730582777425
 21
293.9209108700043203
 31
0.0
  0
LINE
  5
F019
  8
0
 10
5581.470407247707044
 20
292.0749895172323818
 30
0.0
 11
5581.4467801741484436
 21
292.0749895172323818
 31
0.0
  0
LINE
  5
F01A
  8
0
 10
5581.4388801741479256
 20
293.9054351456962877
 30
0.0
 11
5581.4388801741479256
 21
292.0828895172323882
 31
0.0
  0
LINE
  5
F01B
  8
0
 10
5581.4467801741484436
 20
293.9133351456962941
 30
0.0
 11
5581.470407247707044
 21
293.9133351456962941
 31
0.0
  0
ARC
  5
F01C
  8
0
 10
5581.4467801741484436
 20
293.9054351456962877
 30
0.0
 40
0.0079
 50
90.0000000001042082
 51
179.9999999999674003
  0
ARC
  5
F01D
  8
0
 10
5581.470407247707044
 20
293.9054351456962877
 30
0.0
 40
0.0079
 50
359.9999999999740226
 51
89.9999999998957776
  0
ARC
  5
F01E
  8
0
 10
5581.470407247707044
 20
292.0828895172323882
 30
0.0
 40
0.0079
 50
270.0
 51
0.0
  0
ARC
  5
F01F
  8
0
 10
5581.4467801741484436
 20
292.0828895172323882
 30
0.0
 40
0.0079
 50
180.0000000000586056
 51
269.999999999895806
  0
LINE
  5
F020
  8
0
 10
5581.4084399816056248
 20
292.8939922842674264
 30
0.0
 11
5581.4388801741479256
 21
292.8939922842674264
 31
0.0
  0
LINE
  5
F021
  8
0
 10
5581.4084399816056248
 20
293.0943379900214723
 30
0.0
 11
5581.4388801741479256
 21
293.0943379900214723
 31
0.0
  0
LINE
  5
F022
  8
0
 10
5580.9763508422684026
 20
292.0709108710113924
 30
0.0
 11
5580.996873058278652
 21
292.0709108710113924
 31
0.0
  0
LINE
  5
F023
  8
0
 10
5585.1435758059069485
 20
330.0312878030542834
 30
0.0
 11
5583.8759112390071095
 21
330.0312878030542834
 31
0.0
  0
LINE
  5
F024
  8
0
 10
5583.868011239005682
 20
330.0391878030542898
 30
0.0
 11
5583.868011239005682
 21
330.5194507951542846
 31
0.0
  0
LINE
  5
F025
  8
0
 10
5585.1514758059065571
 20
330.5194507951542846
 30
0.0
 11
5585.1514758059065571
 21
330.0391878030542898
 31
0.0
  0
LINE
  5
F026
  8
0
 10
5585.1435758059069485
 20
330.5273507951542911
 30
0.0
 11
5583.8759112390071095
 21
330.5273507951542911
 31
0.0
  0
ARC
  5
F027
  8
0
 10
5583.8877112390073307
 20
330.5076507951542908
 30
0.0
 40
0.0197
 50
90.0
 51
180.0
  0
ARC
  5
F028
  8
0
 10
5585.1435758059069485
 20
330.5194507951542846
 30
0.0
 40
0.0079
 50
0.0000000000521102
 51
90.0
  0
ARC
  5
F029
  8
0
 10
5585.1435758059069485
 20
330.0391878030542898
 30
0.0
 40
0.0079
 50
270.0
 51
359.9999999998469207
  0
ARC
  5
F02A
  8
0
 10
5583.8759112390071095
 20
330.0391878030542898
 30
0.0
 40
0.0079
 50
180.000000000052097
 51
270.0
  0
ARC
  5
F02B
  8
0
 10
5583.8759112390071095
 20
330.5194507951542846
 30
0.0
 40
0.0079
 50
90.0
 51
180.000000000052097
  0
LINE
  5
F02C
  8
0
 10
5585.1278387980073603
 20
330.0352248108542881
 30
0.0
 11
5583.8877112390073307
 21
330.0352248108542881
 31
0.0
  0
LINE
  5
F02D
  8
0
 10
5585.1475387980071901
 20
330.0549248108542884
 30
0.0
 11
5585.1475387980071901
 21
330.5076507951542908
 31
0.0
  0
ARC
  5
F02E
  8
0
 10
5585.1278387980073603
 20
330.0549248108542884
 30
0.0
 40
0.0197
 50
270.0
 51
0.0000000000195413
  0
ARC
  5
F02F
  8
0
 10
5583.8877112390073307
 20
330.0549248108542884
 30
0.0
 40
0.0197
 50
180.0
 51
269.9999999999478746
  0
ARC
  5
F030
  8
0
 10
5585.1278387980073603
 20
330.5076507951542908
 30
0.0
 40
0.0197
 50
359.9999999999805027
 51
90.0
  0
LINE
  5
F031
  8
0
 10
5584.6258852545061018
 20
330.1828626061542877
 30
0.0
 11
5584.3896647831070368
 21
330.1828626061542877
 31
0.0
  0
LINE
  5
F032
  8
0
 10
5584.6258852545061018
 20
330.3757759919542991
 30
0.0
 11
5584.3896647831070368
 21
330.3757759919542991
 31
0.0
  0
LINE
  5
F033
  8
0
 10
5584.6258852545061018
 20
330.3797129998542914
 30
0.0
 11
5584.3896647831070368
 21
330.3797129998542914
 31
0.0
  0
ARC
  5
F034
  8
0
 10
5584.6258852545061018
 20
330.281287803004318
 30
0.0
 40
0.0984251968500019
 50
270.0
 51
90.0
  0
ARC
  5
F035
  8
0
 10
5584.3896647831070368
 20
330.281287803004318
 30
0.0
 40
0.0984251968500019
 50
90.0
 51
270.0
  0
ARC
  5
F036
  8
0
 10
5584.3896647831070368
 20
330.2773507951043257
 30
0.0
 40
0.0984251968500019
 50
90.0
 51
178.8540079940420071
  0
ARC
  5
F037
  8
0
 10
5584.6258852545061018
 20
330.2773507951043257
 30
0.0
 40
0.0984251968500019
 50
1.145992005957976
 51
90.0
  0
LINE
  5
F038
  8
0
 10
5580.9664364358068269
 20
255.0628098503042906
 30
0.0
 11
5580.9664364358068269
 21
255.5981909526043125
 31
0.0
  0
ARC
  5
F039
  8
0
 10
5580.9585364358063089
 20
255.0628098503042906
 30
0.0
 40
0.0079
 50
269.9999999999478746
 51
0.0000000000260551
  0
ARC
  5
F03A
  8
0
 10
5580.9585364358063089
 20
255.5981909526043125
 30
0.0
 40
0.0079
 50
0.0
 51
89.9999999999478888
  0
LINE
  5
F03B
  8
0
 10
5615.1113885272070547
 20
255.0352248109041966
 30
0.0
 11
5615.1113885272070547
 21
329.8383744172041929
 31
0.0
  0
LINE
  5
F03C
  8
0
 10
5612.956797052706861
 20
267.8305004013042776
 30
0.0
 11
5615.0630813047073389
 21
267.8305004013042776
 31
0.0
  0
LINE
  5
F03D
  8
0
 10
5612.956797052706861
 20
265.8619964644042852
 30
0.0
 11
5615.0630813047073389
 21
265.8619964644042852
 31
0.0
  0
LINE
  5
F03E
  8
0
 10
5612.9370970527070313
 20
265.8816964644042855
 30
0.0
 11
5612.9370970527070313
 21
267.8108004013042773
 31
0.0
  0
LINE
  5
F03F
  8
0
 10
5614.9908459274256529
 20
265.8619964644042852
 30
0.0
 11
5614.9908459274256529
 21
267.8305004013042776
 31
0.0
  0
LINE
  5
F040
  8
0
 10
5614.7874907535060629
 20
266.2118681945352137
 30
0.0
 11
5614.7874907535060629
 21
266.6299220570596162
 31
0.0
  0
LINE
  5
F041
  8
0
 10
5614.7874907535060629
 20
267.0728625066727204
 30
0.0
 11
5614.7874907535060629
 21
267.4895466742132157
 31
0.0
  0
LINE
  5
F042
  8
0
 10
5614.7874907535060629
 20
266.2118681945352137
 30
0.0
 11
5613.6244990563627653
 21
266.2118681945352137
 31
0.0
  0
LINE
  5
F043
  8
0
 10
5614.7874907535060629
 20
267.4895466742132157
 30
0.0
 11
5613.6244990563627653
 21
267.4895466742132157
 31
0.0
  0
LINE
  5
F044
  8
0
 10
5614.7874907535060629
 20
267.4895466742132157
 30
0.0
 11
5614.9908459274256529
 21
267.8305004013042776
 31
0.0
  0
LINE
  5
F045
  8
0
 10
5614.7874907535060629
 20
266.2118681945352137
 30
0.0
 11
5614.9908459274256529
 21
265.8619964644042852
 31
0.0
  0
ARC
  5
F046
  8
0
 10
5612.956797052706861
 20
265.8816964644042855
 30
0.0
 40
0.0197
 50
180.0
 51
270.0000000000521254
  0
ARC
  5
F047
  8
0
 10
5612.956797052706861
 20
267.8108004013042773
 30
0.0
 40
0.0197
 50
90.0
 51
180.0
  0
ARC
  5
F048
  8
0
 10
5613.6189102495345651
 20
268.3388589397965802
 30
0.0
 40
0.8493306536512728
 50
217.2528642452712972
 51
270.3770231926774272
  0
ARC
  5
F049
  8
0
 10
5613.6189102495345651
 20
265.3625559289517923
 30
0.0
 40
0.8493306536512728
 50
89.6229768073226154
 51
143.122544080947705
  0
LINE
  5
F04A
  8
0
 10
5614.7481356354055606
 20
266.5805004013042776
 30
0.0
 11
5614.7874907535060629
 21
266.5805004013042776
 31
0.0
  0
LINE
  5
F04B
  8
0
 10
5614.7481356354055606
 20
267.1119964643042977
 30
0.0
 11
5614.7874907535060629
 21
267.1119964643042977
 31
0.0
  0
LINE
  5
F04C
  8
0
 10
5614.7284356354066404
 20
267.0922964643042974
 30
0.0
 11
5614.7284356354066404
 21
266.6002004013042779
 31
0.0
  0
ARC
  5
F04D
  8
0
 10
5614.7481356354055606
 20
267.0922964643041837
 30
0.0
 40
0.0197
 50
89.9999999999478888
 51
179.9999999999787974
  0
ARC
  5
F04E
  8
0
 10
5614.7481356354055606
 20
266.6002004013042779
 30
0.0
 40
0.0197
 50
179.9999999999787974
 51
270.0000000000521254
  0
ARC
  5
F04F
  8
0
 10
5612.9501683874132141
 20
266.8513922818661968
 30
0.0
 40
1.850622202779197
 50
353.1267468734311024
 51
6.8732531265656114
  0
CIRCLE
  5
F050
  8
0
 10
5613.7638687063072211
 20
266.8462484328042024
 30
0.0
 40
0.2232761974134974
  0
CIRCLE
  5
F051
  8
0
 10
5613.7638687063072211
 20
266.8462484328042024
 30
0.0
 40
0.1097080229592393
  0
CIRCLE
  5
F052
  8
0
 10
5613.7638687063072211
 20
266.8462484328042024
 30
0.0
 40
0.0971525020779609
  0
LINE
  5
F053
  8
0
 10
5615.0630813047073389
 20
265.8619964644042852
 30
0.0
 11
5615.0630813047073389
 21
267.8305004013042776
 31
0.0
  0
LINE
  5
F054
  8
0
 10
5582.0906403598055476
 20
255.4289255983042892
 30
0.0
 11
5582.0906403598119141
 21
265.8619964644042852
 31
0.0
  0
LINE
  5
F055
  8
0
 10
5582.0906403598128236
 20
267.8305004013042776
 30
0.0
 11
5582.090640359824647
 21
292.3136925563434261
 31
0.0
  0
LINE
  5
F056
  8
0
 10
5582.090640359824647
 20
293.6781361125550802
 30
0.0
 11
5582.0906403598373799
 21
317.0430988267543171
 31
0.0
  0
LINE
  5
F057
  8
0
 10
5582.0906403598373799
 20
319.0116027636543095
 30
0.0
 11
5582.0906403598428369
 21
329.8383744172041929
 31
0.0
  0
LINE
  5
F058
  8
0
 10
5582.0294285617073911
 20
255.4289255983042892
 30
0.0
 11
5582.0906403598055476
 21
255.4289255983042892
 31
0.0
  0
LINE
  5
F059
  8
0
 10
5583.5254616326074029
 20
255.6257759920042929
 30
0.0
 11
5582.4231592704063587
 21
255.6257759920042929
 31
0.0
  0
LINE
  5
F05A
  8
0
 10
5582.3837592704057897
 20
255.0352248109041966
 30
0.0
 11
5582.3837592704057897
 21
255.5863759920042924
 31
0.0
  0
LINE
  5
F05B
  8
0
 10
5583.5648616326070623
 20
255.0352248109041966
 30
0.0
 11
5583.5648616326070623
 21
255.5863759920042924
 31
0.0
  0
ARC
  5
F05C
  8
0
 10
5583.5254616326074029
 20
255.5863759920042924
 30
0.0
 40
0.0394
 50
0.0000000000048853
 51
90.0
  0
ARC
  5
F05D
  8
0
 10
5582.4231592704063587
 20
255.5863759920042924
 30
0.0
 40
0.0394
 50
90.0
 51
179.9999999999951115
  0
LINE
  5
F05E
  8
0
 10
5612.956797052706861
 20
319.0116027636543095
 30
0.0
 11
5615.0630813047073389
 21
319.0116027636543095
 31
0.0
  0
LINE
  5
F05F
  8
0
 10
5612.956797052706861
 20
317.0430988267543171
 30
0.0
 11
5615.0630813047073389
 21
317.0430988267543171
 31
0.0
  0
LINE
  5
F060
  8
0
 10
5612.9370970527070313
 20
317.0627988267543174
 30
0.0
 11
5612.9370970527070313
 21
318.9919027636543092
 31
0.0
  0
LINE
  5
F061
  8
0
 10
5614.9908459274256529
 20
317.0430988267543171
 30
0.0
 11
5614.9908459274256529
 21
319.0116027636543095
 31
0.0
  0
LINE
  5
F062
  8
0
 10
5614.7874907535060629
 20
317.3929705568851887
 30
0.0
 11
5614.7874907535060629
 21
317.8110244194097049
 31
0.0
  0
LINE
  5
F063
  8
0
 10
5614.7874907535060629
 20
318.2539648690226954
 30
0.0
 11
5614.7874907535060629
 21
318.6706490365633044
 31
0.0
  0
LINE
  5
F064
  8
0
 10
5614.7874907535060629
 20
317.3929705568851887
 30
0.0
 11
5613.6244990563627653
 21
317.3929705568851887
 31
0.0
  0
LINE
  5
F065
  8
0
 10
5614.7874907535060629
 20
318.6706490365633044
 30
0.0
 11
5613.6244990563627653
 21
318.6706490365633044
 31
0.0
  0
LINE
  5
F066
  8
0
 10
5614.7874907535060629
 20
318.6706490365633044
 30
0.0
 11
5614.9908459274256529
 21
319.0116027636543095
 31
0.0
  0
LINE
  5
F067
  8
0
 10
5614.7874907535060629
 20
317.3929705568851887
 30
0.0
 11
5614.9908459274256529
 21
317.0430988267543171
 31
0.0
  0
ARC
  5
F068
  8
0
 10
5612.956797052706861
 20
317.0627988267543174
 30
0.0
 40
0.0197
 50
180.0
 51
270.0000000000521254
  0
ARC
  5
F069
  8
0
 10
5612.956797052706861
 20
318.9919027636543092
 30
0.0
 40
0.0197
 50
90.0
 51
180.0
  0
ARC
  5
F06A
  8
0
 10
5613.6189102495345651
 20
319.5199613021466121
 30
0.0
 40
0.8493306536512728
 50
217.2528642452712972
 51
270.3770231926774272
  0
ARC
  5
F06B
  8
0
 10
5613.6189102495345651
 20
316.5436582913018242
 30
0.0
 40
0.8493306536512728
 50
89.6229768073226154
 51
143.122544080947705
  0
LINE
  5
F06C
  8
0
 10
5614.7481356354055606
 20
317.7616027636543095
 30
0.0
 11
5614.7874907535060629
 21
317.7616027636543095
 31
0.0
  0
LINE
  5
F06D
  8
0
 10
5614.7481356354055606
 20
318.2930988266542727
 30
0.0
 11
5614.7874907535060629
 21
318.2930988266542727
 31
0.0
  0
LINE
  5
F06E
  8
0
 10
5614.7284356354066404
 20
318.2733988266542724
 30
0.0
 11
5614.7284356354066404
 21
317.7813027636543097
 31
0.0
  0
ARC
  5
F06F
  8
0
 10
5614.7481356354055606
 20
318.2733988266542724
 30
0.0
 40
0.0197
 50
89.9999999999478888
 51
179.9999999999787974
  0
ARC
  5
F070
  8
0
 10
5614.7481356354055606
 20
317.7813027636543097
 30
0.0
 40
0.0197
 50
179.9999999999787974
 51
270.0000000000521254
  0
ARC
  5
F071
  8
0
 10
5612.9501683874132141
 20
318.0324946442162855
 30
0.0
 40
1.850622202779197
 50
353.1267468734311024
 51
6.8732531265656114
  0
CIRCLE
  5
F072
  8
0
 10
5613.7638687063072211
 20
318.0273507951542911
 30
0.0
 40
0.2232761974134974
  0
CIRCLE
  5
F073
  8
0
 10
5613.7638687063072211
 20
318.0273507951542911
 30
0.0
 40
0.1097080229592393
  0
CIRCLE
  5
F074
  8
0
 10
5613.7638687063072211
 20
318.0273507951542911
 30
0.0
 40
0.0971525020779609
  0
LINE
  5
F075
  8
0
 10
5615.0630813047073389
 20
317.0430988267543171
 30
0.0
 11
5615.0630813047073389
 21
319.0116027636543095
 31
0.0
  0
LINE
  5
F076
  8
0
 10
5585.2971450972063394
 20
327.7911303227043049
 30
0.0
 11
5583.7223419476058552
 21
327.7911303227043049
 31
0.0
  0
LINE
  5
F077
  8
0
 10
5585.2971450972063394
 20
327.7911303227043049
 30
0.0
 11
5585.2971450972063394
 21
329.8777444959043237
 31
0.0
  0
LINE
  5
F078
  8
0
 10
5583.7223419476058552
 20
329.8856185117043083
 30
0.0
 11
5583.7223419476058552
 21
327.7911303227043049
 31
0.0
  0
LINE
  5
F079
  8
0
 10
5615.1113885272070547
 20
329.8383744172041929
 30
0.0
 11
5585.2971450972063394
 21
329.8383744172041929
 31
0.0
  0
LINE
  5
F07A
  8
0
 10
5583.7223419476058552
 20
329.8383744172041929
 30
0.0
 11
5581.6357277744073144
 21
329.8383744172041929
 31
0.0
  0
LINE
  5
F07B
  8
0
 10
5585.2971450972063394
 20
329.8777444959043237
 30
0.0
 11
5583.7223419476058552
 21
329.8777444959043237
 31
0.0
  0
LINE
  5
F07C
  8
0
 10
5583.7420269869062395
 20
329.8777444959043237
 30
0.0
 11
5583.7420269869062395
 21
329.8856185117043083
 31
0.0
  0
LINE
  5
F07D
  8
0
 10
5585.2774600578068203
 20
329.8777444959043237
 30
0.0
 11
5585.2774600578068203
 21
329.8856185173850122
 31
0.0
  0
LINE
  5
F07E
  8
0
 10
5614.4724712717070361
 20
255.0352248109041966
 30
0.0
 11
5614.4724712717070361
 21
265.8619964644042852
 31
0.0
  0
LINE
  5
F07F
  8
0
 10
5614.4724712717070361
 20
267.8305004013042776
 30
0.0
 11
5614.4724712717070361
 21
317.0430988267543171
 31
0.0
  0
LINE
  5
F080
  8
0
 10
5614.4724712717070361
 20
319.0116027636543095
 30
0.0
 11
5614.4724712717070361
 21
329.8383744172041929
 31
0.0
  0
LINE
  5
F081
  8
0
 10
5614.4724712717070361
 20
255.0745948896042989
 30
0.0
 11
5583.5648616326070623
 21
255.0745948896042989
 31
0.0
  0
LINE
  5
F082
  8
0
 10
5582.3837592704057897
 20
255.0745948896042989
 30
0.0
 11
5582.0294285617073911
 21
255.0745948896042989
 31
0.0
  0
LINE
  5
F083
  8
0
 10
5614.4724712717070361
 20
329.7990043385041758
 30
0.0
 11
5585.2971450972063394
 21
329.7990043385041758
 31
0.0
  0
LINE
  5
F084
  8
0
 10
5583.7223419476058552
 20
329.7990043385041758
 30
0.0
 11
5582.0906403598419274
 21
329.7990043385041758
 31
0.0
  0
CIRCLE
  5
F085
  8
0
 10
5584.5097435224060973
 20
328.7753822912043233
 30
0.0
 40
0.2480263171999986
  0
LINE
  5
F086
  8
0
 10
5580.9743364358064355
 20
255.1887681180041909
 30
0.0
 11
5580.9968730583059369
 21
255.1887681180041909
 31
0.0
  0
LINE
  5
F087
  8
0
 10
5580.9743364358064355
 20
255.4722326849042986
 30
0.0
 11
5580.9968730583059369
 21
255.4722326849042986
 31
0.0
  0
ARC
  5
F088
  8
0
 10
5580.9743364358064355
 20
255.4801326849041914
 30
0.0
 40
0.0079
 50
179.9999999999739089
 51
270.0000000000521254
  0
ARC
  5
F089
  8
0
 10
5580.9743364358064355
 20
255.1808681180042981
 30
0.0
 40
0.0079
 50
90.0
 51
180.0
  0
LINE
  5
F08B
  8
0
 10
5580.9664364358068269
 20
328.5352248109043103
 30
0.0
 11
5580.9968730582531862
 21
328.5352248109043103
 31
0.0
  0
LINE
  5
F08C
  8
0
 10
5580.9664364358068269
 20
329.0155397715042227
 30
0.0
 11
5580.9968730582531862
 21
329.0155397715042227
 31
0.0
  0
LINE
  5
F08D
  8
0
 10
5580.3667700669047917
 20
318.6021539447042983
 30
0.0
 11
5580.3837592704048802
 21
318.6021539447042983
 31
0.0
  0
LINE
  5
F08E
  8
0
 10
5580.8556420014665491
 20
265.8619964644042852
 30
0.0
 11
5580.9968730582613716
 21
265.8619964644042852
 31
0.0
  0
LINE
  5
F08F
  8
0
 10
5580.8556420016366246
 20
267.8305004013042776
 30
0.0
 11
5580.9968730582613716
 21
267.8305004013042776
 31
0.0
  0
LINE
  5
F090
  8
0
 10
5580.3568006317609616
 20
266.1515627275537099
 30
0.0
 11
5580.845723172592443
 21
265.864691529215122
 31
0.0
  0
LINE
  5
F091
  8
0
 10
5580.347070066904962
 20
267.5239429532542772
 30
0.0
 11
5580.347070066904962
 21
267.4407515823542099
 31
0.0
  0
LINE
  5
F092
  8
0
 10
5580.3470700669058715
 20
266.251745283154321
 30
0.0
 11
5580.3470700669058715
 21
266.1685539124122215
 31
0.0
  0
LINE
  5
F093
  8
0
 10
5580.3667700669047917
 20
266.2714452831543213
 30
0.0
 11
5580.3837592704048802
 21
266.2714452831543213
 31
0.0
  0
LINE
  5
F094
  8
0
 10
5580.3568006317609616
 20
267.540934138113812
 30
0.0
 11
5580.8457231727643375
 21
267.8278053364944071
 31
0.0
  0
ARC
  5
F095
  8
0
 10
5580.3667700669047917
 20
267.5239429532542772
 30
0.0
 40
0.0197
 50
120.401922037523903
 51
180.0000000000813998
  0
ARC
  5
F096
  8
0
 10
5580.3667700669047917
 20
266.1685539124122784
 30
0.0
 40
0.0197
 50
180.0000000000619025
 51
239.5980779573378925
  0
LINE
  5
F097
  8
0
 10
5580.3837592704048802
 20
266.1685617412242095
 30
0.0
 11
5580.3837592704048802
 21
267.5239351247528816
 31
0.0
  0
ARC
  5
F098
  8
0
 10
5580.4034592704056195
 20
266.1685617412242095
 30
0.0
 40
0.0197
 50
180.0
 51
239.6323630159135121
  0
ARC
  5
F099
  8
0
 10
5580.3667700669047917
 20
267.4407515823542099
 30
0.0
 40
0.0197
 50
180.0000000000194973
 51
270.0
  0
ARC
  5
F09A
  8
0
 10
5580.3667700669047917
 20
266.251745283154321
 30
0.0
 40
0.0197
 50
90.0
 51
180.0000000000619025
  0
ARC
  5
F09B
  8
0
 10
5580.8556420016366246
 20
267.8109004013044228
 30
0.0
 40
0.0196
 50
89.9999999998957776
 51
120.4019220376517012
  0
ARC
  5
F09C
  8
0
 10
5580.8556420014665491
 20
265.8815964644043106
 30
0.0
 40
0.0196
 50
239.5980779573438042
 51
270.0
  0
LINE
  5
F09D
  8
0
 10
5580.9664364358059174
 20
265.8698964644042917
 30
0.0
 11
5580.9664364358059174
 21
267.822600401304328
 31
0.0
  0
ARC
  5
F09E
  8
0
 10
5580.9585364358063089
 20
265.8698964644042917
 30
0.0
 40
0.0079
 50
270.0
 51
0.0
  0
ARC
  5
F09F
  8
0
 10
5580.9585364358063089
 20
267.822600401304328
 30
0.0
 40
0.0079
 50
359.9999999999608917
 51
90.0
  0
LINE
  5
F0A0
  8
0
 10
5580.3935000043520631
 20
266.1515645938262082
 30
0.0
 11
5580.8876962785670912
 21
265.8619964644042852
 31
0.0
  0
LINE
  5
F0A1
  8
0
 10
5580.4405425614049818
 20
267.5572065843293785
 30
0.0
 11
5580.4405425614049818
 21
266.1352902816540791
 31
0.0
  0
LINE
  5
F0A2
  8
0
 10
5580.3935000043511536
 20
267.5409322721502008
 30
0.0
 11
5580.8876962780141184
 21
267.8305004013042776
 31
0.0
  0
ARC
  5
F0A3
  8
0
 10
5580.4034592704056195
 20
267.5239351247528816
 30
0.0
 40
0.0197
 50
120.3676369888584929
 51
180.0
  0
ARC
  5
F0A4
  8
0
 10
5580.4602425614057211
 20
267.5572065843293785
 30
0.0
 40
0.0197
 50
120.3676369889191022
 51
180.0000000000163141
  0
ARC
  5
F0A5
  8
0
 10
5580.4602425614057211
 20
266.1352902816540791
 30
0.0
 40
0.0197
 50
180.0000000000194973
 51
239.6323630159060087
  0
LINE
  5
F0A6
  8
0
 10
5580.907380301966441
 20
267.822600401304328
 30
0.0
 11
5580.907380301966441
 21
265.8698964644042917
 31
0.0
  0
ARC
  5
F0A7
  8
0
 10
5580.8994803019650135
 20
267.822600401304328
 30
0.0
 40
0.0079
 50
0.0000000000260551
 51
90.0
  0
ARC
  5
F0A8
  8
0
 10
5580.8994803019650135
 20
265.8698964644042917
 30
0.0
 40
0.0079
 50
270.0
 51
359.9999999999740226
  0
LINE
  5
F0A9
  8
0
 10
5580.5489287481495921
 20
266.1745696402866201
 30
0.0
 11
5580.7792943571466822
 21
266.039589791213416
 31
0.0
  0
LINE
  5
F0AA
  8
0
 10
5580.8089536232027967
 20
266.7773358345042993
 30
0.0
 11
5580.8089536232027967
 21
266.0565869386098825
 31
0.0
  0
LINE
  5
F0AB
  8
0
 10
5580.8089536232027967
 20
266.9151610314042955
 30
0.0
 11
5580.8089536232027967
 21
267.6359099273323068
 31
0.0
  0
LINE
  5
F0AC
  8
0
 10
5580.5391880142060472
 20
266.7773358345042993
 30
0.0
 11
5580.5391880142060472
 21
266.1915667876830867
 31
0.0
  0
LINE
  5
F0AD
  8
0
 10
5580.5391880142060472
 20
266.9151610314042955
 30
0.0
 11
5580.5391880142060472
 21
267.5009300783115123
 31
0.0
  0
LINE
  5
F0AE
  8
0
 10
5580.789253623202967
 20
266.7970358345042996
 30
0.0
 11
5580.558888014205877
 21
266.7970358345042996
 31
0.0
  0
LINE
  5
F0AF
  8
0
 10
5580.7792943571494106
 20
267.6529070747304786
 30
0.0
 11
5580.5489287481523206
 21
267.5179272257096272
 31
0.0
  0
ARC
  5
F0B0
  8
0
 10
5580.558888014205877
 20
266.1915667876830867
 30
0.0
 40
0.0197
 50
179.999999999980389
 51
239.6323630063006931
  0
ARC
  5
F0B1
  8
0
 10
5580.789253623202967
 20
266.0565869386098825
 30
0.0
 40
0.0197
 50
239.6323630063056953
 51
359.9999999999674856
  0
ARC
  5
F0B2
  8
0
 10
5580.789253623202967
 20
266.7773358345042993
 30
0.0
 40
0.0197
 50
359.9999999999641886
 51
90.0
  0
ARC
  5
F0B3
  8
0
 10
5580.558888014205877
 20
266.7773358345042993
 30
0.0
 40
0.0197
 50
90.0
 51
180.0000000000422915
  0
ARC
  5
F0B4
  8
0
 10
5580.789253623202967
 20
267.6359099273323068
 30
0.0
 40
0.0197
 50
359.9999999999544116
 51
120.3676369839710958
  0
ARC
  5
F0B5
  8
0
 10
5580.558888014205877
 20
267.5009300783115123
 30
0.0
 40
0.0197
 50
120.3676369839784996
 51
180.0000000000260059
  0
LINE
  5
F0B6
  8
0
 10
5580.558888014205877
 20
266.8954610314042952
 30
0.0
 11
5580.789253623202967
 21
266.8954610314042952
 31
0.0
  0
ARC
  5
F0B7
  8
0
 10
5580.558888014205877
 20
266.9151610314042955
 30
0.0
 40
0.0197
 50
179.9999999999901945
 51
270.0000000000521254
  0
ARC
  5
F0B8
  8
0
 10
5580.789253623202967
 20
266.9151610314042955
 30
0.0
 40
0.0197
 50
269.999999999895806
 51
0.0000000000553671
  0
ARC
  5
F0B9
  8
0
 10
5581.0897100458241766
 20
266.9237082377949832
 30
0.0
 40
0.3860105261811719
 50
153.8893828505914882
 51
181.3370167269249009
  0
ARC
  5
F0BA
  8
0
 10
5580.7234992501689703
 20
266.9151610314042955
 30
0.0
 40
0.0197
 50
181.3370167269216893
 51
270.0
  0
LINE
  5
F0BB
  8
0
 10
5580.7430934233061635
 20
267.0935936206760744
 30
0.0
 11
5580.7430934233061635
 21
267.6204059039553158
 31
0.0
  0
ARC
  5
F0BC
  8
0
 10
5580.7627934233059932
 20
267.6204059039553158
 30
0.0
 40
0.0197
 50
120.3676369840332967
 51
180.0000000000358114
  0
LINE
  5
F0BD
  8
0
 10
5580.7430934233061635
 20
266.0720909619928989
 30
0.0
 11
5580.7430934233061635
 21
266.5992407257966192
 31
0.0
  0
ARC
  5
F0BE
  8
0
 10
5581.1969774588269502
 20
266.7927781238439024
 30
0.0
 40
0.4934242010108151
 50
181.8680379286601863
 51
203.0935328258130141
  0
ARC
  5
F0BF
  8
0
 10
5580.7235050157805745
 20
266.7773358345042993
 30
0.0
 40
0.0197
 50
90.0
 51
181.8680379286633979
  0
ARC
  5
F0C0
  8
0
 10
5580.7627934233059932
 20
266.0720909619928989
 30
0.0
 40
0.0197
 50
180.0
 51
239.6323630062483119
  0
LINE
  5
F0C1
  8
0
 10
5580.9968730582986609
 20
265.9210515826043206
 30
0.0
 11
5580.9664364358059174
 21
265.9210515826043206
 31
0.0
  0
LINE
  5
F0C2
  8
0
 10
5580.9968730582959324
 20
267.7714452834043186
 30
0.0
 11
5580.9664364358059174
 21
267.7714452834043186
 31
0.0
  0
LINE
  5
F0C3
  8
0
 10
5580.3667700669047917
 20
267.4210515823542096
 30
0.0
 11
5580.3837592704048802
 21
267.4210515823542096
 31
0.0
  0
ENDSEC
  0
EOF
