  0
SECTION
  2
HEADER
  9
$ACADVER
  1
AC1009
  9
$INSBASE
 10
5383.5826228976029597
 20
296.2843364126597976
 30
0.0
  9
$EXTMIN
 10
5358.779853802730031
 20
293.7052928996304786
 30
-0.0000000349181948
  9
$EXTMAX
 10
5405.6095142779486196
 20
340.1230591023033867
 30
0.0000000814935746
  9
$LIMMIN
 10
0.0
 20
0.0
  9
$LIMMAX
 10
11.6929133858000007
 20
8.2677165353999982
  9
$ORTHOMODE
 70
     0
  9
$REGENMODE
 70
     1
  9
$FILLMODE
 70
     1
  9
$QTEXTMODE
 70
     0
  9
$MIRRTEXT
 70
     0
  9
$DRAGMODE
 70
     2
  9
$LTSCALE
 40
0.6431102362
  9
$OSMODE
 70
  4095
  9
$ATTMODE
 70
     1
  9
$TEXTSIZE
 40
0.2
  9
$TRACEWID
 40
0.05
  9
$TEXTSTYLE
  7
STANDARD
  9
$CLAYER
  8
0
  9
$CELTYPE
  6
BYLAYER
  9
$CECOLOR
 62
   256
  9
$DIMSCALE
 40
1.0
  9
$DIMASZ
 40
0.1875
  9
$DIMEXO
 40
0.0625
  9
$DIMDLI
 40
0.4443307087
  9
$DIMRND
 40
0.0
  9
$DIMDLE
 40
0.0
  9
$DIMEXE
 40
0.125
  9
$DIMTP
 40
0.01
  9
$DIMTM
 40
0.01
  9
$DIMTXT
 40
2.0
  9
$DIMCEN
 40
0.1052362205
  9
$DIMTSZ
 40
0.0
  9
$DIMTOL
 70
     1
  9
$DIMLIM
 70
     0
  9
$DIMTIH
 70
     1
  9
$DIMTOH
 70
     1
  9
$DIMSE1
 70
     0
  9
$DIMSE2
 70
     0
  9
$DIMTAD
 70
     0
  9
$DIMZIN
 70
     0
  9
$DIMBLK
  1

  9
$DIMASO
 70
     1
  9
$DIMSHO
 70
     1
  9
$DIMPOST
  1
\X
  9
$DIMAPOST
  1

  9
$DIMALT
 70
     1
  9
$DIMALTD
 70
     2
  9
$DIMALTF
 40
25.3999999999999986
  9
$DIMLFAC
 40
1.0
  9
$DIMTOFL
 70
     0
  9
$DIMTVP
 40
0.0
  9
$DIMTIX
 70
     0
  9
$DIMSOXD
 70
     0
  9
$DIMSAH
 70
     0
  9
$DIMBLK1
  1

  9
$DIMBLK2
  1

  9
$DIMSTYLE
  2
STANDARD
  9
$DIMCLRD
 70
     0
  9
$DIMCLRE
 70
     0
  9
$DIMCLRT
 70
     0
  9
$DIMTFAC
 40
1.0
  9
$DIMGAP
 40
0.09
  9
$LUNITS
 70
     2
  9
$LUPREC
 70
     4
  9
$SKETCHINC
 40
0.1
  9
$FILLETRAD
 40
0.0
  9
$AUNITS
 70
     0
  9
$AUPREC
 70
     0
  9
$MENU
  1
.
  9
$ELEVATION
 40
0.0
  9
$PELEVATION
 40
0.0
  9
$THICKNESS
 40
0.0
  9
$LIMCHECK
 70
     0
  9
$BLIPMODE
 70
     0
  9
$CHAMFERA
 40
0.0
  9
$CHAMFERB
 40
0.0
  9
$SKPOLY
 70
     0
  9
$TDCREATE
 40
2458060.468368056230247
  9
$TDUPDATE
 40
2459174.7342708338983357
  9
$TDINDWG
 40
0.3586876157
  9
$TDUSRTIMER
 40
0.3586876157
  9
$USRTIMER
 70
     1
  9
$ANGBASE
 50
0.0
  9
$ANGDIR
 70
     0
  9
$PDMODE
 70
     0
  9
$PDSIZE
 40
0.3125
  9
$PLINEWID
 40
0.0
  9
$COORDS
 70
     1
  9
$SPLFRAME
 70
     0
  9
$SPLINETYPE
 70
     6
  9
$SPLINESEGS
 70
     8
  9
$ATTDIA
 70
     1
  9
$ATTREQ
 70
     1
  9
$HANDLING
 70
     1
  9
$HANDSEED
  5
F029
  9
$SURFTAB1
 70
     6
  9
$SURFTAB2
 70
     6
  9
$SURFTYPE
 70
     6
  9
$SURFU
 70
     6
  9
$SURFV
 70
     6
  9
$UCSNAME
  2

  9
$UCSORG
 10
0.0
 20
0.0
 30
0.0
  9
$UCSXDIR
 10
1.0
 20
0.0
 30
0.0
  9
$UCSYDIR
 10
0.0
 20
1.0
 30
0.0
  9
$PUCSNAME
  2

  9
$PUCSORG
 10
0.0
 20
0.0
 30
0.0
  9
$PUCSXDIR
 10
1.0
 20
0.0
 30
0.0
  9
$PUCSYDIR
 10
0.0
 20
1.0
 30
0.0
  9
$USERI1
 70
     0
  9
$USERI2
 70
     0
  9
$USERI3
 70
     0
  9
$USERI4
 70
     0
  9
$USERI5
 70
     0
  9
$USERR1
 40
0.0
  9
$USERR2
 40
0.0
  9
$USERR3
 40
0.0
  9
$USERR4
 40
0.0
  9
$USERR5
 40
0.0
  9
$WORLDVIEW
 70
     1
  9
$SHADEDGE
 70
     3
  9
$SHADEDIF
 70
    70
  9
$TILEMODE
 70
     1
  9
$MAXACTVP
 70
    64
  9
$PLIMCHECK
 70
     0
  9
$PEXTMIN
 10
1.0000000000000000E+20
 20
1.0000000000000000E+20
 30
1.0000000000000000E+20
  9
$PEXTMAX
 10
-1.0000000000000000E+20
 20
-1.0000000000000000E+20
 30
-1.0000000000000000E+20
  9
$PLIMMIN
 10
0.0
 20
0.0
  9
$PLIMMAX
 10
12.0
 20
9.0
  9
$UNITMODE
 70
     0
  9
$VISRETAIN
 70
     1
  9
$PLINEGEN
 70
     0
  9
$PSLTSCALE
 70
     1
  0
ENDSEC
  0
SECTION
  2
TABLES
  0
TABLE
  2
VPORT
 70
     1
  0
VPORT
  2
*ACTIVE
 70
     0
 10
0.0
 20
0.0
 11
1.0
 21
1.0
 12
441.9643986089349141
 22
2.6411802613227451
 13
0.0
 23
0.0
 14
1.0
 24
1.0
 15
0.0
 25
0.0
 16
0.0
 26
0.0
 36
326.4906812651062182
 17
4940.2302854314038996
 27
314.272995739644216
 37
0.0
 40
47.0090753262737806
 41
2.887234042553191
 42
50.0
 43
0.0
 44
0.0
 50
0.0
 51
0.0
 71
     0
 72
   100
 73
     1
 74
     1
 75
     0
 76
     0
 77
     0
 78
     0
  0
ENDTAB
  0
TABLE
  2
LTYPE
 70
     2
  0
LTYPE
  2
CONTINUOUS
 70
     0
  3
Solid line
 72
    65
 73
     0
 40
0.0
  0
LTYPE
  2
PHANTOM2
 70
     0
  3
___ _ _ ___ _ _ ___ _ _ ___ _ _
 72
    65
 73
     6
 40
1.25
 49
0.625
 49
-0.125
 49
0.125
 49
-0.125
 49
0.125
 49
-0.125
  0
ENDTAB
  0
TABLE
  2
LAYER
 70
     2
  0
LAYER
  2
0
 70
     0
 62
   255
  6
CONTINUOUS
  0
LAYER
  2
DEFPOINTS
 70
     0
 62
     7
  6
CONTINUOUS
  0
ENDTAB
  0
TABLE
  2
STYLE
 70
     1
  0
STYLE
  2
STANDARD
 70
     0
 40
0.0
 41
0.8
 50
0.0
 71
     0
 42
0.2
  3
txt
  4

  0
ENDTAB
  0
TABLE
  2
VIEW
 70
     0
  0
ENDTAB
  0
TABLE
  2
UCS
 70
     0
  0
ENDTAB
  0
TABLE
  2
APPID
 70
     9
  0
APPID
  2
ACAD
 70
     0
  0
APPID
  2
ACAD_MLEADERVER
 70
     0
  0
APPID
  2
ACAD_EXEMPT_FROM_CAD_STANDARDS
 70
     0
  0
APPID
  2
ACAD_NAV_VCDISPLAY
 70
     0
  0
APPID
  2
ACAECLAYERSTANDARD
 70
     0
  0
APPID
  2
ACCMTRANSPARENCY
 70
     0
  0
APPID
  2
ACAD_DSTYLE_DIMJAG
 70
     0
  0
APPID
  2
ACAD_DSTYLE_DIMTALN
 70
     0
  0
APPID
  2
ACDBATTR
 70
     0
  0
ENDTAB
  0
TABLE
  2
DIMSTYLE
 70
     1
  0
DIMSTYLE
  2
STANDARD
 70
     0
  3

  4

  5

  6

  7

 40
1.0
 41
0.1875
 42
0.0625
 43
0.38
 44
0.125
 45
0.0
 46
0.0
 47
0.01
 48
0.01
140
0.15625
141
0.09
142
0.0
143
25.3999999999999986
144
1.0
145
0.0
146
1.0
147
0.09
 71
     1
 72
     0
 73
     1
 74
     1
 75
     0
 76
     0
 77
     0
 78
     4
170
     0
171
     2
172
     0
173
     0
174
     0
175
     0
176
     0
177
     0
178
     0
  0
ENDTAB
  0
ENDSEC
  0
SECTION
  2
BLOCKS
  0
BLOCK
  8
0
  2
$MODEL_SPACE
 70
     0
 10
0.0
 20
0.0
 30
0.0
  3
$MODEL_SPACE
  1

  0
ENDBLK
  5
21
  8
0
  0
BLOCK
 67
     1
  8
0
  2
$PAPER_SPACE
 70
     0
 10
0.0
 20
0.0
 30
0.0
  3
$PAPER_SPACE
  1

  0
ENDBLK
  5
1D
 67
     1
  8
0
  0
ENDSEC
  0
SECTION
  2
ENTITIES
  0
ATTDEF
  5
3930
  8
DEFPOINTS
 10
5383.577985560844354
 20
296.2825661500497745
 30
0.0
 40
0.001
  1
K-76582T-L
  3

  2
MODELNUMBER
 70
     0
1001
ACDBATTR
1070
     0
1070
     1
  0
ATTDEF
  5
3931
  8
DEFPOINTS
 10
5383.577985560844354
 20
296.2808994833831093
 30
0.0
 40
0.001
  1
NEW MEMOIRS
  3

  2
TRADENAME
 70
     0
1001
ACDBATTR
1070
     0
1070
     1
  0
ATTDEF
  5
3932
  8
DEFPOINTS
 10
5383.577985560844354
 20
296.2792328167163873
 30
0.0
 40
0.001
  1
SHOWER DOOR
  3

  2
PRODUCT
 70
     0
1001
ACDBATTR
1070
     0
1070
     1
  0
LINE
  5
EB1F
  8
0
 10
5362.3922836867532169
 20
296.7369216909597753
 30
0.0
 11
5362.3004567609532387
 21
296.8287486170598868
 31
0.0
  0
LINE
  5
EB20
  8
0
 10
5362.2726179113533362
 20
296.8565874666597892
 30
0.0
 11
5362.1807909852532248
 21
296.9484143925599255
 31
0.0
  0
LINE
  5
EB21
  8
0
 10
5362.3951088498542958
 20
296.7563676079602146
 30
0.0
 11
5362.3171600706518802
 21
296.8343163870599142
 31
0.0
  0
LINE
  5
EB22
  8
0
 10
5362.2781856812525803
 20
296.8732907764597826
 30
0.0
 11
5362.2002369022029598
 21
296.9512395555099147
 31
0.0
  0
LINE
  5
EB23
  8
0
 10
5362.4841931686532917
 20
297.2240602820597815
 30
0.0
 11
5362.5621419477038216
 21
297.1461115031111149
 31
0.0
  0
LINE
  5
EB24
  8
0
 10
5362.5899807973546558
 20
297.1182726534614744
 30
0.0
 11
5362.6679295762542097
 21
297.0403238743597853
 31
0.0
  0
LINE
  5
EB25
  8
0
 10
5362.8788903460526853
 20
296.8355175150597915
 30
0.0
 11
5362.839520267352782
 21
296.8748875937599223
 31
0.0
  0
LINE
  5
EB26
  8
0
 10
5362.3187568880530307
 20
297.3956509730597872
 30
0.0
 11
5362.2793868092530829
 21
297.4350210518597919
 31
0.0
  0
LINE
  5
EB27
  8
0
 10
5362.495328708652778
 20
297.2351958219599055
 30
0.0
 11
5362.559358062652791
 21
297.1711664677599174
 31
0.0
  0
LINE
  5
EB28
  8
0
 10
5362.6150357619526403
 20
297.1154887684598975
 30
0.0
 11
5362.6790651162527865
 21
297.0514594143597833
 31
0.0
  0
LINE
  5
EB29
  8
0
 10
5362.5549773604534494
 20
297.4350210518597919
 30
0.0
 11
5362.5746623998529685
 21
297.4153360124598748
 31
0.0
  0
LINE
  5
EB2A
  8
0
 10
5362.8592053067541201
 20
297.130793105559917
 30
0.0
 11
5362.8788903460526853
 21
297.1111080662598738
 31
0.0
  0
LINE
  5
EB2B
  8
0
 10
5363.1515672533532779
 20
296.8337369880599113
 30
0.0
 11
5363.2253470390542134
 21
296.8161316295597771
 31
0.0
  0
LINE
  5
EB2C
  8
0
 10
5363.1788837132526169
 20
296.8069850287599252
 30
0.0
 11
5363.1474758826516336
 21
296.8144825864598033
 31
0.0
  0
LINE
  5
EB2D
  8
0
 10
5362.258310802176311
 20
297.7037851554584904
 30
0.0
 11
5362.2508543230796931
 21
297.7350144189476282
 31
0.0
  0
LINE
  5
EB2E
  8
0
 10
5362.2600009238740313
 20
297.7814777446706103
 30
0.0
 11
5362.2776404466530948
 21
297.7075540289598052
 31
0.0
  0
LINE
  5
EB2F
  8
0
 10
5361.600252951053335
 20
296.1563836567597718
 30
0.0
 11
5361.600252951053335
 21
297.5737064914599159
 31
0.0
  0
LINE
  5
EB30
  8
0
 10
5361.7282057069533039
 20
297.5737064914599159
 30
0.0
 11
5361.7282057069533039
 21
300.2213296239298188
 31
0.0
  0
LINE
  5
EB31
  8
0
 10
5361.7282057069533039
 20
301.6565929795772263
 30
0.0
 11
5361.7282057069533039
 21
310.8512443999424022
 31
0.0
  0
LINE
  5
EB32
  8
0
 10
5361.7282057069533039
 20
312.2865077555899234
 30
0.0
 11
5361.7282057069533039
 21
323.2939013934200716
 31
0.0
  0
LINE
  5
EB33
  8
0
 10
5362.1219064943516059
 20
321.6999605851207207
 30
0.0
 11
5362.1219064943516059
 21
312.4138730490922171
 31
0.0
  0
LINE
  5
EB34
  8
0
 10
5362.1219064943516059
 20
310.7238730534181741
 30
0.0
 11
5362.1219064943516059
 21
301.7839643261015112
 31
0.0
  0
LINE
  5
EB35
  8
0
 10
5362.1219064943516059
 20
300.0939643304274114
 30
0.0
 11
5362.1219064943516059
 21
297.5737064914599159
 31
0.0
  0
LINE
  5
EB36
  8
0
 10
5362.1810927221531529
 20
297.468606851356526
 30
0.0
 11
5362.1810927221531529
 21
297.3405328628599023
 31
0.0
  0
LINE
  5
EB37
  8
0
 10
5362.2206934825517237
 20
297.4236362096111748
 30
0.0
 11
5362.2206934825517237
 21
297.4728055704558756
 31
0.0
  0
LINE
  5
EB38
  8
0
 10
5362.2342600425517958
 20
298.2421076660597805
 30
0.0
 11
5362.2342600425517958
 21
300.0139578394865794
 31
0.0
  0
LINE
  5
EB39
  8
0
 10
5362.2342600425517958
 20
301.8639647640202952
 30
0.0
 11
5362.2342600425517958
 21
310.6438726154992196
 31
0.0
  0
LINE
  5
EB3A
  8
0
 10
5362.2342600425517958
 20
312.4938795400329923
 30
0.0
 11
5362.2342600425517958
 21
321.3803890553527935
 31
0.0
  0
LINE
  5
EB3B
  8
0
 10
5362.2345808911532004
 20
321.1422336412808249
 30
0.0
 11
5362.2345808911532004
 21
312.493879540033106
 31
0.0
  0
LINE
  5
EB3C
  8
0
 10
5362.2345808911532004
 20
310.6438726154992196
 30
0.0
 11
5362.2345808911532004
 21
301.8639647640202952
 31
0.0
  0
LINE
  5
EB3D
  8
0
 10
5362.2345808911532004
 20
300.0139578394865794
 30
0.0
 11
5362.2345808911532004
 21
298.2421076660597805
 31
0.0
  0
LINE
  5
EB3E
  8
0
 10
5362.2498592502515748
 20
297.564947785559923
 30
0.0
 11
5362.2498592502515748
 21
297.3956509731597748
 31
0.0
  0
LINE
  5
EB3F
  8
0
 10
5362.2498592502515748
 20
297.3405328628599023
 30
0.0
 11
5362.2498592502515748
 21
297.0231329830597815
 31
0.0
  0
LINE
  5
EB40
  8
0
 10
5362.2498592502515748
 20
297.0008619035597803
 30
0.0
 11
5362.2498592502515748
 21
296.90254235895992
 31
0.0
  0
LINE
  5
EB41
  8
0
 10
5362.2498592502515748
 20
296.8793461277599022
 30
0.0
 11
5362.2498592502515748
 21
296.8059899559597739
 31
0.0
  0
LINE
  5
EB42
  8
0
 10
5362.271244968852443
 20
298.2421076660597805
 30
0.0
 11
5362.271244968852443
 21
300.0218318307598224
 31
0.0
  0
LINE
  5
EB43
  8
0
 10
5362.271244968852443
 20
301.8560837992598067
 30
0.0
 11
5362.271244968852443
 21
310.6517535802598218
 31
0.0
  0
LINE
  5
EB44
  8
0
 10
5362.271244968852443
 20
312.4860055487598061
 30
0.0
 11
5362.271244968852443
 21
321.2819411083643217
 31
0.0
  0
LINE
  5
EB45
  8
0
 10
5362.2793868092530829
 20
324.5610749711540279
 30
0.0
 11
5362.2793868092530829
 21
297.8707244257752791
 31
0.0
  0
LINE
  5
EB46
  8
0
 10
5362.2793868092530829
 20
297.8654594101444104
 30
0.0
 11
5362.2793868092530829
 21
297.4350210518597919
 31
0.0
  0
LINE
  5
EB47
  8
0
 10
5362.3187568880530307
 20
324.9153360124598748
 30
0.0
 11
5362.3187568880530307
 21
297.4350210518597919
 31
0.0
  0
LINE
  5
EB48
  8
0
 10
5362.5549773604534494
 20
297.4350210518597919
 30
0.0
 11
5362.5549773604534494
 21
324.9153360087125861
 31
0.0
  0
LINE
  5
EB49
  8
0
 10
5362.5943474391524433
 20
297.4350210518597919
 30
0.0
 11
5362.5943474391524433
 21
297.8654594108855918
 31
0.0
  0
LINE
  5
EB4A
  8
0
 10
5362.5943474391524433
 20
297.8707244250340977
 30
0.0
 11
5362.5943474392406642
 21
324.5645872375876024
 31
0.0
  0
LINE
  5
EB4B
  8
0
 10
5362.6010377356524259
 20
298.2421076660597805
 30
0.0
 11
5362.6010377534530562
 21
300.7421337362554823
 31
0.0
  0
LINE
  5
EB4C
  8
0
 10
5362.6010377564161899
 20
301.135808219255523
 30
0.0
 11
5362.6010378295150076
 21
311.3720286870554901
 31
0.0
  0
LINE
  5
EB4D
  8
0
 10
5362.6010378321534517
 20
311.7657031700554739
 30
0.0
 11
5362.6010379023518908
 21
321.5936265545720971
 31
0.0
  0
LINE
  5
EB4E
  8
0
 10
5362.62092848775319
 20
321.5946689759783226
 30
0.0
 11
5362.62092848775319
 21
311.7657031700554739
 31
0.0
  0
LINE
  5
EB4F
  8
0
 10
5362.62092848775319
 20
311.3720286870554901
 30
0.0
 11
5362.62092848775319
 21
301.135808219255523
 31
0.0
  0
LINE
  5
EB50
  8
0
 10
5362.62092848775319
 20
300.7421337362554823
 30
0.0
 11
5362.62092848775319
 21
298.2421076660597805
 31
0.0
  0
LINE
  5
EB51
  8
0
 10
5362.6222760810533146
 20
298.2421076660597805
 30
0.0
 11
5362.6222760810533146
 21
300.7421337362554823
 31
0.0
  0
LINE
  5
EB52
  8
0
 10
5362.6222760810533146
 20
301.135808219255523
 30
0.0
 11
5362.6222760810533146
 21
311.3720286870554901
 31
0.0
  0
LINE
  5
EB53
  8
0
 10
5362.6222760810533146
 20
311.7657031700554739
 30
0.0
 11
5362.6222760810533146
 21
321.5947396003502945
 31
0.0
  0
LINE
  5
EB54
  8
0
 10
5362.6530407659529374
 20
297.4728055704558187
 30
0.0
 11
5362.6530407659529374
 21
297.4236362031443832
 31
0.0
  0
LINE
  5
EB55
  8
0
 10
5362.6926415263533272
 20
297.3405328628599023
 30
0.0
 11
5362.6926415263533272
 21
297.4686068504598779
 31
0.0
  0
LINE
  5
EB56
  8
0
 10
5362.7844021571527264
 20
297.2290850158598232
 30
0.0
 11
5362.7844021571527264
 21
296.7573227237597848
 31
0.0
  0
LINE
  5
EB57
  8
0
 10
5362.839520267352782
 20
296.8043799479597737
 30
0.0
 11
5362.839520267352782
 21
297.1816157120599087
 31
0.0
  0
LINE
  5
EB58
  8
0
 10
5362.8788903460526853
 20
296.8748875937599223
 30
0.0
 11
5362.8788903460526853
 21
297.1111080662598738
 31
0.0
  0
LINE
  5
EB59
  8
0
 10
5390.3768411577120787
 20
297.1561278834556106
 30
0.0
 11
5390.2069571927531797
 21
297.1383465655598002
 31
0.0
  0
LINE
  5
EB5A
  8
0
 10
5390.1907683694516891
 20
297.1366521230597755
 30
0.0
 11
5390.040506378552891
 21
297.120924586759827
 31
0.0
  0
LINE
  5
EB5B
  8
0
 10
5390.0224515972531663
 20
297.1586199854597794
 30
0.0
 11
5390.3727427810435984
 21
297.195284063159022
 31
0.0
  0
LINE
  5
EB5C
  8
0
 10
5363.0175757856532073
 20
296.1563836567597718
 30
0.0
 11
5361.600252951053335
 21
296.1563836567597718
 31
0.0
  0
LINE
  5
EB5D
  8
0
 10
5390.7529060941533317
 20
296.1741001921599263
 30
0.0
 11
5390.3449094272527873
 21
296.1741001921599263
 31
0.0
  0
LINE
  5
EB5E
  8
0
 10
5389.6764824061274339
 20
296.1741001921598127
 30
0.0
 11
5389.6505438894528197
 21
296.1741001921599263
 31
0.0
  0
LINE
  5
EB5F
  8
0
 10
5393.1938509760529996
 20
296.2843364126597976
 30
0.0
 11
5392.7323591243493865
 21
296.2843364126597976
 31
0.0
  0
LINE
  5
EB60
  8
0
 10
5388.7375825853969218
 20
296.2843364126597976
 30
0.0
 11
5377.7076123945962536
 21
296.2843364126597976
 31
0.0
  0
LINE
  5
EB61
  8
0
 10
5376.2723490389489598
 20
296.2843364126597976
 30
0.0
 11
5367.0776976185834428
 21
296.2843364126597976
 31
0.0
  0
LINE
  5
EB62
  8
0
 10
5365.642434262936149
 20
296.2843364126597976
 30
0.0
 11
5363.0175757856532073
 21
296.2843364126597976
 31
0.0
  0
LINE
  5
EB63
  8
0
 10
5396.2228716156532755
 20
296.4910293260599019
 30
0.0
 11
5395.4993588834531693
 21
296.4910293260599019
 31
0.0
  0
LINE
  5
EB64
  8
0
 10
5396.800401248651724
 20
296.6130765701598193
 30
0.0
 11
5396.491036509452897
 21
296.6130765701598193
 31
0.0
  0
LINE
  5
EB65
  8
0
 10
5363.0175757856532073
 20
296.6780372000599186
 30
0.0
 11
5365.5150689694328321
 21
296.6780372000599186
 31
0.0
  0
LINE
  5
EB66
  8
0
 10
5367.2050689651077846
 20
296.6780372000599186
 30
0.0
 11
5376.1449776924237085
 21
296.6780372000599186
 31
0.0
  0
LINE
  5
EB67
  8
0
 10
5377.834977688098661
 20
296.6780372000599186
 30
0.0
 11
5387.1437372729778872
 21
296.6780372000599186
 31
0.0
  0
LINE
  5
EB68
  8
0
 10
5390.7529060941533317
 20
296.6833795374598139
 30
0.0
 11
5394.4121567255815535
 21
296.6833795370548046
 31
0.0
  0
LINE
  5
EB69
  8
0
 10
5362.7844021571527264
 20
296.7372234278598171
 30
0.0
 11
5362.9124761447528726
 21
296.7372234278598171
 31
0.0
  0
LINE
  5
EB6A
  8
0
 10
5389.6581728591518186
 20
296.7567773575598267
 30
0.0
 11
5394.4143234169532661
 21
296.7567773575598267
 31
0.0
  0
LINE
  5
EB6B
  8
0
 10
5362.9166748653533432
 20
296.7768241882599227
 30
0.0
 11
5362.8673839058528756
 21
296.7768241882599227
 31
0.0
  0
LINE
  5
EB6C
  8
0
 10
5390.9103864090529896
 20
296.787214756659921
 30
0.0
 11
5390.4379454642530618
 21
296.787214756659921
 31
0.0
  0
LINE
  5
EB6D
  8
0
 10
5389.5521186925516304
 20
296.7903907483599255
 30
0.0
 11
5389.2930448736533435
 21
296.7903907483599255
 31
0.0
  0
LINE
  5
EB6E
  8
0
 10
5386.8241749618009635
 20
296.7903907483599255
 30
0.0
 11
5377.9149841790404025
 21
296.7903907483599255
 31
0.0
  0
LINE
  5
EB6F
  8
0
 10
5376.0649772545057203
 20
296.7903907483599255
 30
0.0
 11
5367.2850694030266823
 21
296.7903907483599255
 31
0.0
  0
LINE
  5
EB70
  8
0
 10
5365.4350624784929096
 20
296.7903907483599255
 30
0.0
 11
5363.6859769602524466
 21
296.7903907483599255
 31
0.0
  0
LINE
  5
EB71
  8
0
 10
5363.6859769602524466
 20
296.7907115968598077
 30
0.0
 11
5365.4350624784929096
 21
296.7907115968598077
 31
0.0
  0
LINE
  5
EB72
  8
0
 10
5389.2930616886533244
 20
296.7907115968598077
 30
0.0
 11
5389.5521186925516304
 21
296.7907115968598077
 31
0.0
  0
LINE
  5
EB73
  8
0
 10
5362.2498592502515748
 20
296.8059899559597739
 30
0.0
 11
5362.3232154219531367
 21
296.8059899559597739
 31
0.0
  0
LINE
  5
EB74
  8
0
 10
5362.3464116532531989
 20
296.8059899559597739
 30
0.0
 11
5362.4447311978528887
 21
296.8059899559597739
 31
0.0
  0
LINE
  5
EB75
  8
0
 10
5362.4670022772515949
 20
296.8059899559597739
 30
0.0
 11
5362.7844021571527264
 21
296.8059899559597739
 31
0.0
  0
LINE
  5
EB76
  8
0
 10
5362.839520267352782
 20
296.8059899559597739
 30
0.0
 11
5363.0088170894532595
 21
296.8059899559597739
 31
0.0
  0
LINE
  5
EB77
  8
0
 10
5390.4379454642530618
 20
296.8265848353598244
 30
0.0
 11
5391.1072368027525954
 21
296.8265848353598244
 31
0.0
  0
LINE
  5
EB78
  8
0
 10
5389.5521186925516304
 20
296.827375674559903
 30
0.0
 11
5389.2949831715532127
 21
296.827375674559903
 31
0.0
  0
LINE
  5
EB79
  8
0
 10
5362.8788903460526853
 20
296.8355175150597915
 30
0.0
 11
5363.3090153743405608
 21
296.8355175150597915
 31
0.0
  0
LINE
  5
EB7A
  8
0
 10
5363.3148542109529444
 20
296.8355175150597915
 30
0.0
 11
5390.0049437900379417
 21
296.8355175150597915
 31
0.0
  0
LINE
  5
EB7B
  8
0
 10
5390.2685365637516952
 20
296.8355175150597915
 30
0.0
 11
5390.3592053067532106
 21
296.8355175150597915
 31
0.0
  0
LINE
  5
EB7C
  8
0
 10
5390.792276172853235
 20
296.8355175150597915
 30
0.0
 11
5395.2311939897526827
 21
296.8355175150597915
 31
0.0
  0
LINE
  5
EB7D
  8
0
 10
5397.1859183991518876
 20
296.8355175150597915
 30
0.0
 11
5404.9262065137527316
 21
296.8355175150597915
 31
0.0
  0
LINE
  5
EB7E
  8
0
 10
5362.8788903460526853
 20
296.8748875937599223
 30
0.0
 11
5390.3592053067532106
 21
296.8748875937599223
 31
0.0
  0
LINE
  5
EB7F
  8
0
 10
5390.792276172853235
 20
296.8748875937599223
 30
0.0
 11
5395.2311939897526827
 21
296.8748875937599223
 31
0.0
  0
LINE
  5
EB80
  8
0
 10
5397.2252884779527449
 20
296.8748875937599223
 30
0.0
 11
5405.2804651492524499
 21
296.8748875937599223
 31
0.0
  0
LINE
  5
EB81
  8
0
 10
5405.2804651492524499
 20
297.1111080662598738
 30
0.0
 11
5397.4615089503531635
 21
297.1111080662598738
 31
0.0
  0
LINE
  5
EB82
  8
0
 10
5395.2311939897526827
 20
297.1111080662598738
 30
0.0
 11
5390.792276172853235
 21
297.1111080662598738
 31
0.0
  0
LINE
  5
EB83
  8
0
 10
5390.3592053067532106
 20
297.1111080662598738
 30
0.0
 11
5362.8788903460526853
 21
297.1111080662598738
 31
0.0
  0
LINE
  5
EB84
  8
0
 10
5404.9263279221531775
 20
297.1504781449597772
 30
0.0
 11
5397.5008790290530669
 21
297.1504781449597772
 31
0.0
  0
LINE
  5
EB85
  8
0
 10
5395.2311939897526827
 20
297.1504781449597772
 30
0.0
 11
5390.792276172853235
 21
297.1504781449597772
 31
0.0
  0
LINE
  5
EB86
  8
0
 10
5390.3592053067532106
 20
297.1504781449597772
 30
0.0
 11
5390.3228631580532237
 21
297.1504781449597772
 31
0.0
  0
LINE
  5
EB87
  8
0
 10
5390.0084802964529445
 20
297.1504781449597772
 30
0.0
 11
5363.3145398997539814
 21
297.1504781449597772
 31
0.0
  0
LINE
  5
EB88
  8
0
 10
5363.3086439598528159
 20
297.1504781449597772
 30
0.0
 11
5362.8788903460526853
 21
297.1504781449597772
 31
0.0
  0
LINE
  5
EB89
  8
0
 10
5377.2095719558792553
 20
297.1571105903760781
 30
0.0
 11
5387.0374905961525656
 21
297.1570683805597923
 31
0.0
  0
LINE
  5
EB8A
  8
0
 10
5387.6051976251528686
 20
297.1570659423599068
 30
0.0
 11
5388.2990617716532142
 21
297.1570629622597721
 31
0.0
  0
LINE
  5
EB8B
  8
0
 10
5388.8667688006526078
 20
297.1570605239597853
 30
0.0
 11
5389.5521186925516304
 21
297.1570575804598775
 31
0.0
  0
LINE
  5
EB8C
  8
0
 10
5392.8473942831542445
 20
297.1701631843599216
 30
0.0
 11
5392.2804651492524499
 21
297.1701631843599216
 31
0.0
  0
LINE
  5
EB8D
  8
0
 10
5362.8674811855526059
 20
297.2091714716597721
 30
0.0
 11
5362.9166748653533432
 21
297.2091714716597721
 31
0.0
  0
LINE
  5
EB8E
  8
0
 10
5391.8355832594534149
 20
297.2292183024599126
 30
0.0
 11
5394.3946383775528375
 21
297.2292183024599126
 31
0.0
  0
LINE
  5
EB8F
  8
0
 10
5362.9124761447528726
 20
297.2487722321599222
 30
0.0
 11
5362.7844021571527264
 21
297.2487722321599222
 31
0.0
  0
LINE
  5
EB90
  8
0
 10
5391.8158982201530307
 20
297.3079584599598775
 30
0.0
 11
5394.4143234169532661
 21
297.3079584599598775
 31
0.0
  0
LINE
  5
EB91
  8
0
 10
5362.2011920180530069
 20
297.3405328628599023
 30
0.0
 11
5362.6729543100527735
 21
297.3405328628599023
 31
0.0
  0
LINE
  5
EB92
  8
0
 10
5396.491036509452897
 20
297.361108066259817
 30
0.0
 11
5396.5720945607517933
 21
297.361108066259817
 31
0.0
  0
LINE
  5
EB93
  8
0
 10
5362.2482492421531788
 20
297.3956509731597748
 30
0.0
 11
5362.6254850062541664
 21
297.3956509731597748
 31
0.0
  0
LINE
  5
EB94
  8
0
 10
5362.317866724052692
 20
297.3965411370598986
 30
0.0
 11
5362.2498592502515748
 21
297.3965411370598986
 31
0.0
  0
LINE
  5
EB95
  8
0
 10
5362.5549773604534494
 20
297.4350210518597919
 30
0.0
 11
5362.3187568880530307
 21
297.4350210518597919
 31
0.0
  0
LINE
  5
EB96
  8
0
 10
5395.4993588834531693
 20
297.4752812945599203
 30
0.0
 11
5396.2228716156532755
 21
297.4752812945599203
 31
0.0
  0
LINE
  5
EB97
  8
0
 10
5392.2516541256527489
 20
297.4911700040598816
 30
0.0
 11
5394.3946383775528375
 21
297.4911700040598816
 31
0.0
  0
LINE
  5
EB98
  8
0
 10
5391.2253470390533039
 20
296.1740402149599163
 30
0.0
 11
5390.7529056093526378
 21
296.1741001922598002
 31
0.0
  0
LINE
  5
EB99
  8
0
 10
5389.871190011453109
 20
296.1620767420598099
 30
0.0
 11
5390.3429871117532457
 21
296.1374109633599119
 31
0.0
  0
LINE
  5
EB9A
  8
0
 10
5386.7532853157827049
 20
296.8355175150597915
 30
0.0
 11
5390.3696402491532353
 21
296.6459923843598858
 31
0.0
  0
LINE
  5
EB9B
  8
0
 10
5388.1557211509516492
 20
296.8355175150597915
 30
0.0
 11
5390.373481594153418
 21
296.7192896152599246
 31
0.0
  0
LINE
  5
EB9C
  8
0
 10
5390.4379454642530618
 20
296.787214756659921
 30
0.0
 11
5390.0236127490370563
 21
296.8089295296305181
 31
0.0
  0
LINE
  5
EB9D
  8
0
 10
5390.20649687695186
 20
296.8387685712598909
 30
0.0
 11
5390.3776782099903357
 21
296.8297981820624045
 31
0.0
  0
LINE
  5
EB9E
  8
0
 10
5390.0404859993532227
 20
296.8474688326597857
 30
0.0
 11
5390.1899365777517232
 21
296.8396364597597881
 31
0.0
  0
LINE
  5
EB9F
  8
0
 10
5362.9865609031530767
 20
321.3063229156530269
 30
0.0
 11
5362.9865609031530767
 21
312.3784467607566171
 31
0.0
  0
LINE
  5
EBA0
  8
0
 10
5362.9865609031530767
 20
310.759304921558396
 30
0.0
 11
5362.9865609031530767
 21
301.7485319847526171
 31
0.0
  0
LINE
  5
EBA1
  8
0
 10
5362.9865609031530767
 20
300.1292323585598751
 30
0.0
 11
5362.9865609031530767
 21
298.2421076660597805
 31
0.0
  0
LINE
  5
EBA2
  8
0
 10
5363.0009375901527164
 20
297.203393325259924
 30
0.0
 11
5363.0009375901527164
 21
297.1936466925598097
 31
0.0
  0
LINE
  5
EBA3
  8
0
 10
5363.0009375901527164
 20
296.7923489673598283
 30
0.0
 11
5363.0009375901527164
 21
296.7826023347598721
 31
0.0
  0
LINE
  5
EBA4
  8
0
 10
5363.0175757856532073
 20
296.7446440785598725
 30
0.0
 11
5363.0175757856532073
 21
296.1563836567597718
 31
0.0
  0
LINE
  5
EBA5
  8
0
 10
5363.6859769602524466
 20
297.5427002556597813
 30
0.0
 11
5363.6859769602524466
 21
297.1504781449597772
 31
0.0
  0
LINE
  5
EBA6
  8
0
 10
5363.6859769602524466
 20
296.8355175150597915
 30
0.0
 11
5363.6859769602524466
 21
296.7903912705597804
 31
0.0
  0
LINE
  5
EBA7
  8
0
 10
5363.6859769602524466
 20
297.542691608959899
 30
0.0
 11
5365.5732589314193319
 21
297.542691608959899
 31
0.0
  0
LINE
  5
EBA8
  8
0
 10
5367.1924007705356416
 20
297.542691608959899
 30
0.0
 11
5376.2031737074230477
 21
297.542691608959899
 31
0.0
  0
LINE
  5
EBA9
  8
0
 10
5377.822315546540267
 20
297.542691608959899
 30
0.0
 11
5386.7501922098517753
 21
297.542691608959899
 31
0.0
  0
LINE
  5
EBAA
  8
0
 10
5389.5521186925516304
 20
297.542691608959899
 30
0.0
 11
5388.6941293946529186
 21
297.5427012219598737
 31
0.0
  0
LINE
  5
EBAB
  8
0
 10
5362.2264716290710567
 20
297.5570682959598798
 30
0.0
 11
5362.2362182616534483
 21
297.5570682959598798
 31
0.0
  0
LINE
  5
EBAC
  8
0
 10
5362.6375159868530318
 20
297.5570682959598798
 30
0.0
 11
5362.6472626194363329
 21
297.5570682959598798
 31
0.0
  0
LINE
  5
EBAD
  8
0
 10
5361.600252951053335
 20
297.5737064914599159
 30
0.0
 11
5362.1884882558088066
 21
297.5737064914599159
 31
0.0
  0
LINE
  5
EBAE
  8
0
 10
5392.2607801098529308
 20
297.7292183024597989
 30
0.0
 11
5393.1820399523530796
 21
297.7292183024597989
 31
0.0
  0
LINE
  5
EBAF
  8
0
 10
5392.2489690862530551
 20
297.7410293260597882
 30
0.0
 11
5393.1938509760529996
 21
297.7410293260597882
 31
0.0
  0
LINE
  5
EBB0
  8
0
 10
5392.2489690862530551
 20
297.780399404759919
 30
0.0
 11
5393.1938509760529996
 21
297.780399404759919
 31
0.0
  0
LINE
  5
EBB1
  8
0
 10
5362.2342605641533737
 20
298.2421076660597805
 30
0.0
 11
5362.2793868092530829
 21
298.2421076660597805
 31
0.0
  0
LINE
  5
EBB2
  8
0
 10
5362.5943474391524433
 20
298.2421076660597805
 30
0.0
 11
5362.9865609031530767
 21
298.2421076660597805
 31
0.0
  0
LINE
  5
EBB3
  8
0
 10
5388.8696509482533656
 20
297.2120551749599144
 30
0.0
 11
5388.3034987710516361
 21
297.2417259532599019
 31
0.0
  0
LINE
  5
EBB4
  8
0
 10
5387.6115349989531751
 20
297.277990237959898
 30
0.0
 11
5387.0453828217532646
 21
297.3076610162598854
 31
0.0
  0
LINE
  5
EBB5
  8
0
 10
5386.7614658268530548
 20
297.3816766376597798
 30
0.0
 11
5389.3170138488521843
 21
297.2477460409597825
 31
0.0
  0
LINE
  5
EBB6
  8
0
 10
5386.7459287066531033
 20
297.4613391198598151
 30
0.0
 11
5389.3407928520528003
 21
297.3253480524599013
 31
0.0
  0
LINE
  5
EBB7
  8
0
 10
5386.7751753196525897
 20
297.6432693435597798
 30
0.0
 11
5388.9152226861524468
 21
297.5311142135598175
 31
0.0
  0
LINE
  5
EBB8
  8
0
 10
5395.4371093231466148
 20
296.5011310390285075
 30
0.0
 11
5395.2365780230602468
 21
296.567974805790584
 31
0.0
  0
LINE
  5
EBB9
  8
0
 10
5362.5963175599426904
 20
297.7084978424787209
 30
0.0
 11
5362.6137333246533672
 21
297.7814777447599113
 31
0.0
  0
LINE
  5
EBBA
  8
0
 10
5362.622879925424968
 20
297.7350144189476282
 30
0.0
 11
5362.6153823677559558
 21
297.7036065883701781
 31
0.0
  0
LINE
  5
EBBB
  8
0
 10
5363.2253470390542134
 20
297.169864030359804
 30
0.0
 11
5363.1520465925532335
 21
297.1523660271598146
 31
0.0
  0
LINE
  5
EBBC
  8
0
 10
5363.1474758826516336
 20
297.1715130735598791
 30
0.0
 11
5363.1788837132526169
 21
297.1790106311598265
 31
0.0
  0
LINE
  5
EBBD
  8
0
 10
5396.2851211757515557
 20
297.465179581659811
 30
0.0
 11
5396.4856524829529008
 21
297.3983358125598215
 31
0.0
  0
LINE
  5
EBBE
  8
0
 10
5404.1511900462528502
 20
305.1788122198598785
 30
0.0
 11
5404.1344867364532547
 21
305.1788122198598785
 31
0.0
  0
LINE
  5
EBBF
  8
0
 10
5390.3788903460517759
 20
296.8552025543597779
 30
0.0
 11
5390.3592053067532106
 21
296.8748875937599223
 31
0.0
  0
LINE
  5
EBC0
  8
0
 10
5390.2225563510519351
 20
297.1048641414599274
 30
0.0
 11
5390.1907683694516891
 21
297.1366521230597755
 31
0.0
  0
LINE
  5
EBC1
  8
0
 10
5390.3592053067532106
 20
297.1504781449597772
 30
0.0
 11
5390.3985753854540235
 21
297.1111080662598738
 31
0.0
  0
LINE
  5
EBC2
  8
0
 10
5390.792276172853235
 20
296.8355175150597915
 30
0.0
 11
5390.7529060941533317
 21
296.8748875937599223
 31
0.0
  0
LINE
  5
EBC3
  8
0
 10
5390.7725911334528064
 20
297.130793105559917
 30
0.0
 11
5390.792276172853235
 21
297.1111080662598738
 31
0.0
  0
LINE
  5
EBC4
  8
0
 10
5362.3187568880530307
 20
297.4350210518597919
 30
0.0
 11
5362.2990718486526021
 21
297.4153360124598748
 31
0.0
  0
LINE
  5
EBC5
  8
0
 10
5362.5943474391524433
 20
297.4350210518597919
 30
0.0
 11
5362.5549773604534494
 21
297.3956509730597872
 31
0.0
  0
LINE
  5
EBC6
  8
0
 10
5362.1966841967532673
 20
296.9699579295598255
 30
0.0
 11
5362.4619220890526776
 21
297.2351958219599055
 31
0.0
  0
LINE
  5
EBC7
  8
0
 10
5362.4730576287529402
 20
297.2240602820597815
 30
0.0
 11
5362.2002369022029598
 21
296.9512395555099147
 31
0.0
  0
LINE
  5
EBC8
  8
0
 10
5362.2893212211529317
 20
296.8732907764597826
 30
0.0
 11
5362.5621419477038216
 21
297.1461115031111149
 31
0.0
  0
LINE
  5
EBC9
  8
0
 10
5362.5871969123527379
 20
297.1711664677599174
 30
0.0
 11
5362.6691871106531835
 21
297.2531566660599083
 31
0.0
  0
LINE
  5
EBCA
  8
0
 10
5362.3004567609532387
 20
296.8565874667597768
 30
0.0
 11
5362.6831065354517705
 21
297.2392372412599002
 31
0.0
  0
LINE
  5
EBCB
  8
0
 10
5362.6831065354517705
 20
297.2392372412599002
 30
0.0
 11
5362.3004567609532387
 21
296.8565874667597768
 31
0.0
  0
LINE
  5
EBCC
  8
0
 10
5362.6970259602530859
 20
297.2253178163597909
 30
0.0
 11
5362.6150357619526403
 21
297.1433276180599137
 31
0.0
  0
LINE
  5
EBCD
  8
0
 10
5362.5899807973546558
 20
297.1182726534614744
 30
0.0
 11
5362.3171600706518802
 21
296.8454519268598801
 31
0.0
  0
LINE
  5
EBCE
  8
0
 10
5362.3951088498542958
 20
296.7563676079602146
 30
0.0
 11
5362.6679295762542097
 21
297.0291883345598762
 31
0.0
  0
LINE
  5
EBCF
  8
0
 10
5362.6790651162527865
 20
297.0180527947599103
 30
0.0
 11
5362.4138272237532874
 21
296.7528149024598179
 31
0.0
  0
LINE
  5
EBD0
  8
0
 10
5362.839520267352782
 20
297.1111080662598738
 30
0.0
 11
5362.8788903460526853
 21
297.1504781449597772
 31
0.0
  0
LINE
  5
EBD1
  8
0
 10
5390.2069571927531797
 20
297.1383465655598002
 30
0.0
 11
5390.2225563510519351
 21
297.1048641414599274
 31
0.0
  0
LINE
  5
EBD2
  8
0
 10
5362.8592053067541201
 20
296.8552025543597779
 30
0.0
 11
5362.8788903460526853
 21
296.8748875937599223
 31
0.0
  0
LINE
  5
EBD3
  8
0
 10
5386.7459287066531033
 20
297.4613391198598151
 30
0.0
 11
5386.7544870226529383
 21
297.6246415172598745
 31
0.0
  0
LINE
  5
EBD4
  8
0
 10
5386.7614658268530548
 20
297.3816766376597798
 30
0.0
 11
5386.765586768351568
 21
297.4603088844597778
 31
0.0
  0
LINE
  5
EBD5
  8
0
 10
5386.804902891753045
 20
297.4582484137599181
 30
0.0
 11
5386.8007819502527127
 21
297.3796161669599201
 31
0.0
  0
LINE
  5
EBD6
  8
0
 10
5387.0453828217532646
 20
297.3076610162598854
 30
0.0
 11
5387.0371452165518349
 21
297.1504781449597772
 31
0.0
  0
LINE
  5
EBD7
  8
0
 10
5387.2136012461533028
 20
297.3579812243598894
 30
0.0
 11
5387.2105105400542016
 21
297.2990070392597772
 31
0.0
  0
LINE
  5
EBD8
  8
0
 10
5387.4494979866531139
 20
297.3456184000597773
 30
0.0
 11
5387.4464072805531032
 21
297.2866442149597788
 31
0.0
  0
LINE
  5
EBD9
  8
0
 10
5387.6115349989531751
 20
297.277990237959898
 30
0.0
 11
5387.6048523732533795
 21
297.1504781449597772
 31
0.0
  0
LINE
  5
EBDA
  8
0
 10
5404.5645969635515939
 20
304.0415952115599225
 30
0.0
 11
5403.8519224124529501
 21
304.7542697626598738
 31
0.0
  0
LINE
  5
EBDB
  8
0
 10
5389.5521186925516304
 20
296.7903907483599255
 30
0.0
 11
5389.5521186925516304
 21
296.8355175150597915
 31
0.0
  0
LINE
  5
EBDC
  8
0
 10
5389.5521186925516304
 20
297.1504781449597772
 30
0.0
 11
5389.5521186925516304
 21
297.542691608959899
 31
0.0
  0
LINE
  5
EBDD
  8
0
 10
5389.6505438894528197
 20
296.1760296257597815
 30
0.0
 11
5389.6505438894528197
 21
296.1741001921599263
 31
0.0
  0
LINE
  5
EBDE
  8
0
 10
5390.3592053067532106
 20
296.8748875937599223
 30
0.0
 11
5390.3592053067532106
 21
297.1111080662598738
 31
0.0
  0
LINE
  5
EBDF
  8
0
 10
5390.3985753854503855
 20
296.8494460687030028
 30
0.0
 11
5390.3985724392587144
 21
297.1362092307927014
 31
0.0
  0
LINE
  5
EBE0
  8
0
 10
5390.4379454642530618
 20
297.1365497935598796
 30
0.0
 11
5390.4379454642530618
 21
296.8265848353598244
 31
0.0
  0
LINE
  5
EBE1
  8
0
 10
5390.7529060941533317
 20
296.1741001922598002
 30
0.0
 11
5390.7529060941533317
 21
296.7567773575598267
 31
0.0
  0
LINE
  5
EBE2
  8
0
 10
5390.7529060941533317
 20
296.8748875937599223
 30
0.0
 11
5390.7529060941533317
 21
297.1111080662598738
 31
0.0
  0
LINE
  5
EBE3
  8
0
 10
5390.792276172853235
 20
296.8748875937599223
 30
0.0
 11
5390.792276172853235
 21
297.1111080662598738
 31
0.0
  0
LINE
  5
EBE4
  8
0
 10
5390.8710163303530862
 20
296.8355175150597915
 30
0.0
 11
5390.8710163303530862
 21
296.8265848353598244
 31
0.0
  0
LINE
  5
EBE5
  8
0
 10
5390.8710163303530862
 20
296.787214756659921
 30
0.0
 11
5390.8710163303530862
 21
296.7567773575598267
 31
0.0
  0
LINE
  5
EBE6
  8
0
 10
5391.1072368027525954
 20
296.8265848353598244
 30
0.0
 11
5391.1072368027525954
 21
296.8068997960597812
 31
0.0
  0
LINE
  5
EBE7
  8
0
 10
5388.3034987710516361
 20
297.2417259532599019
 30
0.0
 11
5388.2987166760531181
 21
297.1504781449597772
 31
0.0
  0
LINE
  5
EBE8
  8
0
 10
5388.4717171954525838
 20
297.2920461613599059
 30
0.0
 11
5388.4686264893516636
 21
297.2330719762599074
 31
0.0
  0
LINE
  5
EBE9
  8
0
 10
5388.7076139359533045
 20
297.2796833370597938
 30
0.0
 11
5388.7045232298532937
 21
297.2207091519599089
 31
0.0
  0
LINE
  5
EBEA
  8
0
 10
5388.8696509482533656
 20
297.2120551749599144
 30
0.0
 11
5388.8664238328528882
 21
297.1504781449597772
 31
0.0
  0
LINE
  5
EBEB
  8
0
 10
5389.2529720768534389
 20
296.7780130306599062
 30
0.0
 11
5389.2559857591531909
 21
296.8355175150597915
 31
0.0
  0
LINE
  5
EBEC
  8
0
 10
5389.3211347903516071
 20
297.3263782877597805
 30
0.0
 11
5389.3170138488521843
 21
297.2477460409597825
 31
0.0
  0
LINE
  5
EBED
  8
0
 10
5389.295409867251692
 20
296.8355175150597915
 30
0.0
 11
5389.2922882002530969
 21
296.775952559959876
 31
0.0
  0
LINE
  5
EBEE
  8
0
 10
5389.3428689359516284
 20
297.3649620936599263
 30
0.0
 11
5389.3407928520528003
 21
297.3253480524599013
 31
0.0
  0
LINE
  5
EBEF
  8
0
 10
5403.9841569482532577
 20
305.0117791219598757
 30
0.0
 11
5404.0412265900531565
 21
304.9547094801599201
 31
0.0
  0
LINE
  5
EBF0
  8
0
 10
5404.1511900462528502
 20
305.1788122198598785
 30
0.0
 11
5404.2082596879527046
 21
305.1217425780599228
 31
0.0
  0
LINE
  5
EBF1
  8
0
 10
5391.8158982201530307
 20
297.3079584599598775
 30
0.0
 11
5391.8158982201530307
 21
297.3476268653599277
 31
0.0
  0
LINE
  5
EBF2
  8
0
 10
5391.8355832594534149
 20
297.2292183024599126
 30
0.0
 11
5391.8355832594534149
 21
297.3079584599598775
 31
0.0
  0
LINE
  5
EBF3
  8
0
 10
5392.1308588500542101
 20
297.6622891685598233
 30
0.0
 11
5392.1308588500542101
 21
297.4515477339597851
 31
0.0
  0
LINE
  5
EBF4
  8
0
 10
5392.1505438894528197
 20
297.1583521606597742
 30
0.0
 11
5392.1505438894528197
 21
297.221344286659928
 31
0.0
  0
LINE
  5
EBF5
  8
0
 10
5392.1702289287532039
 20
297.6622891685598233
 30
0.0
 11
5392.1702289287532039
 21
297.4735081236598262
 31
0.0
  0
LINE
  5
EBF6
  8
0
 10
5392.1820399523530796
 20
297.4784020695598201
 30
0.0
 11
5392.1820399523530796
 21
297.6504781449597772
 31
0.0
  0
LINE
  5
EBF7
  8
0
 10
5392.2804651492524499
 20
297.1701631843599216
 30
0.0
 11
5392.2804651492524499
 21
297.1504781449597772
 31
0.0
  0
LINE
  5
EBF8
  8
0
 10
5392.4458194799517514
 20
297.2292183024599126
 30
0.0
 11
5392.4458194799517514
 21
297.1701631843599216
 31
0.0
  0
LINE
  5
EBF9
  8
0
 10
5392.6820399523539891
 20
297.2292183024599126
 30
0.0
 11
5392.6820399523539891
 21
297.1701631843599216
 31
0.0
  0
LINE
  5
EBFA
  8
0
 10
5392.8473942831542445
 20
297.1701631843599216
 30
0.0
 11
5392.8473942831542445
 21
297.1504781449597772
 31
0.0
  0
LINE
  5
EBFB
  8
0
 10
5393.2607801098520213
 20
297.6504781449597772
 30
0.0
 11
5393.2607801098520213
 21
297.4911700040598816
 31
0.0
  0
LINE
  5
EBFC
  8
0
 10
5393.2725911334518969
 20
297.6622891685598233
 30
0.0
 11
5393.2725911334518969
 21
297.4911700040598816
 31
0.0
  0
LINE
  5
EBFD
  8
0
 10
5393.2922761728541445
 20
297.221344286659928
 30
0.0
 11
5393.2922761728541445
 21
297.1583521606597742
 31
0.0
  0
LINE
  5
EBFE
  8
0
 10
5393.3119612122527542
 20
297.6622891685598233
 30
0.0
 11
5393.3119612122527542
 21
297.4911700040598816
 31
0.0
  0
LINE
  5
EBFF
  8
0
 10
5393.4517249917516892
 20
297.2292183024599126
 30
0.0
 11
5393.4517249917516892
 21
297.1504781449597772
 31
0.0
  0
LINE
  5
EC00
  8
0
 10
5390.3429866275528184
 20
296.1374109887598252
 30
0.0
 11
5390.373481594153418
 21
296.7192896152599246
 31
0.0
  0
LINE
  5
EC01
  8
0
 10
5394.2745596374534216
 20
297.2292183024599126
 30
0.0
 11
5394.2745596374534216
 21
297.1504781449597772
 31
0.0
  0
LINE
  5
EC02
  8
0
 10
5394.3749533382524532
 20
296.8355175150597915
 30
0.0
 11
5394.3749533382524532
 21
296.7567773575598267
 31
0.0
  0
LINE
  5
EC03
  8
0
 10
5394.3946383775528375
 20
297.3079584599598775
 30
0.0
 11
5394.3946383775528375
 21
297.2292183024599126
 31
0.0
  0
LINE
  5
EC04
  8
0
 10
5394.4143234169532661
 20
297.4714849646597941
 30
0.0
 11
5394.4143234169532661
 21
297.3079584599598775
 31
0.0
  0
LINE
  5
EC05
  8
0
 10
5394.4143234169532661
 20
296.7567773575598267
 30
0.0
 11
5394.4143234169532661
 21
296.692357747259905
 31
0.0
  0
LINE
  5
EC06
  8
0
 10
5395.2311939897526827
 20
296.575444752959811
 30
0.0
 11
5395.2311939897526827
 21
297.3908658676597838
 31
0.0
  0
LINE
  5
EC07
  8
0
 10
5396.491036509452897
 20
297.3908658676597838
 30
0.0
 11
5396.491036509452897
 21
296.5754648154189113
 31
0.0
  0
LINE
  5
EC08
  8
0
 10
5390.2217245592528343
 20
296.8714244412598759
 30
0.0
 11
5390.20649687695186
 21
296.8387685712598909
 31
0.0
  0
LINE
  5
EC09
  8
0
 10
5390.3788903460517759
 20
297.130793105559917
 30
0.0
 11
5390.3592053067532106
 21
297.1111080662598738
 31
0.0
  0
LINE
  5
EC0A
  8
0
 10
5390.1899365777517232
 20
296.8396364597597881
 30
0.0
 11
5390.2217245592528343
 21
296.8714244412598759
 31
0.0
  0
LINE
  5
EC0B
  8
0
 10
5390.3985753854540235
 20
296.8748875937599223
 30
0.0
 11
5390.3592053067532106
 21
296.8355175150597915
 31
0.0
  0
LINE
  5
EC0C
  8
0
 10
5390.7529060941533317
 20
297.1111080662598738
 30
0.0
 11
5390.792276172853235
 21
297.1504781449597772
 31
0.0
  0
LINE
  5
EC0D
  8
0
 10
5403.9841569482532577
 20
305.0117791219598757
 30
0.0
 11
5403.9841569482532577
 21
305.0284824317598122
 31
0.0
  0
LINE
  5
EC0E
  8
0
 10
5390.7725911334528064
 20
296.8552025543597779
 30
0.0
 11
5390.792276172853235
 21
296.8748875937599223
 31
0.0
  0
LINE
  5
EC0F
  8
0
 10
5405.5166856216528686
 20
306.4111589558597757
 30
0.0
 11
5405.5166856216528686
 21
304.9858098543598999
 31
0.0
  0
LINE
  5
EC10
  8
0
 10
5404.1344867364532547
 20
305.1788122198598785
 30
0.0
 11
5403.9841569482532577
 21
305.0284824317598122
 31
0.0
  0
LINE
  5
EC11
  8
0
 10
5404.1511900462528502
 20
305.1788122198598785
 30
0.0
 11
5403.9841569482532577
 21
305.0117791219598757
 31
0.0
  0
LINE
  5
EC12
  8
0
 10
5403.8519224124529501
 20
304.7654053025598841
 30
0.0
 11
5405.503243836053116
 21
306.4167267261598226
 31
0.0
  0
LINE
  5
EC13
  8
0
 10
5396.7112888089532134
 20
297.4187642116597772
 30
0.0
 11
5403.9493583862531523
 21
304.656833788859899
 31
0.0
  0
LINE
  5
EC14
  8
0
 10
5395.236578025853305
 20
297.3983358157598786
 30
0.0
 11
5395.4371093233530701
 21
297.465179581659811
 31
0.0
  0
LINE
  5
EC15
  8
0
 10
5396.4855494986759368
 20
296.5679404800008001
 30
0.0
 11
5396.2851211759589205
 21
296.5011310390285075
 31
0.0
  0
LINE
  5
EC16
  8
0
 10
5404.4782965296526527
 20
304.1278956454597733
 30
0.0
 11
5397.0787897451527897
 21
296.7283888610597842
 31
0.0
  0
LINE
  5
EC17
  8
0
 10
5405.514379375851604
 20
304.9802420840597961
 30
0.0
 11
5404.5757325034519454
 21
304.0415952115599225
 31
0.0
  0
ARC
  5
EC18
  8
0
 10
5360.6275304961518486
 20
297.3645154548598839
 30
0.0
 40
2.0294972843000001
 50
11.8559026785031296
 51
14.2027483242546797
  0
ARC
  5
EC19
  8
0
 10
5360.7046301695527291
 20
297.3815267171598862
 30
0.0
 40
1.9899176125
 50
2.5081027902006481
 51
14.2730429089053796
  0
ARC
  5
EC1A
  8
0
 10
5360.7046301695527291
 20
297.3815267171598862
 30
0.0
 40
1.9505475337
 50
2.6822231618277268
 51
5.1633800105085843
  0
ARC
  5
EC1B
  8
0
 10
5360.7046301695527291
 20
297.3815267171598862
 30
0.0
 40
1.9505475337
 50
6.0473370071185224
 51
10.44111250409901
  0
ARC
  5
EC1C
  8
0
 10
5361.1180103345532189
 20
297.3638045128598151
 30
0.0
 40
1.5748031495999999
 50
355.9199138448013855
 51
359.1532809284004202
  0
ARC
  5
EC1D
  8
0
 10
5361.1180103345532189
 20
297.3638045128598151
 30
0.0
 40
1.5551181102
 50
355.9199138460980976
 51
359.142562170200506
  0
ARC
  5
EC1E
  8
0
 10
5362.8083847490534026
 20
295.1836612019599215
 30
0.0
 40
2.0294972843000001
 50
75.7299676453931596
 51
78.1440973215045744
  0
ARC
  5
EC1F
  8
0
 10
5362.8253960113515859
 20
295.2607608753598925
 30
0.0
 40
1.9899176125
 50
75.7269570907202336
 51
87.4918972096906771
  0
ARC
  5
EC20
  8
0
 10
5362.8253960113515859
 20
295.2607608753598925
 30
0.0
 40
1.9505475337
 50
79.5588874918159945
 51
83.9507581666977671
  0
ARC
  5
EC21
  8
0
 10
5362.8253960113515859
 20
295.2607608753598925
 30
0.0
 40
1.9505475337
 50
84.8366199886887813
 51
87.3177768193080226
  0
ARC
  5
EC22
  8
0
 10
5362.8076738071540603
 20
295.6741410402598831
 30
0.0
 40
1.5748031495999999
 50
90.8467190714756185
 51
94.0800861549783178
  0
ARC
  5
EC23
  8
0
 10
5362.8076738071540603
 20
295.6741410402598831
 30
0.0
 40
1.5551181102
 50
90.8574378298254999
 51
94.0800861538812541
  0
ARC
  5
EC24
  8
0
 10
5362.4467096439529996
 20
297.0028403496597775
 30
0.0
 40
0.3937007874
 50
54.9780688945858813
 51
59.0636561298966569
  0
ARC
  5
EC25
  8
0
 10
5362.4467096439529996
 20
297.0028403496597775
 30
0.0
 40
0.3937007874
 50
38.5445851919077782
 51
51.4554180697104329
  0
ARC
  5
EC26
  8
0
 10
5362.4467096439529996
 20
297.0028403496597775
 30
0.0
 40
0.3937007874
 50
30.9021952335064611
 51
35.0374975342996891
  0
ARC
  5
EC27
  8
0
 10
5362.545134840753235
 20
297.1012655465597732
 30
0.0
 40
0.187007874
 50
51.0440736514128091
 51
169.7535332876960013
  0
ARC
  5
EC28
  8
0
 10
5362.545134840753235
 20
297.1012655465597732
 30
0.0
 40
0.187007874
 50
177.4840863414997898
 51
218.9551659592887063
  0
ARC
  5
EC29
  8
0
 10
5362.545134840753235
 20
297.1012655465597732
 30
0.0
 40
0.187007874
 50
231.0440736378095892
 51
272.5006927695757781
  0
ARC
  5
EC2A
  8
0
 10
5362.545134840753235
 20
297.1012655465597732
 30
0.0
 40
0.187007874
 50
280.2541658814894276
 51
38.9551659451941603
  0
ARC
  5
EC2B
  8
0
 10
5362.545134840753235
 20
297.1012655465597732
 30
0.0
 40
0.0787401575
 50
4.1490612843003181
 51
30.3351528649906115
  0
ARC
  5
EC2C
  8
0
 10
5362.545134840753235
 20
297.1012655465597732
 30
0.0
 40
0.0787401575
 50
59.8515234754079017
 51
85.871909783500854
  0
ARC
  5
EC2D
  8
0
 10
5362.545134840753235
 20
297.1012655465597732
 30
0.0
 40
0.0787401575
 50
102.3527640783077999
 51
210.518971574391486
  0
ARC
  5
EC2E
  8
0
 10
5362.545134840753235
 20
297.1012655465597732
 30
0.0
 40
0.0787401575
 50
239.4826859429861088
 51
347.6391178135979203
  0
ARC
  5
EC2F
  8
0
 10
5362.6623618064531911
 20
297.0347561045599036
 30
0.0
 40
0.0236220472
 50
315.0000000124820758
 51
45.0000000144165782
  0
ARC
  5
EC30
  8
0
 10
5362.4786253988531826
 20
297.2184925121599122
 30
0.0
 40
0.0236220472
 50
44.9999999823892125
 51
134.9999999849869141
  0
ARC
  5
EC31
  8
0
 10
5362.3143761857527352
 20
296.8426680418597812
 30
0.0
 40
0.0196850394
 50
134.999999935215186
 51
224.9999999392823042
  0
ARC
  5
EC32
  8
0
 10
5362.6289551868530907
 20
297.1294081932597919
 30
0.0
 40
0.0196850394
 50
134.9999999933880872
 51
224.9999999958822912
  0
ARC
  5
EC33
  8
0
 10
5362.2865373361528327
 20
296.8705068915597849
 30
0.0
 40
0.0196850394
 50
225.0000000537926894
 51
315.0000000568142013
  0
ARC
  5
EC34
  8
0
 10
5362.5732774875532414
 20
297.1850858925598118
 30
0.0
 40
0.0196850394
 50
225.0000000053842939
 51
315.0000000055179044
  0
ARC
  5
EC35
  8
0
 10
5362.6623618063540562
 20
297.0347561044599161
 30
0.0
 40
0.0078740157
 50
314.9999999803164883
 51
44.9999999481049286
  0
ARC
  5
EC36
  8
0
 10
5362.3227278405520337
 20
296.8398841569597835
 30
0.0
 40
0.0078740157
 50
134.9999999946155924
 51
225.0000000112823102
  0
ARC
  5
EC37
  8
0
 10
5362.2837534512527782
 20
296.8788585463598793
 30
0.0
 40
0.0078740157
 50
224.9999999795012968
 51
315.0000000047994035
  0
ARC
  5
EC38
  8
0
 10
5362.4786253987531381
 20
297.2184925121599122
 30
0.0
 40
0.0078740157
 50
45.0000000573116523
 51
135.0000000145132901
  0
ARC
  5
EC39
  8
0
 10
5362.5876007141532682
 20
297.7015994590598211
 30
0.0
 40
0.9842519684999999
 50
258.5541279584176095
 51
281.5340507407900077
  0
ARC
  5
EC3A
  8
0
 10
5362.5876007141532682
 20
297.7015994590598211
 30
0.0
 40
0.9645669290999999
 50
259.6210948867230854
 51
281.7727737891174797
  0
ARC
  5
EC3B
  8
0
 10
5362.2482492421531788
 20
297.4232100282598026
 30
0.0
 40
0.0275590551
 50
179.113925857837387
 51
270.0000000010942927
  0
ARC
  5
EC3C
  8
0
 10
5362.6254850062541664
 20
297.4232100282598026
 30
0.0
 40
0.0275590551
 50
270.0
 51
0.8860606958607228
  0
ARC
  5
EC3D
  8
0
 10
5362.6691871106531835
 20
297.2531566660599083
 30
0.0
 40
0.0196850394
 50
315.0000000568142013
 51
355.9199137785980156
  0
ARC
  5
EC3E
  8
0
 10
5362.2362182616534483
 20
297.5728163274598046
 30
0.0
 40
0.0157480315
 50
270.0
 51
115.6113029900458002
  0
ARC
  5
EC3F
  8
0
 10
5362.6375159868530318
 20
297.5728163274598046
 30
0.0
 40
0.0157480315
 50
64.3886970099541145
 51
270.0
  0
ARC
  5
EC40
  8
0
 10
5362.2679306408217599
 20
297.7059003022167758
 30
0.0
 40
0.0098496264610075
 50
192.4005002942822955
 51
9.6655923000984671
  0
ARC
  5
EC41
  8
0
 10
5362.605808844551575
 20
297.7058919433599158
 30
0.0
 40
0.0098425197
 50
164.6473461436561934
 51
346.5738376906361964
  0
ARC
  5
EC42
  8
0
 10
5363.1454687533532706
 20
297.14373141995992
 30
0.0
 40
0.9842519684999999
 50
168.4659492591977994
 51
191.4458720416027973
  0
ARC
  5
EC43
  8
0
 10
5363.1454687533532706
 20
297.14373141995992
 30
0.0
 40
0.9645669290999999
 50
168.2272262108000973
 51
190.3789051133028067
  0
ARC
  5
EC44
  8
0
 10
5362.8670793224528097
 20
297.1816157120599087
 30
0.0
 40
0.0275590551
 50
89.1694103467897463
 51
179.9999999941994133
  0
ARC
  5
EC45
  8
0
 10
5362.8670793224528097
 20
296.8043799479597737
 30
0.0
 40
0.0275590551
 50
179.9999999981012024
 51
270.734395755779417
  0
ARC
  5
EC46
  8
0
 10
5362.6970259602530859
 20
297.2253178163597909
 30
0.0
 40
0.0196850394
 50
94.0800862042955117
 51
134.9999999599974103
  0
ARC
  5
EC47
  8
0
 10
5363.0166856216528686
 20
297.1936466925598097
 30
0.0
 40
0.0157480315
 50
180.0000000021983908
 51
25.5141022418063805
  0
ARC
  5
EC48
  8
0
 10
5363.0166856216528686
 20
296.7923489673598283
 30
0.0
 40
0.0157480315
 50
334.3886970100513167
 51
180.0
  0
ARC
  5
EC49
  8
0
 10
5363.1497612375533208
 20
297.1619395503598753
 30
0.0
 40
0.0098425197
 50
103.4261622803042968
 51
283.4261622903778175
  0
ARC
  5
EC4A
  8
0
 10
5363.1497644744940771
 20
296.8240581720082787
 30
0.0
 40
0.0098452776382906
 50
79.4489791981617657
 51
256.558301574048528
  0
ARC
  5
EC4B
  8
0
 10
5362.8083847490534026
 20
298.8023344580598177
 30
0.0
 40
2.0294972843000001
 50
281.8559026786014101
 51
284.2699710221061764
  0
ARC
  5
EC4C
  8
0
 10
5362.8253960113515859
 20
298.72523478465979
 30
0.0
 40
1.9899176125
 50
272.508102790883072
 51
284.2730429089020845
  0
ARC
  5
EC4D
  8
0
 10
5362.8253960113515859
 20
298.72523478465979
 30
0.0
 40
1.9505475337
 50
272.6822231811094071
 51
275.1633800114158817
  0
ARC
  5
EC4E
  8
0
 10
5362.8253960113515859
 20
298.72523478465979
 30
0.0
 40
1.9505475337
 50
276.0473370071446766
 51
280.4411125082900753
  0
ARC
  5
EC4F
  8
0
 10
5362.2598785884529207
 20
297.8680919179598732
 30
0.0
 40
0.0196850394
 50
348.1711846887881734
 51
163.2339019778488876
  0
ARC
  5
EC50
  8
0
 10
5362.6138556600526499
 20
297.8680919179598732
 30
0.0
 40
0.0196850394
 50
11.8288142197213606
 51
196.623170456319599
  0
ARC
  5
EC51
  8
0
 10
5364.2462037523528124
 20
297.3645154548598839
 30
0.0
 40
2.0294972843000001
 50
165.7507625567041885
 51
168.1440973246023987
  0
ARC
  5
EC52
  8
0
 10
5364.1691040789528415
 20
297.3815267171598862
 30
0.0
 40
1.9899176125
 50
165.678130667045707
 51
177.4918971848667013
  0
ARC
  5
EC53
  8
0
 10
5364.1691040789528415
 20
297.3815267171598862
 30
0.0
 40
1.9505475337
 50
169.55888749590099
 51
173.9526629928814998
  0
ARC
  5
EC54
  8
0
 10
5364.1691040789528415
 20
297.3815267171598862
 30
0.0
 40
1.9505475337
 50
174.8366199894913962
 51
177.31777683816901
  0
ARC
  5
EC55
  8
0
 10
5363.3119612122527542
 20
297.1699863657598257
 30
0.0
 40
0.0196850394
 50
261.2576483896110062
 51
78.1711859829067635
  0
ARC
  5
EC56
  8
0
 10
5363.3119347926476621
 20
296.8160270760603794
 30
0.0
 40
0.0197078719204897
 50
281.8933942299186128
 51
99.6304936979574052
  0
ARC
  5
EC57
  8
0
 10
5386.7333687163518334
 20
296.8455518312599111
 30
0.0
 40
0.0196850394
 50
210.6907847698120975
 51
249.1103262818803046
  0
ARC
  5
EC58
  8
0
 10
5386.774145084353222
 20
297.623611281859894
 30
0.0
 40
0.0196850394
 50
86.9999999999944151
 51
177.0000000000003979
  0
ARC
  5
EC59
  8
0
 10
5389.6505438894528197
 20
296.4654387748598197
 30
0.0
 40
0.2913385827
 50
257.7598790014070005
 51
270.000000000208388
  0
ARC
  5
EC5A
  8
0
 10
5393.1938509760529996
 20
296.4024466488598932
 30
0.0
 40
0.1181102362
 50
269.999999999895806
 51
352.2052381571888873
  0
ARC
  5
EC5B
  8
0
 10
5390.3788903460517759
 20
296.8494458664599165
 30
0.0
 40
0.0196850394
 50
266.4696923915200273
 51
0.0005886540494627
  0
ARC
  5
EC5C
  8
0
 10
5390.0246266911526618
 20
296.835807652759911
 30
0.0
 40
0.0196850394
 50
36.3266475520105701
 51
189.5586116996086901
  0
ARC
  5
EC5D
  8
0
 10
5390.0245007855528456
 20
296.8285945281597833
 30
0.0
 40
0.0196850394
 50
168.4413876372192931
 51
267.4143806753867807
  0
ARC
  5
EC5E
  8
0
 10
5394.3946383775528375
 20
296.692357747259905
 30
0.0
 40
0.0196850394
 50
287.8896737415215057
 51
359.999999996000497
  0
ARC
  5
EC5F
  8
0
 10
5390.9103864090529896
 20
297.7813092448598127
 30
0.0
 40
0.9940944881999998
 50
270.000000000208388
 51
281.4211862749925217
  0
ARC
  5
EC60
  8
0
 10
5391.8158982201530307
 20
297.9969348378598966
 30
0.0
 40
0.6299212598000001
 50
271.7365015758841764
 51
301.8068326156940202
  0
ARC
  5
EC61
  8
0
 10
5389.3768510896534281
 20
298.013380212159916
 30
0.0
 40
0.6299212598000001
 50
235.1931673842861983
 51
265.2634984248900878
  0
ARC
  5
EC62
  8
0
 10
5392.2516541256527489
 20
297.2943196103598211
 30
0.0
 40
0.1968503937
 50
89.9999999986972483
 51
121.8068326183927041
  0
ARC
  5
EC63
  8
0
 10
5388.904920332652182
 20
297.3345335964598917
 30
0.0
 40
0.1968503937
 50
55.193167381609797
 51
87.0000000012989432
  0
ARC
  5
EC64
  8
0
 10
5392.2489690862530551
 20
297.6622891685598233
 30
0.0
 40
0.1181102362
 50
90.0
 51
180.0
  0
ARC
  5
EC65
  8
0
 10
5393.1938509760529996
 20
297.6622891685598233
 30
0.0
 40
0.1181102362
 50
0.0
 51
90.0
  0
ARC
  5
EC66
  8
0
 10
5392.7214100311530274
 20
297.5441789323597845
 30
0.0
 40
0.0826771654
 50
320.0675800762144263
 51
219.9286646768968012
  0
ARC
  5
EC67
  8
0
 10
5393.1820399523530796
 20
297.6504781449597772
 30
0.0
 40
0.0787401575
 50
0.0
 51
90.0
  0
ARC
  5
EC68
  8
0
 10
5392.2607801098529308
 20
297.6504781449597772
 30
0.0
 40
0.0787401575
 50
89.9999999983845811
 51
180.0
  0
ARC
  5
EC69
  8
0
 10
5393.1938509760529996
 20
297.6622891685598233
 30
0.0
 40
0.0787401575
 50
0.0
 51
90.0
  0
ARC
  5
EC6A
  8
0
 10
5392.2489690862530551
 20
297.6622891685598233
 30
0.0
 40
0.0787401575
 50
90.0
 51
180.0
  0
ARC
  5
EC6B
  8
0
 10
5390.3788903460517759
 20
297.1365497935598796
 30
0.0
 40
0.0590551181
 50
0.0
 51
95.9752451882758777
  0
ARC
  5
EC6C
  8
0
 10
5391.8355832594534149
 20
297.3476268653599277
 30
0.0
 40
0.0196850394
 50
91.7365015772918042
 51
180.0
  0
ARC
  5
EC6D
  8
0
 10
5394.3946383775528375
 20
297.4714849646597941
 30
0.0
 40
0.0196850394
 50
0.0
 51
90.0
  0
ARC
  5
EC6E
  8
0
 10
5390.0245007855528456
 20
297.1390418955597852
 30
0.0
 40
0.0196850394
 50
95.9752451869134688
 51
187.5586118228542887
  0
ARC
  5
EC6F
  8
0
 10
5390.0241232222533654
 20
297.131837559059818
 30
0.0
 40
0.0196850394
 50
166.4413878147481114
 51
326.3320476654039908
  0
ARC
  5
EC70
  8
0
 10
5390.3788903460517759
 20
297.1365497935598796
 30
0.0
 40
0.0196850394
 50
359.0086998377119016
 51
95.9752451920484617
  0
ARC
  5
EC71
  8
0
 10
5389.3232108742531636
 20
297.3659923290599068
 30
0.0
 40
0.0196850394
 50
357.0000000000003979
 51
85.2634983964972264
  0
ARC
  5
EC72
  8
0
 10
5393.2844021571527264
 20
297.221344286659928
 30
0.0
 40
0.0078740157
 50
0.0
 51
89.9999999994789022
  0
ARC
  5
EC73
  8
0
 10
5392.1584179051542378
 20
297.221344286659928
 30
0.0
 40
0.0078740157
 50
90.0000000005210836
 51
180.0
  0
ARC
  5
EC74
  8
0
 10
5392.1584179051542378
 20
297.1583521606597742
 30
0.0
 40
0.0078740157
 50
180.0
 51
269.9999999994789164
  0
ARC
  5
EC75
  8
0
 10
5393.2844021571527264
 20
297.1583521606597742
 30
0.0
 40
0.0078740157
 50
270.0000000005210836
 51
0.0
  0
ARC
  5
EC76
  8
0
 10
5390.4106475311527902
 20
306.4806033356599073
 30
0.0
 40
10.3326185199000005
 50
249.1103262794825923
 51
267.0072738018017162
  0
ARC
  5
EC77
  8
0
 10
5391.2266587834528764
 20
306.5066586275598866
 30
0.0
 40
10.3326184959000003
 50
269.992726198173898
 51
287.8896737414132758
  0
ARC
  5
EC78
  8
0
 10
5396.800401248651724
 20
297.0067773575598267
 30
0.0
 40
0.3937007874
 50
270.0
 51
315.0000000000046043
  0
ARC
  5
EC79
  8
0
 10
5396.2228716156532755
 20
296.6878797197597919
 30
0.0
 40
0.1968503937
 50
270.0
 51
288.4349488400537211
  0
ARC
  5
EC7A
  8
0
 10
5395.4993588834531693
 20
296.6878797197597919
 30
0.0
 40
0.1968503937
 50
251.5650511599463073
 51
270.0
  0
ARC
  5
EC7B
  8
0
 10
5396.2228716156532755
 20
297.2784309008599166
 30
0.0
 40
0.1968503937
 50
71.5650514679908127
 51
90.0
  0
ARC
  5
EC7C
  8
0
 10
5395.4993588834531693
 20
297.2784309008599166
 30
0.0
 40
0.1968503937
 50
90.0
 51
108.4349485360176004
  0
ARC
  5
EC7D
  8
0
 10
5396.483162493654163
 20
297.3908658676597838
 30
0.0
 40
0.0078740157
 50
0.0
 51
71.5648434128082869
  0
ARC
  5
EC7E
  8
0
 10
5395.2390680054531913
 20
296.5754447529599247
 30
0.0
 40
0.0078740157
 50
180.0
 51
251.5650511599494052
  0
ARC
  5
EC7F
  8
0
 10
5396.4831625213519146
 20
296.5754439766599262
 30
0.0
 40
0.0078740157
 50
287.6466649257358767
 51
0.1516347425214948
  0
ARC
  5
EC80
  8
0
 10
5395.2390679778527556
 20
297.3908666439597823
 30
0.0
 40
0.0078740157
 50
108.434873977521093
 51
180.005649324099295
  0
ARC
  5
EC81
  8
0
 10
5396.5720945607517933
 20
297.5579584599598775
 30
0.0
 40
0.1968503937
 50
270.0
 51
315.0000000000046043
  0
ARC
  5
EC82
  8
0
 10
5404.5701647334526569
 20
304.0471629814597918
 30
0.0
 40
0.0078740157
 50
225.0000000002048921
 51
315.0000000000046043
  0
ARC
  5
EC83
  8
0
 10
5403.8574901823531036
 20
304.7598375325599136
 30
0.0
 40
0.0078740157
 50
134.9999999999170939
 51
224.9999999999078
  0
ARC
  5
EC84
  8
0
 10
5405.508811605954179
 20
304.985809853959779
 30
0.0
 40
0.0078740157
 50
315.0000000000046043
 51
0.0000026086011818
  0
ARC
  5
EC85
  8
0
 10
5405.508811605954179
 20
306.4111589561599089
 30
0.0
 40
0.0078740157
 50
359.9999973896009919
 51
135.0000000000046043
  0
LINE
  5
EC86
  8
0
 10
5405.4379856216519329
 20
297.2292183024599126
 30
0.0
 11
5403.3907013696516515
 21
297.2292183024599126
 31
0.0
  0
LINE
  5
EC87
  8
0
 10
5405.5166856216528686
 20
298.8827616095599069
 30
0.0
 11
5405.5166856216528686
 21
297.3079183024598819
 31
0.0
  0
ARC
  5
EC88
  8
0
 10
5406.5009375901518069
 20
298.2065583009598981
 30
0.0
 40
1.259842519700012
 50
147.8377365184717007
 51
180.0
  0
LINE
  5
EC89
  8
0
 10
5405.2410950704534116
 20
297.563908853659882
 30
0.0
 11
5405.2410950704534116
 21
298.4103206646598778
 31
0.0
  0
LINE
  5
EC8A
  8
0
 10
5405.1819950704530129
 20
297.5048088536598812
 30
0.0
 11
5404.066904678253195
 21
297.5048088536598812
 31
0.0
  0
ARC
  5
EC8B
  8
0
 10
5405.1819950704530129
 20
297.5639088536598251
 30
0.0
 40
0.0591
 50
270.0
 51
0.0000000000130276
  0
LINE
  5
EC8C
  8
0
 10
5405.5166856216528686
 20
298.8827616095599069
 30
0.0
 11
5405.4444994013983887
 21
298.8827616095599069
 31
0.0
  0
ARC
  5
EC8D
  8
0
 10
5405.4444994013983887
 20
298.870861609559995
 30
0.0
 40
0.0119
 50
89.999999999739444
 51
147.8377365188748911
  0
LINE
  5
EC8E
  8
0
 10
5405.1820399523539891
 20
298.3906206646598775
 30
0.0
 11
5405.1820399523539891
 21
297.5835639717598724
 31
0.0
  0
LINE
  5
EC8F
  8
0
 10
5405.2017399523529093
 20
297.5638639717598721
 30
0.0
 11
5405.2410950534103904
 21
297.5638639717598721
 31
0.0
  0
LINE
  5
EC90
  8
0
 10
5405.2410950704534116
 20
298.4103206646598778
 30
0.0
 11
5405.2017399523529093
 21
298.4103206646598778
 31
0.0
  0
LINE
  5
EC91
  8
0
 10
5405.2518665949291972
 20
298.3709505858598732
 30
0.0
 11
5405.2410950704534116
 21
298.3709505858598732
 31
0.0
  0
ARC
  5
EC92
  8
0
 10
5405.2017399523529093
 20
298.3906206646598775
 30
0.0
 40
0.0197
 50
90.0
 51
179.999999999980389
  0
ARC
  5
EC93
  8
0
 10
5405.2017399523529093
 20
297.5835639717598724
 30
0.0
 40
0.0197
 50
180.0000000000619025
 51
270.0
  0
LINE
  5
EC94
  8
0
 10
5403.3907013696516515
 20
297.3014597672099057
 30
0.0
 11
5403.3907013696516515
 21
297.2292183024599126
 31
0.0
  0
ARC
  5
EC95
  8
0
 10
5404.066904678253195
 20
296.2449663339597805
 30
0.0
 40
1.259842519700114
 50
89.9999999818135308
 51
122.1647997759549042
  0
ARC
  5
EC96
  8
0
 10
5403.4025013696527822
 20
297.3014597672099057
 30
0.0
 40
0.0118
 50
122.1647997762110975
 51
180.0
  0
ARC
  5
EC97
  8
0
 10
5405.4379856216519329
 20
297.3079183024598819
 30
0.0
 40
0.0787
 50
270.0
 51
359.9999999999935199
  0
LINE
  5
EC98
  8
0
 10
5403.3962195652120499
 20
297.3114487077432955
 30
0.0
 11
5405.3744255284063911
 21
297.3114487077432955
 31
0.0
  0
ARC
  5
EC99
  8
0
 10
5405.3744255284063911
 20
297.3714487077431841
 30
0.0
 40
0.06
 50
270.0
 51
0.0
  0
LINE
  5
EC9A
  8
0
 10
5405.4344255284049723
 20
298.8771962037000094
 30
0.0
 11
5405.4344255284049723
 21
297.3714487077431841
 31
0.0
  0
LINE
  5
EC9B
  8
0
 10
5405.416851935277009
 20
297.3290223008721114
 30
0.0
 11
5405.2237824399926467
 21
297.5221162018306131
 31
0.0
  0
LINE
  5
EC9C
  8
0
 10
5405.3592516006528967
 20
297.1791047865016822
 30
0.0
 11
5405.3592516006528967
 21
296.8068998018180196
 31
0.0
  0
ARC
  5
EC9D
  8
0
 10
5405.3592053066531662
 20
296.9930022941599077
 30
0.0
 40
0.2057875374999938
 50
269.9999999992705284
 51
89.9758322396220507
  0
LINE
  5
EC9E
  8
0
 10
5405.3592053066504377
 20
296.7872147566599779
 30
0.0
 11
5404.9463441767293261
 21
296.8088524053487163
 31
0.0
  0
LINE
  5
EC9F
  8
0
 10
5405.3592921092722463
 20
297.1987898133527892
 30
0.0
 11
5404.9467435156393549
 21
297.177164718041297
 31
0.0
  0
LINE
  5
ECA0
  8
0
 10
5405.2991148485943995
 20
297.1561958001133803
 30
0.0
 11
5405.1277197804392927
 21
297.1473063047297956
 31
0.0
  0
LINE
  5
ECA1
  8
0
 10
5405.111110751697197
 20
297.1464448687157756
 30
0.0
 11
5404.9619405575122073
 21
297.1387080781137229
 31
0.0
  0
LINE
  5
ECA2
  8
0
 10
5405.3198352279532628
 20
297.1365222435979945
 30
0.0
 11
5405.3198352279532628
 21
296.8494624299826228
 31
0.0
  0
LINE
  5
ECA3
  8
0
 10
5405.2991042723342616
 20
296.8297894248610191
 30
0.0
 11
5405.1277568335017349
 21
296.8387688158409219
 31
0.0
  0
LINE
  5
ECA4
  8
0
 10
5405.1111966079388367
 20
296.8396366475461718
 30
0.0
 11
5404.9617461824773272
 21
296.8474685346843103
 31
0.0
  0
ARC
  5
ECA5
  8
0
 10
5405.3001352279516141
 20
297.1365222435979945
 30
0.0
 40
0.0197
 50
359.9999999999805027
 51
92.969015406096247
  0
ARC
  5
ECA6
  8
0
 10
5405.3001352279516141
 20
296.8494624299826228
 30
0.0
 40
0.0197
 50
267.0001826653816011
 51
359.9999999999805027
  0
ARC
  5
ECA7
  8
0
 10
5405.3592053066531662
 20
296.9930022941599077
 30
0.0
 40
0.1861024981000013
 50
270.0142526342929727
 51
89.9857473657069278
  0
ARC
  5
ECA8
  8
0
 10
5405.3592053066531662
 20
296.9930022941599077
 30
0.0
 40
0.0118110235999984
 50
270.2245747445555821
 51
89.7754252554443894
  0
ARC
  5
ECA9
  8
0
 10
5404.9472353717337683
 20
296.8308765552832824
 30
0.0
 40
0.0220421734117566
 50
48.8281033845234802
 51
267.6828222214895163
  0
ARC
  5
ECAA
  8
0
 10
5404.9472353717337683
 20
297.1551280330364762
 30
0.0
 40
0.0220421734117566
 50
91.2786224450477874
 51
311.8466065966946985
  0
LINE
  5
ECAB
  8
0
 10
5405.5167437681839147
 20
296.6898158959550074
 30
0.0
 11
5405.5167437681839147
 21
296.2505857865696157
 31
0.0
  0
LINE
  5
ECAC
  8
0
 10
5405.0521486025281774
 20
296.6977158959549001
 30
0.0
 11
5405.5088437681852156
 21
296.6977158959549001
 31
0.0
  0
LINE
  5
ECAD
  8
0
 10
5405.0442486025276594
 20
296.7488773575598771
 30
0.0
 11
5405.0442486025276594
 21
296.7056158959550203
 31
0.0
  0
LINE
  5
ECAE
  8
0
 10
5405.0363486025289603
 20
296.7567773575598835
 30
0.0
 11
5403.398601369653079
 21
296.7567773575598835
 31
0.0
  0
ARC
  5
ECAF
  8
0
 10
5405.0363486025289603
 20
296.7488773575598202
 30
0.0
 40
0.0079
 50
0.0000000001530737
 51
89.9999999999478888
  0
ARC
  5
ECB0
  8
0
 10
5405.0521486025281774
 20
296.7056158959550203
 30
0.0
 40
0.0079
 50
180.000000000104194
 51
269.9999999999478746
  0
ARC
  5
ECB1
  8
0
 10
5405.5088437681852156
 20
296.6898158959550074
 30
0.0
 40
0.0079
 50
0.0
 51
90.0
  0
LINE
  5
ECB2
  8
0
 10
5403.3907013696516515
 20
296.6923686388004739
 30
0.0
 11
5403.3907013696516515
 21
296.7488773575598771
 31
0.0
  0
ARC
  5
ECB3
  8
0
 10
5406.5783660078641333
 20
306.5066586577739827
 30
0.0
 40
10.3326185260760894
 50
252.110386795959414
 51
263.9814043809997202
  0
ARC
  5
ECB4
  8
0
 10
5405.4970437681849944
 20
296.2505857865696157
 30
0.0
 40
0.0197
 50
263.98140438110471
 51
359.9999999999805027
  0
ARC
  5
ECB5
  8
0
 10
5403.4104013696542097
 20
296.6923686388004739
 30
0.0
 40
0.0197
 50
180.0
 51
252.1103867958501894
  0
ARC
  5
ECB6
  8
0
 10
5403.398601369653079
 20
296.7488773575598771
 30
0.0
 40
0.0079
 50
90.0000000001042082
 51
180.0
  0
LINE
  5
ECB7
  8
0
 10
5403.4043498428009116
 20
296.6736211316923004
 30
0.0
 11
5405.5167437681839147
 21
296.6736211316923004
 31
0.0
  0
LINE
  5
ECB8
  8
0
 10
5405.1897991326868578
 20
296.8355175150600758
 30
0.0
 11
5405.2804651491542245
 21
296.8355175150600758
 31
0.0
  0
LINE
  5
ECB9
  8
0
 10
5405.1888748571864198
 20
297.1504781449600046
 30
0.0
 11
5405.280465149153315
 21
297.1504781449600046
 31
0.0
  0
LINE
  5
ECBA
  8
0
 10
5405.280465149153315
 20
297.1504781449600046
 30
0.0
 11
5405.3198352279532628
 21
297.1111080662598738
 31
0.0
  0
LINE
  5
ECBB
  8
0
 10
5405.2804651491542245
 20
296.8355175150600758
 30
0.0
 11
5405.3198352279532628
 21
296.8748875937599223
 31
0.0
  0
LINE
  5
ECBC
  8
0
 10
5403.4103864090529896
 20
297.2292183024599126
 30
0.0
 11
5403.4103864090529896
 21
297.1504781449596067
 31
0.0
  0
LINE
  5
ECBD
  8
0
 10
5403.4103864090529896
 20
296.835517515059621
 30
0.0
 11
5403.4103864090529896
 21
296.7567773575598835
 31
0.0
  0
LINE
  5
ECBE
  8
0
 10
5405.0245596373542867
 20
297.2292183024599126
 30
0.0
 11
5405.0245596373542867
 21
297.1812437067346195
 31
0.0
  0
LINE
  5
ECBF
  8
0
 10
5405.0245596373542867
 20
296.804753209429407
 30
0.0
 11
5405.0245596373542867
 21
296.7567773575598835
 31
0.0
  0
LINE
  5
ECC0
  8
0
 10
5405.1277197804392927
 20
297.1473063047297956
 30
0.0
 11
5405.1429844017529831
 21
297.1145712186598757
 31
0.0
  0
LINE
  5
ECC1
  8
0
 10
5405.1429844017529831
 20
297.1145712186598757
 30
0.0
 11
5405.111110751697197
 21
297.1464448687157756
 31
0.0
  0
LINE
  5
ECC2
  8
0
 10
5405.1277568335017349
 20
296.8387688158409219
 30
0.0
 11
5405.1429844017529831
 21
296.8714244412598759
 31
0.0
  0
LINE
  5
ECC3
  8
0
 10
5405.1429844017529831
 20
296.8714244412598759
 30
0.0
 11
5405.1111966079388367
 21
296.8396366475461718
 31
0.0
  0
LINE
  5
ECC4
  8
0
 10
5405.2804651491542245
 20
296.8748875937574212
 30
0.0
 11
5405.2804651491542245
 21
297.1111080662598738
 31
0.0
  0
LINE
  5
ECC5
  8
0
 10
5405.2963141462241765
 20
296.85136651209109
 30
0.0
 11
5405.2804651491542245
 21
296.8748875937574212
 31
0.0
  0
LINE
  5
ECC6
  8
0
 10
5405.2804651491542245
 20
297.1111080662598738
 30
0.0
 11
5405.3001501885528342
 21
297.1307931056098823
 31
0.0
  0
LINE
  5
ECC7
  8
0
 10
5365.5150689694328321
 20
296.6080850715258066
 30
0.0
 11
5365.5150689694328321
 21
296.6781982108906277
 31
0.0
  0
LINE
  5
ECC8
  8
0
 10
5365.960066313259631
 20
293.8544097454188773
 30
0.0
 11
5365.960066313259631
 21
294.5280441557910081
 31
0.0
  0
LINE
  5
ECC9
  8
0
 10
5366.7600663132589034
 20
293.8544097421856804
 30
0.0
 11
5366.7600663132589034
 21
293.9647247100692198
 31
0.0
  0
LINE
  5
ECCA
  8
0
 10
5366.7600663132589034
 20
294.4307047666109725
 30
0.0
 11
5366.7600663132589034
 21
294.5281525180328117
 31
0.0
  0
LINE
  5
ECCB
  8
0
 10
5367.2850694030266823
 20
296.7665287033752861
 30
0.0
 11
5367.2850694030266823
 21
296.7961449443538982
 31
0.0
  0
LINE
  5
ECCC
  8
0
 10
5367.2050689651077846
 20
296.6077758775185202
 30
0.0
 11
5367.2050689651077846
 21
296.67803992700442
 31
0.0
  0
ARC
  5
ECCD
  8
0
 10
5366.3600663157603776
 20
294.4607809172599104
 30
0.0
 40
0.7300000000000246
 50
237.111931800375487
 51
302.8880677271894797
  0
ARC
  5
ECCE
  8
0
 10
5365.967966313260149
 20
293.8544097454187067
 30
0.0
 40
0.0079
 50
179.9999999989186961
 51
237.1119318029915064
  0
ARC
  5
ECCF
  8
0
 10
5366.7521663132602043
 20
293.8544097421856236
 30
0.0
 40
0.0079
 50
302.8880677243366222
 51
0.0000000009803233
  0
LINE
  5
ECD0
  8
0
 10
5366.7581910727240029
 20
294.5332625349989257
 30
0.0
 11
5366.6754711192043032
 21
294.6307901608723228
 31
0.0
  0
LINE
  5
ECD1
  8
0
 10
5365.9892999905778197
 20
294.6307901608723228
 30
0.0
 11
5366.7308318909408626
 21
294.6307901608723228
 31
0.0
  0
LINE
  5
ECD2
  8
0
 10
5366.0407813075889862
 20
294.6269732986498866
 30
0.0
 11
5365.9619182544265641
 21
294.5331265749352951
 31
0.0
  0
ARC
  5
ECD3
  8
0
 10
5365.967966313260149
 20
294.5280441557910081
 30
0.0
 40
0.0079
 50
139.9583578380836002
 51
179.9999999998956923
  0
ARC
  5
ECD4
  8
0
 10
5366.7521663132602043
 20
294.5281525180328117
 30
0.0
 40
0.0079
 50
0.0000000000521102
 51
40.3035919272836125
  0
LINE
  5
ECD5
  8
0
 10
5366.7564560099508526
 20
293.8477758517503844
 30
0.0
 11
5365.9636766165140216
 21
293.8477758550189947
 31
0.0
  0
LINE
  5
ECD6
  8
0
 10
5365.9619182544265641
 20
294.5331265749352951
 30
0.0
 11
5366.7581910727240029
 21
294.5332625349989257
 31
0.0
  0
ARC
  5
ECD7
  8
0
 10
5372.7180141318831375
 20
294.2380665608445156
 30
0.0
 40
6.0000325562987138
 50
156.7695656688779877
 51
164.3354640377378075
  0
ARC
  5
ECD8
  8
0
 10
5372.717942729207607
 20
294.2380865835521035
 30
0.0
 40
5.9999583993645746
 50
164.3354640377378075
 51
173.7862012747256983
  0
ARC
  5
ECD9
  8
0
 10
5372.736999336534609
 20
294.2360117297579905
 30
0.0
 40
6.0191276273384311
 50
173.7862012747256983
 51
176.2394241138541133
  0
ARC
  5
ECDA
  8
0
 10
5367.1971689651081761
 20
296.6077758775185202
 30
0.0
 40
0.0079
 50
336.769565669072108
 51
359.999999999895806
  0
LINE
  5
ECDB
  8
0
 10
5367.2621017322153421
 20
296.6861449565735143
 30
0.0
 11
5365.4580301493042498
 21
296.6861449565735143
 31
0.0
  0
ARC
  5
ECDC
  8
0
 10
5367.0962153171303726
 20
296.7663368217733932
 30
0.0
 40
0.1888541833749502
 50
336.4527306202115824
 51
0.0582142669111368
  0
ARC
  5
ECDD
  8
0
 10
5367.2621017322153421
 20
296.6940449565743734
 30
0.0
 40
0.0079
 50
270.0000000021365167
 51
336.4501297377893252
  0
LINE
  5
ECDE
  8
0
 10
5365.4350624784929096
 20
296.7665287033752861
 30
0.0
 11
5365.4350624784929096
 21
296.7961449443538982
 31
0.0
  0
ARC
  5
ECDF
  8
0
 10
5360.0021177496373639
 20
294.2380665608445156
 30
0.0
 40
6.0000325562987138
 50
15.6645359622621605
 51
23.23043433112203
  0
ARC
  5
ECE0
  8
0
 10
5360.0021891523119848
 20
294.2380865835521035
 30
0.0
 40
5.9999583993645746
 50
6.2137987252743008
 51
15.6645359622621605
  0
ARC
  5
ECE1
  8
0
 10
5359.9831325449840733
 20
294.2360117297579905
 30
0.0
 40
6.0191276273384311
 50
3.7605758861459231
 51
6.2137987252743008
  0
ARC
  5
ECE2
  8
0
 10
5365.5229629164123253
 20
296.6077758775185202
 30
0.0
 40
0.0079
 50
177.7569572605277131
 51
203.230434330927892
  0
ARC
  5
ECE3
  8
0
 10
5365.6239165643892193
 20
296.7663368217733932
 30
0.0
 40
0.1888541833749502
 50
179.9417857330888069
 51
203.5472693797883892
  0
ARC
  5
ECE4
  8
0
 10
5365.4580301493042498
 20
296.6940449565743734
 30
0.0
 40
0.0079
 50
203.5498702622107032
 51
269.9999999978634833
  0
ARC
  5
ECE5
  8
0
 10
5365.507015164646873
 20
296.6782061593081039
 30
0.0
 40
0.0080538087131639
 50
359.9434247595241914
 51
80.3054937965815157
  0
ARC
  5
ECE6
  8
0
 10
5367.2129715753881101
 20
296.67825896669342
 30
0.0
 40
0.0079056452943837
 50
94.0411045962827217
 51
181.5876826628980893
  0
ARC
  5
ECE7
  8
0
 10
5365.7004880384738499
 20
294.0992702874629003
 30
0.0
 40
0.832047620386098
 50
39.703099528466069
 51
71.3258764009325859
  0
ARC
  5
ECE8
  8
0
 10
5366.9998386455508808
 20
294.1394728318874172
 30
0.0
 40
0.7876422344692235
 50
108.2456395592826937
 51
141.4071286488602084
  0
LINE
  5
ECE9
  8
0
 10
5367.2044284801577305
 20
296.6046598798893115
 30
0.0
 11
5365.5157034013609518
 21
296.6046598798893115
 31
0.0
  0
LINE
  5
ECEA
  8
0
 10
5365.4350624784929096
 20
296.7961449443538982
 30
0.0
 11
5367.2850694030266823
 21
296.7961449443538982
 31
0.0
  0
LINE
  5
ECEB
  8
0
 10
5365.4429364697662095
 20
296.7961449443538982
 30
0.0
 11
5365.4429364697662095
 21
296.8355175150597915
 31
0.0
  0
LINE
  5
ECEC
  8
0
 10
5367.2771884382664211
 20
296.7961449443538982
 30
0.0
 11
5367.2771884382664211
 21
296.8355175150597915
 31
0.0
  0
LINE
  5
ECED
  8
0
 10
5367.1553642077888071
 20
294.5912749393303898
 30
0.0
 11
5376.194682449742686
 21
294.5912749393303898
 31
0.0
  0
LINE
  5
ECEE
  8
0
 10
5367.1474642077882891
 20
293.8117733645320868
 30
0.0
 11
5367.1474642077882891
 21
294.583374939330497
 31
0.0
  0
LINE
  5
ECEF
  8
0
 10
5367.1553642077888071
 20
293.8038733645320804
 30
0.0
 11
5376.194682449742686
 21
293.8038733645320804
 31
0.0
  0
ARC
  5
ECF0
  8
0
 10
5367.1553642077888071
 20
293.8117733645320868
 30
0.0
 40
0.0079
 50
180.0000000001531077
 51
269.9999999999478746
  0
ARC
  5
ECF1
  8
0
 10
5367.1553642077888071
 20
294.583374939330497
 30
0.0
 40
0.0079
 50
90.0000000000521254
 51
179.999999999947903
  0
LINE
  5
ECF2
  8
0
 10
5366.7559002110447182
 20
293.9711961991596922
 30
0.0
 11
5367.1395642077886805
 21
293.9711961991596922
 31
0.0
  0
LINE
  5
ECF3
  8
0
 10
5366.7557229411668231
 20
294.4239521046596906
 30
0.0
 11
5367.1395642077886805
 21
294.4239521046596906
 31
0.0
  0
ARC
  5
ECF4
  8
0
 10
5367.1148761715867295
 20
294.1977147383400961
 30
0.0
 40
0.4244695381771562
 50
146.7086290692080013
 51
213.2913709307919987
  0
ARC
  5
ECF5
  8
0
 10
5367.1395642077886805
 20
293.9632961991597995
 30
0.0
 40
0.0079
 50
0.0
 51
90.0
  0
ARC
  5
ECF6
  8
0
 10
5367.1395642077886805
 20
294.4318521046598107
 30
0.0
 40
0.0079
 50
270.0
 51
0.0
  0
LINE
  5
ECF7
  8
0
 10
5365.5378328796523419
 20
297.4565076651912818
 30
0.0
 11
5365.5378328796523419
 21
297.3863945258265176
 31
0.0
  0
LINE
  5
ECF8
  8
0
 10
5367.3078333132443731
 20
297.298064033341916
 30
0.0
 11
5367.3078333132443731
 21
297.268447792363304
 31
0.0
  0
LINE
  5
ECF9
  8
0
 10
5367.227832875324566
 20
297.4568168591985113
 30
0.0
 11
5367.227832875324566
 21
297.3865528097126116
 31
0.0
  0
ARC
  5
ECFA
  8
0
 10
5372.7407780421008283
 20
299.8265261758726865
 30
0.0
 40
6.0000325562987138
 50
195.6645359622621072
 51
203.2304343311220123
  0
ARC
  5
ECFB
  8
0
 10
5372.7407066394262074
 20
299.8265061531649849
 30
0.0
 40
5.9999583993645746
 50
183.7527007418119922
 51
195.6645359622621072
  0
ARC
  5
ECFC
  8
0
 10
5372.7597632467541189
 20
299.8285810069592117
 30
0.0
 40
6.0191276273384311
 50
184.1362097053562081
 51
186.2137987252743017
  0
ARC
  5
ECFD
  8
0
 10
5367.2199328753249574
 20
297.4568168591985113
 30
0.0
 40
0.0079
 50
0.0000000001042204
 51
23.2304343309278991
  0
LINE
  5
ECFE
  8
0
 10
5367.2848656424330329
 20
297.3784477801436879
 30
0.0
 11
5365.4807940595219407
 21
297.3784477801436879
 31
0.0
  0
ARC
  5
ECFF
  8
0
 10
5367.1189792273480634
 20
297.2982559149435815
 30
0.0
 40
0.1888541833749502
 50
359.9417857330889206
 51
23.5472693797884389
  0
ARC
  5
ED00
  8
0
 10
5367.2848656424330329
 20
297.3705477801427151
 30
0.0
 40
0.0079
 50
23.5498702622107494
 51
89.9999999978634833
  0
LINE
  5
ED01
  8
0
 10
5365.4578263887106004
 20
297.298064033341916
 30
0.0
 11
5365.4578263887106004
 21
297.268447792363304
 31
0.0
  0
ARC
  5
ED02
  8
0
 10
5360.0248816598550547
 20
299.8265261758725728
 30
0.0
 40
6.0000325562987138
 50
336.7695656688779877
 51
344.3354640377377791
  0
ARC
  5
ED03
  8
0
 10
5360.0249530625305852
 20
299.8265061531649849
 30
0.0
 40
5.9999583993645746
 50
344.3354640377377791
 51
353.7862012747257268
  0
ARC
  5
ED04
  8
0
 10
5360.0058964552017642
 20
299.8285810069592117
 30
0.0
 40
6.0191276273384311
 50
353.7862012747257268
 51
356.2394747680908154
  0
ARC
  5
ED05
  8
0
 10
5365.5457268266300161
 20
297.4568168591985113
 30
0.0
 40
0.0079
 50
156.769565669072108
 51
182.2430427394722869
  0
ARC
  5
ED06
  8
0
 10
5365.6466804746069101
 20
297.2982559149435815
 30
0.0
 40
0.1888541833749502
 50
156.4527306202114971
 51
180.058214266907811
  0
ARC
  5
ED07
  8
0
 10
5365.4807940595219407
 20
297.3705477801427151
 30
0.0
 40
0.0079
 50
90.0000000021365167
 51
156.4501297377892115
  0
ARC
  5
ED08
  8
0
 10
5365.5297790748645639
 20
297.3863865774090982
 30
0.0
 40
0.0080538087131639
 50
279.6945062034184843
 51
0.0565752404757296
  0
ARC
  5
ED09
  8
0
 10
5367.2357354856058009
 20
297.3863337700236116
 30
0.0
 40
0.0079056452943837
 50
178.4123173371019107
 51
265.9588954037172925
  0
ARC
  5
ED0A
  8
0
 10
5365.7232519486933597
 20
299.9653224492543018
 30
0.0
 40
0.832047620386098
 50
288.6741235990673999
 51
320.297375705631282
  0
ARC
  5
ED0B
  8
0
 10
5367.0226025557685716
 20
299.9251199048297849
 30
0.0
 40
0.7876422344692235
 50
218.5923771818748094
 51
251.7543604407173063
  0
LINE
  5
ED0C
  8
0
 10
5367.2271923903772404
 20
297.459932856827777
 30
0.0
 11
5365.5384673115786427
 21
297.459932856827777
 31
0.0
  0
LINE
  5
ED0D
  8
0
 10
5365.4578263887106004
 20
297.268447792363304
 30
0.0
 11
5367.3078333132443731
 21
297.268447792363304
 31
0.0
  0
LINE
  5
ED0E
  8
0
 10
5365.4657003799839003
 20
297.2605477923631838
 30
0.0
 11
5365.4657003799839003
 21
297.2369777139412008
 31
0.0
  0
LINE
  5
ED0F
  8
0
 10
5367.299952348484112
 20
297.2605477923631838
 30
0.0
 11
5367.299952348484112
 21
297.2369777139412008
 31
0.0
  0
LINE
  5
ED10
  8
0
 10
5367.2920523484826845
 20
297.2290777139410807
 30
0.0
 11
5365.4736003799853279
 21
297.2290777139410807
 31
0.0
  0
ARC
  5
ED11
  8
0
 10
5365.4736003799853279
 20
297.2605477923631838
 30
0.0
 40
0.0079
 50
90.0
 51
180.0
  0
ARC
  5
ED12
  8
0
 10
5367.2920523484826845
 20
297.2605477923631838
 30
0.0
 40
0.0079
 50
0.0
 51
90.0
  0
ARC
  5
ED13
  8
0
 10
5367.2920523484826845
 20
297.2369777139412008
 30
0.0
 40
0.0079
 50
270.0
 51
359.9999999998469207
  0
ARC
  5
ED14
  8
0
 10
5365.4736003799853279
 20
297.2369777139412008
 30
0.0
 40
0.0079
 50
180.0000000001531077
 51
269.9999999999478746
  0
LINE
  5
ED15
  8
0
 10
5366.1860025220803436
 20
297.2093927037598178
 30
0.0
 11
5366.579677005080157
 21
297.2093927037598178
 31
0.0
  0
LINE
  5
ED16
  8
0
 10
5366.579677005080157
 20
297.2093927037598178
 30
0.0
 11
5366.579677005080157
 21
297.1504781449597772
 31
0.0
  0
LINE
  5
ED17
  8
0
 10
5366.1860025220803436
 20
297.1504781449597772
 30
0.0
 11
5366.1860025220803436
 21
297.2093927037598178
 31
0.0
  0
LINE
  5
ED18
  8
0
 10
5366.4812518082799215
 20
297.2290777139597822
 30
0.0
 11
5366.4812518082799215
 21
297.2093927037598178
 31
0.0
  0
LINE
  5
ED19
  8
0
 10
5366.2844014145803158
 20
297.2093927037598178
 30
0.0
 11
5366.2844014145803158
 21
297.2290777139597822
 31
0.0
  0
LINE
  5
ED1A
  8
0
 10
5377.834977688098661
 20
296.6080850715258066
 30
0.0
 11
5377.834977688098661
 21
296.6781982108906277
 31
0.0
  0
LINE
  5
ED1B
  8
0
 10
5377.3899803442727716
 20
293.8544097454188773
 30
0.0
 11
5377.3899803442727716
 21
294.5280441557910081
 31
0.0
  0
LINE
  5
ED1C
  8
0
 10
5376.5899803442725897
 20
293.8544097421856804
 30
0.0
 11
5376.5899803442725897
 21
293.9647247100692198
 31
0.0
  0
LINE
  5
ED1D
  8
0
 10
5376.5899803442725897
 20
294.4307047666109725
 30
0.0
 11
5376.5899803442725897
 21
294.5281525180328117
 31
0.0
  0
LINE
  5
ED1E
  8
0
 10
5376.0649772545057203
 20
296.7665287033752861
 30
0.0
 11
5376.0649772545057203
 21
296.7961449443538982
 31
0.0
  0
LINE
  5
ED1F
  8
0
 10
5376.1449776924237085
 20
296.6077758775185202
 30
0.0
 11
5376.1449776924237085
 21
296.67803992700442
 31
0.0
  0
ARC
  5
ED20
  8
0
 10
5376.9899803417729345
 20
294.4607809172599104
 30
0.0
 40
0.7300000000000246
 50
237.1119322728087013
 51
302.888068199624513
  0
ARC
  5
ED21
  8
0
 10
5377.3820803442731631
 20
293.8544097454187067
 30
0.0
 40
0.0079
 50
302.888068197008522
 51
0.0000000010812868
  0
ARC
  5
ED22
  8
0
 10
5376.5978803442721983
 20
293.8544097421856236
 30
0.0
 40
0.0079
 50
179.9999999990195931
 51
237.1119322756634062
  0
LINE
  5
ED23
  8
0
 10
5376.5918555848065807
 20
294.5332625349989257
 30
0.0
 11
5376.6745755383280994
 21
294.6307901608723228
 31
0.0
  0
LINE
  5
ED24
  8
0
 10
5377.3607466669536734
 20
294.6307901608723228
 30
0.0
 11
5376.6192147665906305
 21
294.6307901608723228
 31
0.0
  0
LINE
  5
ED25
  8
0
 10
5377.3060578921167689
 20
294.6307901608723228
 30
0.0
 11
5377.3881284031040195
 21
294.5331265749352951
 31
0.0
  0
ARC
  5
ED26
  8
0
 10
5377.3820803442722536
 20
294.5280441557910081
 30
0.0
 40
0.0079
 50
0.0000000001042204
 51
40.0416421619163501
  0
ARC
  5
ED27
  8
0
 10
5376.5978803442721983
 20
294.5281525180328117
 30
0.0
 40
0.0079
 50
139.6964080727163946
 51
179.999999999947903
  0
LINE
  5
ED28
  8
0
 10
5376.59359064758155
 20
293.8477758517503844
 30
0.0
 11
5377.386370041018381
 21
293.8477758550189947
 31
0.0
  0
LINE
  5
ED29
  8
0
 10
5377.3881284031040195
 20
294.5331265749352951
 30
0.0
 11
5376.5918555848065807
 21
294.5332625349989257
 31
0.0
  0
ARC
  5
ED2A
  8
0
 10
5370.6320325256492652
 20
294.2380665608445156
 30
0.0
 40
6.0000325562987138
 50
15.6645359622621605
 51
23.23043433112203
  0
ARC
  5
ED2B
  8
0
 10
5370.6321039283247956
 20
294.2380865835521035
 30
0.0
 40
5.9999583993645746
 50
6.2137987252743008
 51
15.6645359622621605
  0
ARC
  5
ED2C
  8
0
 10
5370.6130473209968841
 20
294.2360117297579905
 30
0.0
 40
6.0191276273384311
 50
3.7605758861459231
 51
6.2137987252743008
  0
ARC
  5
ED2D
  8
0
 10
5376.1528776924242266
 20
296.6077758775185202
 30
0.0
 40
0.0079
 50
180.000000000104194
 51
203.230434330927892
  0
LINE
  5
ED2E
  8
0
 10
5376.0879449253170606
 20
296.6861449565735143
 30
0.0
 11
5377.8920165082272433
 21
296.6861449565735143
 31
0.0
  0
ARC
  5
ED2F
  8
0
 10
5376.25383134040203
 20
296.7663368217733932
 30
0.0
 40
0.1888541833749502
 50
179.9417857330888069
 51
203.5472693797883892
  0
ARC
  5
ED30
  8
0
 10
5376.0879449253170606
 20
296.6940449565743734
 30
0.0
 40
0.0079
 50
203.5498702622107032
 51
269.9999999978634833
  0
LINE
  5
ED31
  8
0
 10
5377.9149841790404025
 20
296.7665287033752861
 30
0.0
 11
5377.9149841790404025
 21
296.7961449443538982
 31
0.0
  0
ARC
  5
ED32
  8
0
 10
5383.3479289078950387
 20
294.2380665608445156
 30
0.0
 40
6.0000325562987138
 50
156.7695656688779877
 51
164.3354640377378075
  0
ARC
  5
ED33
  8
0
 10
5383.3478575052213273
 20
294.2380865835521035
 30
0.0
 40
5.9999583993645746
 50
164.3354640377378075
 51
173.7862012747256983
  0
ARC
  5
ED34
  8
0
 10
5383.3669141125474198
 20
294.2360117297579905
 30
0.0
 40
6.0191276273384311
 50
173.7862012747256983
 51
176.2394241138541133
  0
ARC
  5
ED35
  8
0
 10
5377.8270837411200773
 20
296.6077758775185202
 30
0.0
 40
0.0079
 50
336.769565669072108
 51
2.2430427394722732
  0
ARC
  5
ED36
  8
0
 10
5377.7261300931440928
 20
296.7663368217733932
 30
0.0
 40
0.1888541833749502
 50
336.4527306202115824
 51
0.0582142669111368
  0
ARC
  5
ED37
  8
0
 10
5377.8920165082272433
 20
296.6940449565743734
 30
0.0
 40
0.0079
 50
270.0000000021365167
 51
336.4501297377893252
  0
ARC
  5
ED38
  8
0
 10
5377.8430314928864391
 20
296.6782061593081039
 30
0.0
 40
0.0080538087131639
 50
99.6945062034184843
 51
180.056575240475695
  0
ARC
  5
ED39
  8
0
 10
5376.1370750821442925
 20
296.67825896669342
 30
0.0
 40
0.0079056452943837
 50
358.4123173371019107
 51
85.9588954037172641
  0
ARC
  5
ED3A
  8
0
 10
5377.6495586190576432
 20
294.0992702874629003
 30
0.0
 40
0.832047620386098
 50
108.6741235990673999
 51
140.2969004715338883
  0
ARC
  5
ED3B
  8
0
 10
5376.3502080119806124
 20
294.1394728318874172
 30
0.0
 40
0.7876422344692235
 50
38.5928713511397916
 51
71.7543604407172637
  0
LINE
  5
ED3C
  8
0
 10
5376.1456181773737626
 20
296.6046598798893115
 30
0.0
 11
5377.8343432561714508
 21
296.6046598798893115
 31
0.0
  0
LINE
  5
ED3D
  8
0
 10
5377.9149841790404025
 20
296.7961449443538982
 30
0.0
 11
5376.0649772545057203
 21
296.7961449443538982
 31
0.0
  0
LINE
  5
ED3E
  8
0
 10
5377.9071101877661931
 20
296.7961449443538982
 30
0.0
 11
5377.9071101877661931
 21
296.8355175150597915
 31
0.0
  0
LINE
  5
ED3F
  8
0
 10
5376.0728582192659815
 20
296.7961449443538982
 30
0.0
 11
5376.0728582192659815
 21
296.8355175150597915
 31
0.0
  0
LINE
  5
ED40
  8
0
 10
5376.2025824497432041
 20
293.8117733645320868
 30
0.0
 11
5376.2025824497432041
 21
294.583374939330497
 31
0.0
  0
LINE
  5
ED41
  8
0
 10
5376.5941464464876844
 20
293.9711961991596922
 30
0.0
 11
5376.2104824497437221
 21
293.9711961991596922
 31
0.0
  0
LINE
  5
ED42
  8
0
 10
5376.5943237163637605
 20
294.4239521046596906
 30
0.0
 11
5376.2104824497437221
 21
294.4239521046596906
 31
0.0
  0
ARC
  5
ED43
  8
0
 10
5376.2351704859438541
 20
294.1977147383400961
 30
0.0
 40
0.4244695381771562
 50
326.7086290692079729
 51
33.2913709307920129
  0
ARC
  5
ED44
  8
0
 10
5376.2104824497437221
 20
293.9632961991597995
 30
0.0
 40
0.0079
 50
90.0
 51
180.0
  0
ARC
  5
ED45
  8
0
 10
5376.2104824497437221
 20
294.4318521046598107
 30
0.0
 40
0.0079
 50
180.0
 51
270.0
  0
LINE
  5
ED46
  8
0
 10
5377.8577415983072569
 20
297.4565076651912818
 30
0.0
 11
5377.8577415983072569
 21
297.3863945258265176
 31
0.0
  0
LINE
  5
ED47
  8
0
 10
5376.0877411647143163
 20
297.298064033341916
 30
0.0
 11
5376.0877411647143163
 21
297.268447792363304
 31
0.0
  0
LINE
  5
ED48
  8
0
 10
5376.1677416026332139
 20
297.4568168591985113
 30
0.0
 11
5376.1677416026332139
 21
297.3865528097126116
 31
0.0
  0
ARC
  5
ED49
  8
0
 10
5370.6547964358587706
 20
299.8265261758726865
 30
0.0
 40
6.0000325562987138
 50
336.7695656688779877
 51
344.3354640377377791
  0
ARC
  5
ED4A
  8
0
 10
5370.6548678385352105
 20
299.8265061531649849
 30
0.0
 40
5.9999583993645746
 50
344.3354640377377791
 51
353.7862012747257268
  0
ARC
  5
ED4B
  8
0
 10
5370.6358112312063895
 20
299.8285810069592117
 30
0.0
 40
6.0191276273384311
 50
353.7862012747257268
 51
356.2394747680908154
  0
ARC
  5
ED4C
  8
0
 10
5376.175641602633732
 20
297.4568168591985113
 30
0.0
 40
0.0079
 50
156.7695656690690953
 51
179.9999999998956923
  0
LINE
  5
ED4D
  8
0
 10
5376.1107088355256565
 20
297.3784477801436879
 30
0.0
 11
5377.9147804184367487
 21
297.3784477801436879
 31
0.0
  0
ARC
  5
ED4E
  8
0
 10
5376.2765952506124449
 20
297.2982559149435815
 30
0.0
 40
0.1888541833749502
 50
156.4527306202114971
 51
180.0582142669111079
  0
ARC
  5
ED4F
  8
0
 10
5376.1107088355256565
 20
297.3705477801427151
 30
0.0
 40
0.0079
 50
90.0000000021365167
 51
156.4501297377892115
  0
LINE
  5
ED50
  8
0
 10
5377.9377480892480889
 20
297.298064033341916
 30
0.0
 11
5377.9377480892480889
 21
297.268447792363304
 31
0.0
  0
ARC
  5
ED51
  8
0
 10
5383.3706928181036346
 20
299.8265261758725728
 30
0.0
 40
6.0000325562987138
 50
195.6645359622621072
 51
203.2304343311220123
  0
ARC
  5
ED52
  8
0
 10
5383.3706214154290137
 20
299.8265061531649849
 30
0.0
 40
5.9999583993645746
 50
186.2137987252710047
 51
195.6645359622621072
  0
ARC
  5
ED53
  8
0
 10
5383.3896780227569252
 20
299.8285810069592117
 30
0.0
 40
6.0191276273384311
 50
183.7605252319092131
 51
186.2137987252710047
  0
ARC
  5
ED54
  8
0
 10
5377.8498476513286732
 20
297.4568168591985113
 30
0.0
 40
0.0079
 50
357.7569572605277131
 51
23.2304343309278991
  0
ARC
  5
ED55
  8
0
 10
5377.7488940033517792
 20
297.2982559149435815
 30
0.0
 40
0.1888541833749502
 50
359.9417857330921038
 51
23.5472693797884389
  0
ARC
  5
ED56
  8
0
 10
5377.9147804184367487
 20
297.3705477801427151
 30
0.0
 40
0.0079
 50
23.5498702622107494
 51
89.9999999978634833
  0
ARC
  5
ED57
  8
0
 10
5377.8657954030941255
 20
297.3863865774090982
 30
0.0
 40
0.0080538087131639
 50
179.9434247595241914
 51
260.3054937965815157
  0
ARC
  5
ED58
  8
0
 10
5376.1598389923537979
 20
297.3863337700236116
 30
0.0
 40
0.0079056452943837
 50
274.0411045962827075
 51
1.587682662898096
  0
ARC
  5
ED59
  8
0
 10
5377.6723225292671486
 20
299.9653224492543018
 30
0.0
 40
0.832047620386098
 50
219.7026242943686896
 51
251.3258764009326001
  0
ARC
  5
ED5A
  8
0
 10
5376.3729719221910273
 20
299.9251199048297849
 30
0.0
 40
0.7876422344692235
 50
288.2456395592827221
 51
321.4076228181252191
  0
LINE
  5
ED5B
  8
0
 10
5376.1683820875823585
 20
297.459932856827777
 30
0.0
 11
5377.8571071663809562
 21
297.459932856827777
 31
0.0
  0
LINE
  5
ED5C
  8
0
 10
5377.9377480892480889
 20
297.268447792363304
 30
0.0
 11
5376.0877411647143163
 21
297.268447792363304
 31
0.0
  0
LINE
  5
ED5D
  8
0
 10
5377.9298740979756985
 20
297.2605477923631838
 30
0.0
 11
5377.9298740979756985
 21
297.2369777139412008
 31
0.0
  0
LINE
  5
ED5E
  8
0
 10
5376.0956221294763964
 20
297.2605477923631838
 30
0.0
 11
5376.0956221294763964
 21
297.2369777139412008
 31
0.0
  0
LINE
  5
ED5F
  8
0
 10
5376.1035221294760049
 20
297.2290777139410807
 30
0.0
 11
5377.92197409797609
 21
297.2290777139410807
 31
0.0
  0
ARC
  5
ED60
  8
0
 10
5377.92197409797609
 20
297.2605477923631838
 30
0.0
 40
0.0079
 50
0.0
 51
90.0
  0
ARC
  5
ED61
  8
0
 10
5376.1035221294760049
 20
297.2605477923631838
 30
0.0
 40
0.0079
 50
90.0
 51
180.0
  0
ARC
  5
ED62
  8
0
 10
5376.1035221294760049
 20
297.2369777139412008
 30
0.0
 40
0.0079
 50
180.0000000001531077
 51
270.0
  0
ARC
  5
ED63
  8
0
 10
5377.92197409797609
 20
297.2369777139412008
 30
0.0
 40
0.0079
 50
270.0
 51
359.9999999998469207
  0
LINE
  5
ED64
  8
0
 10
5377.2095719558792553
 20
297.2093927037598178
 30
0.0
 11
5376.8158974728803514
 21
297.2093927037598178
 31
0.0
  0
LINE
  5
ED65
  8
0
 10
5376.8158974728803514
 20
297.2093927037598178
 30
0.0
 11
5376.8158974728803514
 21
297.1504781449597772
 31
0.0
  0
LINE
  5
ED66
  8
0
 10
5377.2095719558792553
 20
297.1504781449597772
 30
0.0
 11
5377.2095719558792553
 21
297.2093927037598178
 31
0.0
  0
LINE
  5
ED67
  8
0
 10
5376.9143226696796773
 20
297.2290777139597822
 30
0.0
 11
5376.9143226696796773
 21
297.2093927037598178
 31
0.0
  0
LINE
  5
ED68
  8
0
 10
5377.1111730633792831
 20
297.2093927037598178
 30
0.0
 11
5377.1111730633792831
 21
297.2290777139597822
 31
0.0
  0
ARC
  5
ED69
  8
0
 10
5376.194682449742686
 20
293.8117733645320868
 30
0.0
 40
0.0079
 50
270.0
 51
0.0
  0
ARC
  5
ED6A
  8
0
 10
5376.194682449742686
 20
294.583374939330497
 30
0.0
 40
0.0079
 50
0.0000000000521102
 51
89.9999999999478888
  0
LINE
  5
ED6B
  8
0
 10
5366.0120642497922745
 20
299.4338078855091112
 30
0.0
 11
5366.7536131154620307
 21
299.4338078855091112
 31
0.0
  0
LINE
  5
ED6C
  8
0
 10
5377.3835102281673244
 20
299.4338078855091112
 30
0.0
 11
5376.6419790257959903
 21
299.4338078855091112
 31
0.0
  0
LINE
  5
ED6D
  8
0
 10
5367.1068367594962183
 20
296.3629381269091141
 30
0.0
 11
5376.2432098980352748
 21
296.3629381269091141
 31
0.0
  0
LINE
  5
ED6E
  8
0
 10
5367.2848203360690604
 20
296.756638914309292
 30
0.0
 11
5376.0652263214642517
 21
296.7566389143065066
 31
0.0
  0
LINE
  5
ED6F
  8
0
 10
5366.0055948800099941
 20
300.2101830124229878
 30
0.0
 11
5366.0055948800099941
 21
299.5365486020510275
 31
0.0
  0
LINE
  5
ED70
  8
0
 10
5366.805594880010176
 20
300.2101830156562983
 30
0.0
 11
5366.805594880010176
 21
300.0998680477728158
 31
0.0
  0
LINE
  5
ED71
  8
0
 10
5366.805594880010176
 20
299.6338879912308926
 30
0.0
 11
5366.805594880010176
 21
299.5364402398092238
 31
0.0
  0
ARC
  5
ED72
  8
0
 10
5366.4055948825098312
 20
299.6038118405821251
 30
0.0
 40
0.7300000000000246
 50
57.111932272810499
 51
122.8880681996244988
  0
ARC
  5
ED73
  8
0
 10
5366.0134948800096026
 20
300.210183012423272
 30
0.0
 40
0.0079
 50
122.8880681970084936
 51
180.0000000010813039
  0
ARC
  5
ED74
  8
0
 10
5366.7976948800105674
 20
300.210183015656412
 30
0.0
 40
0.0079
 50
359.9999999990196784
 51
57.1119322756634418
  0
LINE
  5
ED75
  8
0
 10
5366.803719639474366
 20
299.5313302228431098
 30
0.0
 11
5366.7209996859546663
 21
299.4338025969697128
 31
0.0
  0
LINE
  5
ED76
  8
0
 10
5366.0895128879992626
 20
299.4338078855091112
 30
0.0
 11
5366.0074468211778367
 21
299.5314661829066836
 31
0.0
  0
ARC
  5
ED77
  8
0
 10
5366.0134948800114216
 20
299.5365486020510275
 30
0.0
 40
0.0079
 50
180.000000000104194
 51
220.0416421619162861
  0
ARC
  5
ED78
  8
0
 10
5366.7976948800087484
 20
299.5364402398092238
 30
0.0
 40
0.0079
 50
319.6964080727163946
 51
359.9999999999478746
  0
LINE
  5
ED79
  8
0
 10
5366.8019845767012157
 20
300.2168169060915943
 30
0.0
 11
5366.0092051832643847
 21
300.216816902822984
 31
0.0
  0
LINE
  5
ED7A
  8
0
 10
5366.0074468211778367
 20
299.5314661829066836
 30
0.0
 11
5366.803719639474366
 21
299.5313302228431098
 31
0.0
  0
LINE
  5
ED7B
  8
0
 10
5367.2008927745400797
 20
299.4733178185114753
 30
0.0
 11
5376.2402110164939586
 21
299.4733178185114753
 31
0.0
  0
LINE
  5
ED7C
  8
0
 10
5367.1929927745386522
 20
300.2528193933098919
 30
0.0
 11
5367.1929927745386522
 21
299.4812178185114817
 31
0.0
  0
LINE
  5
ED7D
  8
0
 10
5367.2008927745400797
 20
300.2607193933097847
 30
0.0
 11
5376.2402110164939586
 21
300.2607193933097847
 31
0.0
  0
ARC
  5
ED7E
  8
0
 10
5367.2008927745400797
 20
300.2528193933098919
 30
0.0
 40
0.0079
 50
90.0000000000521254
 51
179.9999999998468923
  0
ARC
  5
ED7F
  8
0
 10
5367.2008927745400797
 20
299.4812178185114817
 30
0.0
 40
0.0079
 50
180.000000000052097
 51
269.9999999999478746
  0
LINE
  5
ED80
  8
0
 10
5366.8014287777950813
 20
300.0933965586821728
 30
0.0
 11
5367.1850927745390436
 21
300.0933965586821728
 31
0.0
  0
LINE
  5
ED81
  8
0
 10
5366.8012515079190052
 20
299.6406406531821744
 30
0.0
 11
5367.1850927745390436
 21
299.6406406531821744
 31
0.0
  0
ARC
  5
ED82
  8
0
 10
5367.1604047383380021
 20
299.8668780195018826
 30
0.0
 40
0.4244695381771562
 50
146.7086290692080013
 51
213.2913709307919987
  0
ARC
  5
ED83
  8
0
 10
5367.1850927745390436
 20
300.1012965586821792
 30
0.0
 40
0.0079
 50
270.0
 51
0.0
  0
ARC
  5
ED84
  8
0
 10
5367.1850927745390436
 20
299.6327406531822248
 30
0.0
 40
0.0079
 50
0.0
 51
90.0
  0
LINE
  5
ED85
  8
0
 10
5377.4355089110231347
 20
300.2101830124229878
 30
0.0
 11
5377.4355089110231347
 21
299.5365486020510275
 31
0.0
  0
LINE
  5
ED86
  8
0
 10
5376.6355089110220433
 20
300.2101830156562983
 30
0.0
 11
5376.6355089110220433
 21
300.0998680477728158
 31
0.0
  0
LINE
  5
ED87
  8
0
 10
5376.6355089110220433
 20
299.6338879912308926
 30
0.0
 11
5376.6355089110220433
 21
299.5364402398092238
 31
0.0
  0
ARC
  5
ED88
  8
0
 10
5377.0355089085232976
 20
299.6038118405821251
 30
0.0
 40
0.7300000000000246
 50
57.111931800375487
 51
122.8880677271911992
  0
ARC
  5
ED89
  8
0
 10
5377.4276089110226167
 20
300.210183012423272
 30
0.0
 40
0.0079
 50
359.9999999989187245
 51
57.1119318029915135
  0
ARC
  5
ED8A
  8
0
 10
5376.6434089110216519
 20
300.210183015656412
 30
0.0
 40
0.0079
 50
122.8880677243365938
 51
180.0000000009802932
  0
LINE
  5
ED8B
  8
0
 10
5376.6373841515578533
 20
299.5313302228431098
 30
0.0
 11
5376.720104105077553
 21
299.4338025969697128
 31
0.0
  0
LINE
  5
ED8C
  8
0
 10
5377.3515909030338662
 20
299.4338078855091112
 30
0.0
 11
5377.4336569698562016
 21
299.5314661829066836
 31
0.0
  0
ARC
  5
ED8D
  8
0
 10
5377.4276089110226167
 20
299.5365486020510275
 30
0.0
 40
0.0079
 50
319.9583578380836002
 51
359.999999999895806
  0
ARC
  5
ED8E
  8
0
 10
5376.6434089110216519
 20
299.5364402398092238
 30
0.0
 40
0.0079
 50
180.000000000052097
 51
220.3035919272836054
  0
LINE
  5
ED8F
  8
0
 10
5376.6391192143310036
 20
300.2168169060915943
 30
0.0
 11
5377.4318986077678346
 21
300.216816902822984
 31
0.0
  0
LINE
  5
ED90
  8
0
 10
5377.4336569698562016
 20
299.5314661829066836
 30
0.0
 11
5376.6373841515578533
 21
299.5313302228431098
 31
0.0
  0
LINE
  5
ED91
  8
0
 10
5376.2481110164935671
 20
300.2528193933098919
 30
0.0
 11
5376.2481110164935671
 21
299.4812178185114817
 31
0.0
  0
LINE
  5
ED92
  8
0
 10
5376.6396750132380475
 20
300.0933965586821728
 30
0.0
 11
5376.2560110164940852
 21
300.0933965586821728
 31
0.0
  0
LINE
  5
ED93
  8
0
 10
5376.6398522831159426
 20
299.6406406531821744
 30
0.0
 11
5376.2560110164940852
 21
299.6406406531821744
 31
0.0
  0
ARC
  5
ED94
  8
0
 10
5376.2806990526960362
 20
299.8668780195018826
 30
0.0
 40
0.4244695381771562
 50
326.7086290692079729
 51
33.2913709307920129
  0
ARC
  5
ED95
  8
0
 10
5376.2560110164940852
 20
300.1012965586821792
 30
0.0
 40
0.0079
 50
180.0
 51
270.0
  0
ARC
  5
ED96
  8
0
 10
5376.2560110164940852
 20
299.6327406531822248
 30
0.0
 40
0.0079
 50
90.0
 51
180.0
  0
ARC
  5
ED97
  8
0
 10
5376.2402110164939586
 20
300.2528193933098919
 30
0.0
 40
0.0079
 50
0.0
 51
90.0
  0
ARC
  5
ED98
  8
0
 10
5376.2402110164939586
 20
299.4812178185114817
 30
0.0
 40
0.0079
 50
270.0000000000521254
 51
359.9999999999478746
  0
LINE
  5
ED99
  8
0
 10
5362.6000280415437373
 20
324.9329718596721932
 30
0.0
 11
5362.5822467236466764
 21
324.7630878947126121
 31
0.0
  0
LINE
  5
ED9A
  8
0
 10
5362.5805522811479022
 20
324.7468990714127131
 30
0.0
 11
5362.5648247448480106
 21
324.5966370805126076
 31
0.0
  0
LINE
  5
ED9B
  8
0
 10
5362.6025201435477356
 20
324.5785822992127123
 30
0.0
 11
5362.6391842212469783
 21
324.9288734830042813
 31
0.0
  0
LINE
  5
ED9C
  8
0
 10
5361.6180003502468026
 20
325.3090367961127072
 30
0.0
 11
5361.6180003502468026
 21
324.9010401292126176
 31
0.0
  0
LINE
  5
ED9D
  8
0
 10
5361.6180003502468026
 20
324.2326131080862979
 30
0.0
 11
5361.6180003502468026
 21
324.2066745914125931
 31
0.0
  0
LINE
  5
ED9E
  8
0
 10
5361.7282365707478675
 20
327.7499816780126025
 30
0.0
 11
5361.7282365707478675
 21
327.2884898263093874
 31
0.0
  0
LINE
  5
ED9F
  8
0
 10
5361.9349294841476876
 20
330.7790023176127079
 30
0.0
 11
5361.9349294841476876
 21
330.0554895854127153
 31
0.0
  0
LINE
  5
EDA0
  8
0
 10
5362.0569767282468092
 20
331.3565319506125775
 30
0.0
 11
5362.0569767282468092
 21
331.0471672114126136
 31
0.0
  0
LINE
  5
EDA1
  8
0
 10
5362.1272796955481681
 20
325.3090367961127072
 30
0.0
 11
5362.127279695141624
 21
328.9682874275424069
 31
0.0
  0
LINE
  5
EDA2
  8
0
 10
5362.2006775156478398
 20
324.2143035611114783
 30
0.0
 11
5362.2006775156478398
 21
328.9704541189125848
 31
0.0
  0
LINE
  5
EDA3
  8
0
 10
5362.2311149147490141
 20
325.4665171110127062
 30
0.0
 11
5362.2311149147490141
 21
324.9940761662126079
 31
0.0
  0
LINE
  5
EDA4
  8
0
 10
5362.2342909064491323
 20
324.1082493945127112
 30
0.0
 11
5362.2342909064491323
 21
323.8491755756126054
 31
0.0
  0
LINE
  5
EDA5
  8
0
 10
5362.2346117549468545
 20
323.8491923906125862
 30
0.0
 11
5362.2346117549468545
 21
324.1082493945127112
 31
0.0
  0
LINE
  5
EDA6
  8
0
 10
5362.270484993448008
 20
324.9940761662126079
 30
0.0
 11
5362.270484993448008
 21
325.6633675047125962
 31
0.0
  0
LINE
  5
EDA7
  8
0
 10
5362.2712758326479161
 20
324.1082493945127112
 30
0.0
 11
5362.2712758326479161
 21
323.8511138735125883
 31
0.0
  0
LINE
  5
EDA8
  8
0
 10
5362.2794176731467815
 20
324.8246672657126055
 30
0.0
 11
5362.2794176731467815
 21
324.9153360087125861
 31
0.0
  0
LINE
  5
EDA9
  8
0
 10
5362.2794176731467815
 20
325.3484068748126106
 30
0.0
 11
5362.2794176731467815
 21
329.7873246917126266
 31
0.0
  0
LINE
  5
EDAA
  8
0
 10
5362.2794176731467815
 20
331.7420491011126273
 30
0.0
 11
5362.2794176731467815
 21
339.4818180134313934
 31
0.0
  0
LINE
  5
EDAB
  8
0
 10
5362.3187877518466848
 20
325.3484068748126106
 30
0.0
 11
5362.3187877518466848
 21
329.7873246917126266
 31
0.0
  0
LINE
  5
EDAC
  8
0
 10
5362.3187877518466848
 20
331.7814191799125751
 30
0.0
 11
5362.3187877518466848
 21
339.8365958512126213
 31
0.0
  0
LINE
  5
EDAD
  8
0
 10
5362.5550082243471479
 20
339.8365958512126213
 30
0.0
 11
5362.5550082243471479
 21
332.0176396523127096
 31
0.0
  0
LINE
  5
EDAE
  8
0
 10
5362.5550082243471479
 20
329.7873246917126266
 30
0.0
 11
5362.5550082243471479
 21
325.3484068748126106
 31
0.0
  0
LINE
  5
EDAF
  8
0
 10
5362.5943783030479608
 20
339.4818199383188926
 30
0.0
 11
5362.5943783030479608
 21
332.057009731012613
 31
0.0
  0
LINE
  5
EDB0
  8
0
 10
5362.5943783030479608
 20
329.7873246917126266
 30
0.0
 11
5362.5943783030479608
 21
325.3484068748126106
 31
0.0
  0
LINE
  5
EDB1
  8
0
 10
5362.5943783030479608
 20
324.9153360087125861
 30
0.0
 11
5362.5943783030479608
 21
324.8789938600125993
 31
0.0
  0
LINE
  5
EDB2
  8
0
 10
5362.6009661004482041
 20
322.1613283271126988
 30
0.0
 11
5362.6009631203478421
 21
322.8551924736127035
 31
0.0
  0
LINE
  5
EDB3
  8
0
 10
5362.6009606820480258
 20
323.4228995026126086
 30
0.0
 11
5362.60095773854664
 21
324.1082493945127112
 31
0.0
  0
LINE
  5
EDB4
  8
0
 10
5362.6140633424483894
 20
327.4035249851125968
 30
0.0
 11
5362.6140633424483894
 21
326.8365958512126213
 31
0.0
  0
LINE
  5
EDB5
  8
0
 10
5362.673118460547812
 20
326.3917139614126199
 30
0.0
 11
5362.673118460547812
 21
328.9507690795126109
 31
0.0
  0
LINE
  5
EDB6
  8
0
 10
5362.7518586180476632
 20
326.3720289221125768
 30
0.0
 11
5362.7518586180476632
 21
328.9704541189125848
 31
0.0
  0
LINE
  5
EDB7
  8
0
 10
5362.8050082243489669
 20
331.0471672114126136
 30
0.0
 11
5362.8050082243489669
 21
331.1282252627127036
 31
0.0
  0
LINE
  5
EDB8
  8
0
 10
5362.919181452648445
 20
330.0554895854127153
 30
0.0
 11
5362.919181452648445
 21
330.7790023176127079
 31
0.0
  0
LINE
  5
EDB9
  8
0
 10
5362.9350701621478947
 20
326.8077848276126929
 30
0.0
 11
5362.9350701621478947
 21
328.9507690795126109
 31
0.0
  0
LINE
  5
EDBA
  8
0
 10
5361.617940373046622
 20
325.7814777410126226
 30
0.0
 11
5361.6180003503477565
 21
325.3090363113125818
 31
0.0
  0
LINE
  5
EDBB
  8
0
 10
5361.6059769001476525
 20
324.4273207134125983
 30
0.0
 11
5361.5813111214465607
 21
324.8991178137126212
 31
0.0
  0
LINE
  5
EDBC
  8
0
 10
5362.2794176731467815
 20
321.3094160177420235
 30
0.0
 11
5362.0898925424480694
 21
324.9257709511126109
 31
0.0
  0
LINE
  5
EDBD
  8
0
 10
5362.2794176731467815
 20
322.7118518529126163
 30
0.0
 11
5362.1631897733468577
 21
324.929612296112623
 31
0.0
  0
LINE
  5
EDBE
  8
0
 10
5362.2311149147490141
 20
324.9940761662126079
 30
0.0
 11
5362.2528233571465535
 21
324.5798642426127003
 31
0.0
  0
LINE
  5
EDBF
  8
0
 10
5362.2826687293481882
 20
324.7626275789125998
 30
0.0
 11
5362.2736983401500765
 21
324.9338089119501092
 31
0.0
  0
LINE
  5
EDC0
  8
0
 10
5362.2913689907481967
 20
324.5966167013127119
 30
0.0
 11
5362.283536617847858
 21
324.7460672797125767
 31
0.0
  0
LINE
  5
EDC1
  8
0
 10
5362.9865917670476847
 20
324.1082493945127112
 30
0.0
 11
5362.986601380047432
 21
323.2502600966125783
 31
0.0
  0
LINE
  5
EDC2
  8
0
 10
5363.1731184605469025
 20
326.8169108118125905
 30
0.0
 11
5363.1731184605469025
 21
327.7381706543126256
 31
0.0
  0
LINE
  5
EDC3
  8
0
 10
5363.1849294841476876
 20
326.8050997882126012
 30
0.0
 11
5363.1849294841476876
 21
327.7499816780126025
 31
0.0
  0
LINE
  5
EDC4
  8
0
 10
5363.224299562847591
 20
326.8050997882126012
 30
0.0
 11
5363.224299562847591
 21
327.7499816780126025
 31
0.0
  0
LINE
  5
EDC5
  8
0
 10
5362.6559553330480412
 20
323.4257816502126275
 30
0.0
 11
5362.6856261113480286
 21
322.8596294730126033
 31
0.0
  0
LINE
  5
EDC6
  8
0
 10
5362.7218903960483658
 20
322.1676657009126075
 30
0.0
 11
5362.7515611743483532
 21
321.6015135237125833
 31
0.0
  0
LINE
  5
EDC7
  8
0
 10
5362.8255767957480202
 20
321.3175965288126008
 30
0.0
 11
5362.6916461990467724
 21
323.873144550812583
 31
0.0
  0
LINE
  5
EDC8
  8
0
 10
5362.9052392779476577
 20
321.3020594086127062
 30
0.0
 11
5362.7692482105476302
 21
323.8969235540125737
 31
0.0
  0
LINE
  5
EDC9
  8
0
 10
5363.0871695016476224
 20
321.3313060216127042
 30
0.0
 11
5362.9750143716491948
 21
323.4713533881126182
 31
0.0
  0
LINE
  5
EDCA
  8
0
 10
5361.9450311971168048
 20
329.9932400251066724
 30
0.0
 11
5362.0118749638777444
 21
329.7927087250204181
 31
0.0
  0
LINE
  5
EDCB
  8
0
 10
5362.9090797396884227
 20
330.8412518778906133
 30
0.0
 11
5362.8422359729484015
 21
331.0417831780137021
 31
0.0
  0
LINE
  5
EDCC
  8
0
 10
5370.622712377948119
 20
338.7073207482126236
 30
0.0
 11
5370.622712377948119
 21
338.6906174384125734
 31
0.0
  0
LINE
  5
EDCD
  8
0
 10
5362.2991027124480752
 20
324.9350210480125725
 30
0.0
 11
5362.3187877518466848
 21
324.9153360087125861
 31
0.0
  0
LINE
  5
EDCE
  8
0
 10
5362.5487642995476563
 20
324.778687053012618
 30
0.0
 11
5362.5805522811479022
 21
324.7468990714127131
 31
0.0
  0
LINE
  5
EDCF
  8
0
 10
5362.5943783030479608
 20
324.9153360087125861
 30
0.0
 11
5362.5550082243471479
 21
324.9547060874126032
 31
0.0
  0
LINE
  5
EDD0
  8
0
 10
5362.2794176731467815
 20
325.3484068748126106
 30
0.0
 11
5362.3187877518466848
 21
325.3090367961127072
 31
0.0
  0
LINE
  5
EDD1
  8
0
 10
5362.5746932636466227
 20
325.3287218354126935
 30
0.0
 11
5362.5550082243471479
 21
325.3484068748126106
 31
0.0
  0
LINE
  5
EDD2
  8
0
 10
5362.5822467236466764
 20
324.7630878947126121
 30
0.0
 11
5362.5487642995476563
 21
324.778687053012618
 31
0.0
  0
LINE
  5
EDD3
  8
0
 10
5362.9052392779476577
 20
321.3020594086127062
 30
0.0
 11
5363.0685416753476602
 21
321.3106177246125981
 31
0.0
  0
LINE
  5
EDD4
  8
0
 10
5362.8255767957480202
 20
321.3175965288126008
 30
0.0
 11
5362.9042090425482456
 21
321.321717470312592
 31
0.0
  0
LINE
  5
EDD5
  8
0
 10
5362.902148571847647
 20
321.3610335937127047
 30
0.0
 11
5362.8235163250492405
 21
321.3569126522125998
 31
0.0
  0
LINE
  5
EDD6
  8
0
 10
5362.7515611743483532
 20
321.6015135237125833
 30
0.0
 11
5362.5943783030479608
 21
321.5932759185125747
 31
0.0
  0
LINE
  5
EDD7
  8
0
 10
5362.8018813824483004
 20
321.7697319481126215
 30
0.0
 11
5362.7429071973474493
 21
321.7666412420126107
 31
0.0
  0
LINE
  5
EDD8
  8
0
 10
5362.789518558148302
 20
322.0056286886126031
 30
0.0
 11
5362.7305443730474508
 21
322.0025379825127061
 31
0.0
  0
LINE
  5
EDD9
  8
0
 10
5362.7218903960483658
 20
322.1676657009126075
 30
0.0
 11
5362.5943783030479608
 21
322.1609830752126982
 31
0.0
  0
LINE
  5
EDDA
  8
0
 10
5369.4854953696476514
 20
339.1207276655126179
 30
0.0
 11
5370.1981699207472047
 21
338.4080531144126098
 31
0.0
  0
LINE
  5
EDDB
  8
0
 10
5362.2342909064491323
 20
324.1082493945127112
 30
0.0
 11
5362.2794176731467815
 21
324.1082493945127112
 31
0.0
  0
LINE
  5
EDDC
  8
0
 10
5362.5943783030479608
 20
324.1082493945127112
 30
0.0
 11
5362.9865917670476847
 21
324.1082493945127112
 31
0.0
  0
LINE
  5
EDDD
  8
0
 10
5361.6199297838484199
 20
324.2066745914125931
 30
0.0
 11
5361.6180003502468026
 21
324.2066745914125931
 31
0.0
  0
LINE
  5
EDDE
  8
0
 10
5362.3187877518466848
 20
324.9153360087125861
 30
0.0
 11
5362.5550082243471479
 21
324.9153360087125861
 31
0.0
  0
LINE
  5
EDDF
  8
0
 10
5362.2933462267910727
 20
324.9547060874105
 30
0.0
 11
5362.5801093888803734
 21
324.9547031412197953
 31
0.0
  0
LINE
  5
EDE0
  8
0
 10
5362.5804499516480064
 20
324.9940761662126079
 30
0.0
 11
5362.270484993448008
 21
324.9940761662126079
 31
0.0
  0
LINE
  5
EDE1
  8
0
 10
5361.6180003503477565
 20
325.3090367961127072
 30
0.0
 11
5362.2006775156478398
 21
325.3090367961127072
 31
0.0
  0
LINE
  5
EDE2
  8
0
 10
5362.3187877518466848
 20
325.3090367961127072
 30
0.0
 11
5362.5550082243471479
 21
325.3090367961127072
 31
0.0
  0
LINE
  5
EDE3
  8
0
 10
5362.3187877518466848
 20
325.3484068748126106
 30
0.0
 11
5362.5550082243471479
 21
325.3484068748126106
 31
0.0
  0
LINE
  5
EDE4
  8
0
 10
5362.2794176731467815
 20
325.4271470323125754
 30
0.0
 11
5362.270484993448008
 21
325.4271470323125754
 31
0.0
  0
LINE
  5
EDE5
  8
0
 10
5362.2311149147490141
 20
325.4271470323125754
 30
0.0
 11
5362.2006775156478398
 21
325.4271470323125754
 31
0.0
  0
LINE
  5
EDE6
  8
0
 10
5362.270484993448008
 20
325.6633675047125962
 30
0.0
 11
5362.2507999541467143
 21
325.6633675047125962
 31
0.0
  0
LINE
  5
EDE7
  8
0
 10
5362.6856261113480286
 20
322.8596294730126033
 30
0.0
 11
5362.5943783030479608
 21
322.8548473780126074
 31
0.0
  0
LINE
  5
EDE8
  8
0
 10
5362.7359463194479758
 20
323.0278478974125846
 30
0.0
 11
5362.6769721343480342
 21
323.0247571913125739
 31
0.0
  0
LINE
  5
EDE9
  8
0
 10
5362.7235834951479774
 20
323.2637446379126231
 30
0.0
 11
5362.6646093100480357
 21
323.2606539318126124
 31
0.0
  0
LINE
  5
EDEA
  8
0
 10
5362.6559553330480412
 20
323.4257816502126275
 30
0.0
 11
5362.5943783030479608
 21
323.4225545348126047
 31
0.0
  0
LINE
  5
EDEB
  8
0
 10
5362.2219131887468393
 20
323.8091027788125871
 30
0.0
 11
5362.2794176731467815
 21
323.8121164611126233
 31
0.0
  0
LINE
  5
EDEC
  8
0
 10
5362.7702784458469978
 20
323.8772654923125742
 30
0.0
 11
5362.6916461990467724
 21
323.873144550812583
 31
0.0
  0
LINE
  5
EDED
  8
0
 10
5362.2794176731467815
 20
323.8515405692126023
 30
0.0
 11
5362.2198527180480596
 21
323.8484189022125861
 31
0.0
  0
LINE
  5
EDEE
  8
0
 10
5362.8088622517479962
 20
323.8989996379125955
 30
0.0
 11
5362.7692482105476302
 21
323.8969235540125737
 31
0.0
  0
LINE
  5
EDEF
  8
0
 10
5370.455679280046752
 20
338.5402876502125764
 30
0.0
 11
5370.3986096382477626
 21
338.5973572920125889
 31
0.0
  0
LINE
  5
EDF0
  8
0
 10
5370.622712377948119
 20
338.7073207482126236
 30
0.0
 11
5370.5656427361482201
 21
338.7643903899125917
 31
0.0
  0
LINE
  5
EDF1
  8
0
 10
5362.7518586180476632
 20
326.3720289221125768
 30
0.0
 11
5362.7915270234479976
 21
326.3720289221125768
 31
0.0
  0
LINE
  5
EDF2
  8
0
 10
5362.673118460547812
 20
326.3917139614126199
 30
0.0
 11
5362.7518586180476632
 21
326.3917139614126199
 31
0.0
  0
LINE
  5
EDF3
  8
0
 10
5363.1061893266469269
 20
326.6869895520126192
 30
0.0
 11
5362.8954478920468318
 21
326.6869895520126192
 31
0.0
  0
LINE
  5
EDF4
  8
0
 10
5362.6022523187466504
 20
326.7066745914127068
 30
0.0
 11
5362.6652444447481685
 21
326.7066745914127068
 31
0.0
  0
LINE
  5
EDF5
  8
0
 10
5363.1061893266469269
 20
326.7263596307126932
 30
0.0
 11
5362.9174082817489762
 21
326.7263596307126932
 31
0.0
  0
LINE
  5
EDF6
  8
0
 10
5362.922302227648288
 20
326.7381706543126256
 30
0.0
 11
5363.0943783030479608
 21
326.7381706543126256
 31
0.0
  0
LINE
  5
EDF7
  8
0
 10
5362.6140633424483894
 20
326.8365958512126213
 30
0.0
 11
5362.5943783030479608
 21
326.8365958512126213
 31
0.0
  0
LINE
  5
EDF8
  8
0
 10
5362.673118460547812
 20
327.0019501819126049
 30
0.0
 11
5362.6140633424483894
 21
327.0019501819126049
 31
0.0
  0
LINE
  5
EDF9
  8
0
 10
5362.673118460547812
 20
327.2381706543126256
 30
0.0
 11
5362.6140633424483894
 21
327.2381706543126256
 31
0.0
  0
LINE
  5
EDFA
  8
0
 10
5362.6140633424483894
 20
327.4035249851125968
 30
0.0
 11
5362.5943783030479608
 21
327.4035249851125968
 31
0.0
  0
LINE
  5
EDFB
  8
0
 10
5363.0943783030479608
 20
327.8169108118127042
 30
0.0
 11
5362.9350701621478947
 21
327.8169108118127042
 31
0.0
  0
LINE
  5
EDFC
  8
0
 10
5363.1061893266469269
 20
327.8287218354125798
 30
0.0
 11
5362.9350701621478947
 21
327.8287218354125798
 31
0.0
  0
LINE
  5
EDFD
  8
0
 10
5362.6652444447481685
 20
327.8484068748126106
 30
0.0
 11
5362.6022523187466504
 21
327.8484068748126106
 31
0.0
  0
LINE
  5
EDFE
  8
0
 10
5363.1061893266469269
 20
327.8680919142125845
 30
0.0
 11
5362.9350701621478947
 21
327.8680919142125845
 31
0.0
  0
LINE
  5
EDFF
  8
0
 10
5362.673118460547812
 20
328.0078556937127132
 30
0.0
 11
5362.5943783030479608
 21
328.0078556937127132
 31
0.0
  0
LINE
  5
EE00
  8
0
 10
5361.5813111468469288
 20
324.8991173295125918
 30
0.0
 11
5362.1631897733468577
 21
324.929612296112623
 31
0.0
  0
LINE
  5
EE01
  8
0
 10
5362.673118460547812
 20
328.8306903394126266
 30
0.0
 11
5362.5943783030479608
 21
328.8306903394126266
 31
0.0
  0
LINE
  5
EE02
  8
0
 10
5362.2794176731467815
 20
328.9310840402126246
 30
0.0
 11
5362.2006775156478398
 21
328.9310840402126246
 31
0.0
  0
LINE
  5
EE03
  8
0
 10
5362.7518586180476632
 20
328.9507690795126109
 30
0.0
 11
5362.673118460547812
 21
328.9507690795126109
 31
0.0
  0
LINE
  5
EE04
  8
0
 10
5362.9153851227483756
 20
328.9704541189125848
 30
0.0
 11
5362.7518586180476632
 21
328.9704541189125848
 31
0.0
  0
LINE
  5
EE05
  8
0
 10
5362.2006775156478398
 20
328.9704541189125848
 30
0.0
 11
5362.1362579053484296
 21
328.9704541189125848
 31
0.0
  0
LINE
  5
EE06
  8
0
 10
5362.0193449110465735
 20
329.7873246917126266
 30
0.0
 11
5362.8347459633050676
 21
329.7873246917126266
 31
0.0
  0
LINE
  5
EE07
  8
0
 10
5362.8347660257477401
 20
331.0471672114126136
 30
0.0
 11
5362.0193649735101644
 21
331.0471672114126136
 31
0.0
  0
LINE
  5
EE08
  8
0
 10
5362.3153245993480596
 20
324.7778552612126077
 30
0.0
 11
5362.2826687293481882
 21
324.7626275789125998
 31
0.0
  0
LINE
  5
EE09
  8
0
 10
5362.5746932636466227
 20
324.9350210480125725
 30
0.0
 11
5362.5550082243471479
 21
324.9153360087125861
 31
0.0
  0
LINE
  5
EE0A
  8
0
 10
5362.283536617847858
 20
324.7460672797125767
 30
0.0
 11
5362.3153245993480596
 21
324.7778552612126077
 31
0.0
  0
LINE
  5
EE0B
  8
0
 10
5362.3187877518466848
 20
324.9547060874126032
 30
0.0
 11
5362.2794176731467815
 21
324.9153360087125861
 31
0.0
  0
LINE
  5
EE0C
  8
0
 10
5362.5550082243471479
 20
325.3090367961127072
 30
0.0
 11
5362.5943783030479608
 21
325.3484068748126106
 31
0.0
  0
LINE
  5
EE0D
  8
0
 10
5370.455679280046752
 20
338.5402876502125764
 30
0.0
 11
5370.4723825898490759
 21
338.5402876502125764
 31
0.0
  0
LINE
  5
EE0E
  8
0
 10
5362.2991027124480752
 20
325.3287218354126935
 30
0.0
 11
5362.3187877518466848
 21
325.3484068748126106
 31
0.0
  0
LINE
  5
EE0F
  8
0
 10
5371.8550591139483004
 20
340.0728163236125852
 30
0.0
 11
5370.4297100124476856
 21
340.0728163236125852
 31
0.0
  0
LINE
  5
EE10
  8
0
 10
5370.622712377948119
 20
338.6906174384125734
 30
0.0
 11
5370.4723825898490759
 21
338.5402876502125764
 31
0.0
  0
LINE
  5
EE11
  8
0
 10
5370.622712377948119
 20
338.7073207482126236
 30
0.0
 11
5370.455679280046752
 21
338.5402876502125764
 31
0.0
  0
LINE
  5
EE12
  8
0
 10
5370.2093054606466467
 20
338.4080531144126098
 30
0.0
 11
5371.860626884247722
 21
340.0593745380126052
 31
0.0
  0
LINE
  5
EE13
  8
0
 10
5362.8626643697480176
 20
331.267419510912589
 30
0.0
 11
5370.100733946947912
 21
338.5054890882125846
 31
0.0
  0
LINE
  5
EE14
  8
0
 10
5362.8422702980096801
 20
329.792811700299012
 30
0.0
 11
5362.9090797396793278
 21
329.9932400251067861
 31
0.0
  0
LINE
  5
EE15
  8
0
 10
5362.01184063808887
 20
331.0416802006348007
 30
0.0
 11
5361.9450311971168048
 21
330.8412518779185234
 31
0.0
  0
LINE
  5
EE16
  8
0
 10
5369.5717958035484116
 20
339.0344272316127103
 30
0.0
 11
5362.1722890191476836
 21
331.63492044711262
 31
0.0
  0
LINE
  5
EE17
  8
0
 10
5370.4241422421482639
 20
340.070510077812628
 30
0.0
 11
5369.4854953696476514
 21
339.1318632054126283
 31
0.0
  0
ARC
  5
EE18
  8
0
 10
5362.2894519893470715
 20
321.2894994183125732
 30
0.0
 40
0.0196850394
 50
200.889673718105314
 51
239.3092152301911142
  0
ARC
  5
EE19
  8
0
 10
5363.0675114399482482
 20
321.3302757863127113
 30
0.0
 40
0.0196850394
 50
273.0000000000056275
 51
2.9999999999995999
  0
ARC
  5
EE1A
  8
0
 10
5361.9093389329491401
 20
324.2066745914125931
 30
0.0
 40
0.2913385827
 50
179.9999999997980069
 51
192.2401209985530954
  0
ARC
  5
EE1B
  8
0
 10
5361.8463468069476221
 20
327.7499816780126025
 30
0.0
 40
0.1181102362
 50
97.7947618428014209
 51
180.0000000000977138
  0
ARC
  5
EE1C
  8
0
 10
5362.2933460245467359
 20
324.9350210480125725
 30
0.0
 40
0.0196850394
 50
89.9994113459472658
 51
183.5303076084971963
  0
ARC
  5
EE1D
  8
0
 10
5362.2797078108478672
 20
324.5807573931126058
 30
0.0
 40
0.0196850394
 50
264.9184743782133182
 51
53.6733524480148176
  0
ARC
  5
EE1E
  8
0
 10
5362.2797078108478672
 20
324.5807573931126058
 30
0.0
 40
0.0196850394
 50
262.6233156326044877
 51
263.2457048042955989
  0
ARC
  5
EE1F
  8
0
 10
5362.2724946862481374
 20
324.5806314875126191
 30
0.0
 40
0.0196850394
 50
182.282357348801014
 51
285.6822320288029005
  0
ARC
  5
EE20
  8
0
 10
5362.1362579053484296
 20
328.9507690795126109
 30
0.0
 40
0.0196850394
 50
90.0000000040124775
 51
162.1103262584931883
  0
ARC
  5
EE21
  8
0
 10
5363.2252094029481668
 20
325.4665171110127062
 30
0.0
 40
0.9940944881999998
 50
168.5788137249979002
 51
179.9999999997980069
  0
ARC
  5
EE22
  8
0
 10
5363.4408349959476254
 20
326.3720289221125768
 30
0.0
 40
0.6299212598000001
 50
148.1931673843089925
 51
178.2634984240991116
  0
ARC
  5
EE23
  8
0
 10
5363.4572803702476449
 20
323.9329817916125762
 30
0.0
 40
0.6299212598000001
 50
184.7365015750993962
 51
214.806832615692997
  0
ARC
  5
EE24
  8
0
 10
5362.738219768448289
 20
326.8077848276126929
 30
0.0
 40
0.1968503937
 50
328.1931673815914792
 51
0.0000000012994983
  0
ARC
  5
EE25
  8
0
 10
5362.7784337545490416
 20
323.4610510346125807
 30
0.0
 40
0.1968503937
 50
2.9999999987024082
 51
34.8068326184038099
  0
ARC
  5
EE26
  8
0
 10
5363.1061893266469269
 20
326.8050997882126012
 30
0.0
 40
0.1181102362
 50
270.0
 51
0.0
  0
ARC
  5
EE27
  8
0
 10
5363.1061893266469269
 20
327.7499816780126025
 30
0.0
 40
0.1181102362
 50
0.0
 51
90.0
  0
ARC
  5
EE28
  8
0
 10
5362.9880790904480818
 20
327.2775407331125734
 30
0.0
 40
0.0826771654
 50
230.0713353231060978
 51
129.9324199237831863
  0
ARC
  5
EE29
  8
0
 10
5363.0943783030479608
 20
327.7381706543126256
 30
0.0
 40
0.0787401575
 50
0.0
 51
90.0
  0
ARC
  5
EE2A
  8
0
 10
5363.0943783030479608
 20
326.8169108118125905
 30
0.0
 40
0.0787401575
 50
270.0
 51
0.0000000016023889
  0
ARC
  5
EE2B
  8
0
 10
5363.1061893266469269
 20
327.7499816780126025
 30
0.0
 40
0.0787401575
 50
0.0
 51
90.0
  0
ARC
  5
EE2C
  8
0
 10
5363.1061893266469269
 20
326.8050997882126012
 30
0.0
 40
0.0787401575
 50
270.0
 51
0.0
  0
ARC
  5
EE2D
  8
0
 10
5362.5804499516480064
 20
324.9350210480125725
 30
0.0
 40
0.0590551181
 50
354.0247548117262113
 51
90.0
  0
ARC
  5
EE2E
  8
0
 10
5362.7915270234479976
 20
326.3917139614126199
 30
0.0
 40
0.0196850394
 50
270.0
 51
358.2634984226978077
  0
ARC
  5
EE2F
  8
0
 10
5362.9153851227483756
 20
328.9507690795126109
 30
0.0
 40
0.0196850394
 50
0.0
 51
90.0
  0
ARC
  5
EE30
  8
0
 10
5362.5829420536483667
 20
324.5806314875126191
 30
0.0
 40
0.0196850394
 50
261.3986280549204935
 51
354.0247548130973883
  0
ARC
  5
EE31
  8
0
 10
5362.5757377171466942
 20
324.5802539242126272
 30
0.0
 40
0.0196850394
 50
123.6679523345996046
 51
282.1567429501856168
  0
ARC
  5
EE32
  8
0
 10
5362.5804499516480064
 20
324.9350210480125725
 30
0.0
 40
0.0196850394
 50
354.0247548079382227
 51
90.9913001622656026
  0
ARC
  5
EE33
  8
0
 10
5362.8098924871492272
 20
323.8793415762127097
 30
0.0
 40
0.0196850394
 50
4.7365016034987182
 51
93.0000000000055991
  0
ARC
  5
EE34
  8
0
 10
5362.6652444447481685
 20
327.8405328591126136
 30
0.0
 40
0.0078740157
 50
0.0000000005015608
 51
90.0
  0
ARC
  5
EE35
  8
0
 10
5362.6652444447481685
 20
326.7145486071127038
 30
0.0
 40
0.0078740157
 50
270.0
 51
359.9999999994984137
  0
ARC
  5
EE36
  8
0
 10
5362.6022523187466504
 20
326.7145486071127038
 30
0.0
 40
0.0078740157
 50
180.0000000004982894
 51
270.0
  0
ARC
  5
EE37
  8
0
 10
5362.6022523187466504
 20
327.8405328591126136
 30
0.0
 40
0.0078740157
 50
90.0
 51
179.9999999994984137
  0
ARC
  5
EE38
  8
0
 10
5371.9245034937466698
 20
324.9667782331126205
 30
0.0
 40
10.3326185199000005
 50
182.9927261981979996
 51
200.8896737204991894
  0
ARC
  5
EE39
  8
0
 10
5371.9505587856474449
 20
325.7827894854127067
 30
0.0
 40
10.3326184959000003
 50
162.1103262585990876
 51
180.0072738018000109
  0
ARC
  5
EE3A
  8
0
 10
5362.4506775156469303
 20
331.3565319506125775
 30
0.0
 40
0.3937007874
 50
135.0000000000046043
 51
180.0
  0
ARC
  5
EE3B
  8
0
 10
5362.1317798778491124
 20
330.7790023176127079
 30
0.0
 40
0.1968503937
 50
161.5650511599247068
 51
180.0
  0
ARC
  5
EE3C
  8
0
 10
5362.1317798778491124
 20
330.0554895854127153
 30
0.0
 40
0.1968503937
 50
180.0
 51
198.4349488400783059
  0
ARC
  5
EE3D
  8
0
 10
5362.7223310589479297
 20
330.7790023176127079
 30
0.0
 40
0.1968503937
 50
0.0
 51
18.4349488315002006
  0
ARC
  5
EE3E
  8
0
 10
5362.7223310589479297
 20
330.0554895854127153
 30
0.0
 40
0.1968503937
 50
341.5650511599340007
 51
0.0
  0
ARC
  5
EE3F
  8
0
 10
5362.8347660257477401
 20
331.0392931956125722
 30
0.0
 40
0.0078740157
 50
18.4349488314311891
 51
90.0
  0
ARC
  5
EE40
  8
0
 10
5362.0193449110465735
 20
329.7951987074126237
 30
0.0
 40
0.0078740157
 50
198.4349488400598034
 51
270.0
  0
ARC
  5
EE41
  8
0
 10
5362.0193441347482803
 20
331.0392932233125975
 30
0.0
 40
0.0078740157
 50
89.8483652333383844
 51
162.3533350788661949
  0
ARC
  5
EE42
  8
0
 10
5362.8347668020478523
 20
329.7951986798126995
 30
0.0
 40
0.0078740157
 50
269.848365377058883
 51
342.3533183452855724
  0
ARC
  5
EE43
  8
0
 10
5363.0018586180476632
 20
331.1282252627127036
 30
0.0
 40
0.1968503937
 50
135.0000000000046043
 51
180.0
  0
ARC
  5
EE44
  8
0
 10
5369.4910631395478049
 20
339.1262954354127146
 30
0.0
 40
0.0078740157
 50
135.0000000000046043
 51
224.999999999785814
  0
ARC
  5
EE45
  8
0
 10
5370.2037376906482677
 20
338.4136208843127065
 30
0.0
 40
0.0078740157
 50
225.0000000000829061
 51
315.0000000000920863
  0
ARC
  5
EE46
  8
0
 10
5370.4297100120465984
 20
340.0649423079125881
 30
0.0
 40
0.0078740157
 50
89.999997391415107
 51
135.0000000000046043
  0
ARC
  5
EE47
  8
0
 10
5371.8550591142466146
 20
340.0649423079125881
 30
0.0
 40
0.0078740157
 50
315.0000000000046043
 51
90.0000026104087567
  0
LINE
  5
EE48
  8
0
 10
5362.673118460547812
 20
339.9941163236126727
 30
0.0
 11
5362.673118460547812
 21
337.9468320716126755
 31
0.0
  0
LINE
  5
EE49
  8
0
 10
5364.3266617676481474
 20
340.0728163236126989
 30
0.0
 11
5362.7518184605478382
 21
340.0728163236126989
 31
0.0
  0
ARC
  5
EE4A
  8
0
 10
5363.6504584590484228
 20
341.0570682921127172
 30
0.0
 40
1.259842519700012
 50
270.0
 51
302.1622634815090009
  0
LINE
  5
EE4B
  8
0
 10
5363.0078090117467582
 20
339.7972257724126735
 30
0.0
 11
5363.8542208227481751
 21
339.7972257724126735
 31
0.0
  0
LINE
  5
EE4C
  8
0
 10
5362.9487090117490879
 20
339.7381257724126726
 30
0.0
 11
5362.9487090117490879
 21
338.6230353802126842
 31
0.0
  0
ARC
  5
EE4D
  8
0
 10
5363.0078090117467582
 20
339.7381257724126726
 30
0.0
 40
0.0591
 50
90.0
 51
180.0
  0
LINE
  5
EE4E
  8
0
 10
5364.3266617676481474
 20
340.0728163236126989
 30
0.0
 11
5364.3266617676481474
 21
340.0006301033585032
 31
0.0
  0
ARC
  5
EE4F
  8
0
 10
5364.3147617676477239
 20
340.0006301033583895
 30
0.0
 40
0.0119
 50
302.1622634811282069
 51
0.0000000002572942
  0
LINE
  5
EE50
  8
0
 10
5363.8345208227492549
 20
339.7381706543126825
 30
0.0
 11
5363.0274641298483402
 21
339.7381706543126825
 31
0.0
  0
LINE
  5
EE51
  8
0
 10
5363.0077641298466915
 20
339.7578706543126827
 30
0.0
 11
5363.0077641298466915
 21
339.7972257553705049
 31
0.0
  0
LINE
  5
EE52
  8
0
 10
5363.8542208227481751
 20
339.7972257724126735
 30
0.0
 11
5363.8542208227481751
 21
339.7578706543126827
 31
0.0
  0
LINE
  5
EE53
  8
0
 10
5363.8148507439482273
 20
339.8079972968889138
 30
0.0
 11
5363.8148507439482273
 21
339.7972257724126735
 31
0.0
  0
ARC
  5
EE54
  8
0
 10
5363.8345208227492549
 20
339.7578706543126827
 30
0.0
 40
0.0197
 50
270.0
 51
359.9999999999772058
  0
ARC
  5
EE55
  8
0
 10
5363.0274641298483402
 20
339.7578706543126827
 30
0.0
 40
0.0197
 50
180.0000000000032117
 51
269.9999999999478746
  0
LINE
  5
EE56
  8
0
 10
5362.7453599252976346
 20
337.9468320716126755
 30
0.0
 11
5362.673118460547812
 21
337.9468320716126755
 31
0.0
  0
ARC
  5
EE57
  8
0
 10
5361.6888664920479641
 20
338.6230353802126842
 30
0.0
 40
1.259842519700114
 50
327.8352002240595198
 51
0.0000000181897194
  0
ARC
  5
EE58
  8
0
 10
5362.7453599252976346
 20
337.9586320716127261
 30
0.0
 40
0.0118
 50
270.0
 51
327.8352002237750185
  0
ARC
  5
EE59
  8
0
 10
5362.7518184605478382
 20
339.9941163236126727
 30
0.0
 40
0.0787
 50
90.0
 51
179.9999999999967031
  0
LINE
  5
EE5A
  8
0
 10
5362.7553488658322749
 20
337.9523502671727897
 30
0.0
 11
5362.7553488658322749
 21
339.9305562303651982
 31
0.0
  0
ARC
  5
EE5B
  8
0
 10
5362.8153488658308561
 20
339.9305562303651982
 30
0.0
 40
0.06
 50
90.0
 51
180.0
  0
LINE
  5
EE5C
  8
0
 10
5364.3210963617875677
 20
339.9905562303652005
 30
0.0
 11
5362.8153488658308561
 21
339.9905562303652005
 31
0.0
  0
LINE
  5
EE5D
  8
0
 10
5362.7729224589602381
 20
339.9729826372363846
 30
0.0
 11
5362.9660163599182852
 21
339.7799131419525906
 31
0.0
  0
LINE
  5
EE5E
  8
0
 10
5362.623004944589411
 20
339.915382302612727
 30
0.0
 11
5362.2507999599047253
 21
339.915382302612727
 31
0.0
  0
ARC
  5
EE5F
  8
0
 10
5362.4369024522484324
 20
339.9153360086127122
 30
0.0
 40
0.2057875374999938
 50
0.024167760364928
 51
180.0000000007034942
  0
LINE
  5
EE60
  8
0
 10
5362.2311149147490141
 20
339.9153360086100975
 30
0.0
 11
5362.252752563436843
 21
339.5024748786894975
 31
0.0
  0
LINE
  5
EE61
  8
0
 10
5362.6426899714406318
 20
339.9154228112320766
 30
0.0
 11
5362.6210648761289121
 21
339.5028742175978778
 31
0.0
  0
LINE
  5
EE62
  8
0
 10
5362.6000959582006544
 20
339.8552455505533771
 30
0.0
 11
5362.5912064628182634
 21
339.6838504823992935
 31
0.0
  0
LINE
  5
EE63
  8
0
 10
5362.5903450268042434
 20
339.6672414536566862
 30
0.0
 11
5362.5826082362018496
 21
339.5180712594712986
 31
0.0
  0
LINE
  5
EE64
  8
0
 10
5362.5804224016856097
 20
339.8759659299126952
 30
0.0
 11
5362.2933625880696127
 21
339.8759659299126952
 31
0.0
  0
LINE
  5
EE65
  8
0
 10
5362.2736895829493733
 20
339.8552349742943761
 30
0.0
 11
5362.2826689739285939
 21
339.6838875354627021
 31
0.0
  0
LINE
  5
EE66
  8
0
 10
5362.2835368056339576
 20
339.667327309899008
 30
0.0
 11
5362.291368692773176
 21
339.5178768844372144
 31
0.0
  0
ARC
  5
EE67
  8
0
 10
5362.5804224016856097
 20
339.8562659299126949
 30
0.0
 40
0.0197
 50
357.0309845938969033
 51
90.0
  0
ARC
  5
EE68
  8
0
 10
5362.2933625880696127
 20
339.8562659299126949
 30
0.0
 40
0.0197
 50
90.0
 51
182.9998173345967132
  0
ARC
  5
EE69
  8
0
 10
5362.4369024522484324
 20
339.9153360086127122
 30
0.0
 40
0.1861024981000013
 50
0.0142526342800411
 51
179.9857473657199876
  0
ARC
  5
EE6A
  8
0
 10
5362.4369024522484324
 20
339.9153360086127122
 30
0.0
 40
0.0118110235999984
 50
0.2245747445816398
 51
179.775425255418412
  0
ARC
  5
EE6B
  8
0
 10
5362.2747767133723755
 20
339.5033660736937122
 30
0.0
 40
0.0220421734117566
 50
182.3171777785013035
 51
41.1718966154611934
  0
ARC
  5
EE6C
  8
0
 10
5362.5990281911235797
 20
339.5033660736937122
 30
0.0
 40
0.0220421734117566
 50
138.1533934033107869
 51
358.721377554969024
  0
LINE
  5
EE6D
  8
0
 10
5362.1337160540433615
 20
340.0728744701436881
 30
0.0
 11
5361.6944859446566625
 21
340.0728744701436881
 31
0.0
  0
LINE
  5
EE6E
  8
0
 10
5362.1416160540429701
 20
339.6082793044877235
 30
0.0
 11
5362.1416160540429701
 21
340.0649744701436816
 31
0.0
  0
LINE
  5
EE6F
  8
0
 10
5362.1927775156482312
 20
339.6003793044876033
 30
0.0
 11
5362.1495160540416691
 21
339.6003793044876033
 31
0.0
  0
LINE
  5
EE70
  8
0
 10
5362.2006775156478398
 20
339.5924793044877106
 30
0.0
 11
5362.2006775156478398
 21
337.9547320716126819
 31
0.0
  0
ARC
  5
EE71
  8
0
 10
5362.1927775156482312
 20
339.5924793044877106
 30
0.0
 40
0.0079
 50
0.0000000000521102
 51
89.9999999998436664
  0
ARC
  5
EE72
  8
0
 10
5362.1495160540416691
 20
339.6082793044877235
 30
0.0
 40
0.0079
 50
180.0000000000651141
 51
269.999999999895806
  0
ARC
  5
EE73
  8
0
 10
5362.1337160540433615
 20
340.0649744701436816
 30
0.0
 40
0.0079
 50
359.9999999999740226
 51
90.0
  0
LINE
  5
EE74
  8
0
 10
5362.1362687968876344
 20
337.9468320716126755
 30
0.0
 11
5362.1927775156482312
 21
337.9468320716126755
 31
0.0
  0
ARC
  5
EE75
  8
0
 10
5371.9505588158617684
 20
341.1344967098241909
 30
0.0
 40
10.3326185260760894
 50
186.0185956189930891
 51
197.8896132040354985
  0
ARC
  5
EE76
  8
0
 10
5361.6944859446566625
 20
340.0531744701436878
 30
0.0
 40
0.0197
 50
90.0
 51
186.0185956188796865
  0
ARC
  5
EE77
  8
0
 10
5362.1362687968876344
 20
337.9665320716127894
 30
0.0
 40
0.0197
 50
197.8896132041475937
 51
270.0
  0
ARC
  5
EE78
  8
0
 10
5362.1927775156482312
 20
337.9547320716126819
 30
0.0
 40
0.0079
 50
270.0
 51
359.999999999895806
  0
LINE
  5
EE79
  8
0
 10
5362.1175212897805977
 20
337.9604805447617082
 30
0.0
 11
5362.1175212897805977
 21
340.0728744701436881
 31
0.0
  0
LINE
  5
EE7A
  8
0
 10
5362.2794176731467815
 20
339.7459298346468017
 30
0.0
 11
5362.2794176731467815
 21
339.8365958511129179
 31
0.0
  0
LINE
  5
EE7B
  8
0
 10
5362.5943783030479608
 20
339.7450055591460796
 30
0.0
 11
5362.5943783030479608
 21
339.8365958511125768
 31
0.0
  0
LINE
  5
EE7C
  8
0
 10
5362.5943783030479608
 20
339.8365958511125768
 30
0.0
 11
5362.5550082243471479
 21
339.8759659299126952
 31
0.0
  0
LINE
  5
EE7D
  8
0
 10
5362.2794176731467815
 20
339.8365958511129179
 30
0.0
 11
5362.3187877518466848
 21
339.8759659299126952
 31
0.0
  0
LINE
  5
EE7E
  8
0
 10
5362.673118460547812
 20
337.9665171110127062
 30
0.0
 11
5362.5943783030479608
 21
337.9665171110127062
 31
0.0
  0
LINE
  5
EE7F
  8
0
 10
5362.2794176731467815
 20
337.9665171110127062
 30
0.0
 11
5362.2006775156478398
 21
337.9665171110127062
 31
0.0
  0
LINE
  5
EE80
  8
0
 10
5362.673118460547812
 20
339.5806903393126959
 30
0.0
 11
5362.6251438648223484
 21
339.5806903393126959
 31
0.0
  0
LINE
  5
EE81
  8
0
 10
5362.2486533675173632
 20
339.5806903393126959
 30
0.0
 11
5362.2006775156478398
 21
339.5806903393126959
 31
0.0
  0
LINE
  5
EE82
  8
0
 10
5362.5912064628182634
 20
339.6838504823992935
 30
0.0
 11
5362.5584713767466383
 21
339.6991151037126997
 31
0.0
  0
LINE
  5
EE83
  8
0
 10
5362.5584713767466383
 20
339.6991151037126997
 30
0.0
 11
5362.5903450268042434
 21
339.6672414536566862
 31
0.0
  0
LINE
  5
EE84
  8
0
 10
5362.2826689739285939
 20
339.6838875354627021
 30
0.0
 11
5362.3153245993480596
 21
339.6991151037126997
 31
0.0
  0
LINE
  5
EE85
  8
0
 10
5362.3153245993480596
 20
339.6991151037126997
 30
0.0
 11
5362.2835368056339576
 21
339.667327309899008
 31
0.0
  0
LINE
  5
EE86
  8
0
 10
5362.3187877518457753
 20
339.8365958511126905
 30
0.0
 11
5362.5550082243471479
 21
339.8365958511126905
 31
0.0
  0
LINE
  5
EE87
  8
0
 10
5362.2952666701794442
 20
339.8524448481841773
 30
0.0
 11
5362.3187877518457753
 21
339.8365958511126905
 31
0.0
  0
LINE
  5
EE88
  8
0
 10
5362.5550082243471479
 20
339.8365958511126905
 30
0.0
 11
5362.5746932636975544
 21
339.8562808905126076
 31
0.0
  0
CIRCLE
  5
EE89
  8
0
 10
5362.427024604552571
 20
330.4172459553598173
 30
0.0
 40
0.1181102362
  0
CIRCLE
  5
EE8A
  8
0
 10
5362.427024604552571
 20
330.4172459553598173
 30
0.0
 40
0.081200166590337
  0
CIRCLE
  5
EE8B
  8
0
 10
5395.8611152495532224
 20
296.9831553102599173
 30
0.0
 40
0.1181102362
  0
CIRCLE
  5
EE8C
  8
0
 10
5395.8611152495532224
 20
296.9831553102599173
 30
0.0
 40
0.081200166590337
  0
LINE
  5
EE8D
  8
0
 10
5361.7282057069533039
 20
301.6565929795772263
 30
0.0
 11
5361.7282057069533039
 21
310.8512443999424022
 31
0.0
  0
LINE
  5
EE8E
  8
0
 10
5362.1219064943516059
 20
310.7238730534181173
 30
0.0
 11
5362.1219064943516059
 21
301.7839643261015112
 31
0.0
  0
LINE
  5
EE8F
  8
0
 10
5362.2342600426527497
 20
301.8639647640202952
 30
0.0
 11
5362.2342600426527497
 21
310.6438726154992196
 31
0.0
  0
LINE
  5
EE90
  8
0
 10
5362.9865609032531211
 20
310.7593049215993801
 30
0.0
 11
5362.9865609032531211
 21
301.7485319847115193
 31
0.0
  0
LINE
  5
EE91
  8
0
 10
5362.0519543658192561
 20
312.4138730490922171
 30
0.0
 11
5362.1220675051827129
 21
312.4138730490922171
 31
0.0
  0
LINE
  5
EE92
  8
0
 10
5359.2982790397118151
 20
311.9688757052661003
 30
0.0
 11
5359.9719134500837754
 21
311.9688757052661003
 31
0.0
  0
LINE
  5
EE93
  8
0
 10
5359.2982790364785615
 20
311.168875705266089
 30
0.0
 11
5359.4085940043632945
 21
311.168875705266089
 31
0.0
  0
LINE
  5
EE94
  8
0
 10
5359.8745740609037966
 20
311.168875705266089
 30
0.0
 11
5359.9720218123256927
 21
311.168875705266089
 31
0.0
  0
LINE
  5
EE95
  8
0
 10
5362.210397997668224
 20
310.6438726154992196
 30
0.0
 11
5362.240014238646836
 21
310.6438726154992196
 31
0.0
  0
LINE
  5
EE96
  8
0
 10
5362.0516451718121971
 20
310.7238730534181173
 30
0.0
 11
5362.1219092212977557
 21
310.7238730534181173
 31
0.0
  0
ARC
  5
EE97
  8
0
 10
5359.9046502115534167
 20
311.5688757027660927
 30
0.0
 40
0.7300000000000246
 50
147.1119318003547107
 51
212.8880677271993136
  0
ARC
  5
EE98
  8
0
 10
5359.2982790397118151
 20
311.9609757052667192
 30
0.0
 40
0.0079
 50
89.9999999989056647
 51
147.1119318030067973
  0
ARC
  5
EE99
  8
0
 10
5359.2982790364785615
 20
311.1767757052655838
 30
0.0
 40
0.0079
 50
212.8880677243402886
 51
270.0000000009900987
  0
LINE
  5
EE9A
  8
0
 10
5359.9771318292932847
 20
311.1707509458016148
 30
0.0
 11
5360.0746594551656017
 21
311.2534708993217123
 31
0.0
  0
LINE
  5
EE9B
  8
0
 10
5360.0746594551656017
 20
311.9396420279471727
 30
0.0
 11
5360.0746594551656017
 21
311.1981101275849824
 31
0.0
  0
LINE
  5
EE9C
  8
0
 10
5360.0746594551656017
 20
311.884953253111405
 30
0.0
 11
5359.9769958692277214
 21
311.9670237640987125
 31
0.0
  0
ARC
  5
EE9D
  8
0
 10
5359.9719134500837754
 20
311.9609757052660939
 30
0.0
 40
0.0079
 50
49.958357838080353
 51
89.9999999998957776
  0
ARC
  5
EE9E
  8
0
 10
5359.9720218123256927
 20
311.1767757052660954
 30
0.0
 40
0.0079
 50
270.0000000000521254
 51
310.3035919272721799
  0
LINE
  5
EE9F
  8
0
 10
5359.2916451460432654
 20
311.1724860085753903
 30
0.0
 11
5359.2916451493119894
 21
311.9652654020117097
 31
0.0
  0
LINE
  5
EEA0
  8
0
 10
5359.9769958692277214
 20
311.9670237640987125
 30
0.0
 11
5359.9771318292932847
 21
311.1707509458016148
 31
0.0
  0
ARC
  5
EEA1
  8
0
 10
5359.681935855138363
 20
305.2109278866432192
 30
0.0
 40
6.0000325562987138
 50
66.7695656688604373
 51
74.335464037711489
  0
ARC
  5
EEA2
  8
0
 10
5359.6819558778461214
 20
305.210999289318579
 30
0.0
 40
5.9999583993645746
 50
74.335464037711489
 51
83.786201274717385
  0
ARC
  5
EEA3
  8
0
 10
5359.6798810240497914
 20
305.1919426819908949
 30
0.0
 40
6.0191276273384311
 50
83.786201274717385
 51
86.2394241138612188
  0
ARC
  5
EEA4
  8
0
 10
5362.0516451718121971
 20
310.7317730534182942
 30
0.0
 40
0.0079
 50
246.769565669084102
 51
269.999999999895806
  0
LINE
  5
EEA5
  8
0
 10
5362.1300142508662248
 20
310.6668402863106735
 30
0.0
 11
5362.1300142508662248
 21
312.470911869221311
 31
0.0
  0
ARC
  5
EEA6
  8
0
 10
5362.210206116066729
 20
310.8327267013956998
 30
0.0
 40
0.1888541833749502
 50
246.452730620225708
 51
270.0582142669209134
  0
ARC
  5
EEA7
  8
0
 10
5362.1379142508676523
 20
310.6668402863109009
 30
0.0
 40
0.0079
 50
180.0000000021495055
 51
246.4501297377998128
  0
LINE
  5
EEA8
  8
0
 10
5362.210397997668224
 20
312.4938795400329923
 30
0.0
 11
5362.240014238646836
 21
312.4938795400329923
 31
0.0
  0
ARC
  5
EEA9
  8
0
 10
5359.681935855138363
 20
317.9268242688891064
 30
0.0
 40
6.0000325562987138
 50
285.6645359622884826
 51
293.2304343311395769
  0
ARC
  5
EEAA
  8
0
 10
5359.6819558778461214
 20
317.9267528662136897
 30
0.0
 40
5.9999583993645746
 50
276.2137987252825724
 51
285.6645359622884826
  0
ARC
  5
EEAB
  8
0
 10
5359.6798810240497914
 20
317.9458094735414875
 30
0.0
 40
6.0191276273384311
 50
273.7605758861387812
 51
276.2137987252825724
  0
ARC
  5
EEAC
  8
0
 10
5362.0516451718121971
 20
312.4059791021139745
 30
0.0
 40
0.0079
 50
87.7569572605527526
 51
113.230434330915898
  0
ARC
  5
EEAD
  8
0
 10
5362.210206116066729
 20
312.3050254541366257
 30
0.0
 40
0.1888541833749502
 50
89.9417857330791151
 51
113.5472693797743062
  0
ARC
  5
EEAE
  8
0
 10
5362.1379142508676523
 20
312.470911869221311
 30
0.0
 40
0.0079
 50
113.5498702622002014
 51
179.9999999978471976
  0
ARC
  5
EEAF
  8
0
 10
5362.1220754536007007
 20
312.4219268538790857
 30
0.0
 40
0.0080538087131639
 50
269.9434247595013971
 51
350.3054937965633826
  0
ARC
  5
EEB0
  8
0
 10
5362.1221282609858463
 20
310.7159704431380192
 30
0.0
 40
0.0079056452943837
 50
4.041104596299891
 51
91.5876826628948351
  0
ARC
  5
EEB1
  8
0
 10
5359.5431395817558951
 20
312.228453980051313
 30
0.0
 40
0.832047620386098
 50
309.7030995284769119
 51
341.3258764009150923
  0
ARC
  5
EEB2
  8
0
 10
5359.5833421261813783
 20
310.929103372975419
 30
0.0
 40
0.7876422344692235
 50
18.2456395592683087
 51
51.4071286488653101
  0
LINE
  5
EEB3
  8
0
 10
5362.0485291741833862
 20
310.724513538367205
 30
0.0
 11
5362.0485291741833862
 21
312.4132386171651206
 31
0.0
  0
LINE
  5
EEB4
  8
0
 10
5362.240014238646836
 20
312.4938795400329923
 30
0.0
 11
5362.240014238646836
 21
310.6438726154992196
 31
0.0
  0
LINE
  5
EEB5
  8
0
 10
5362.240014238646836
 20
312.4860055487598061
 30
0.0
 11
5362.2793868093531273
 21
312.4860055487598061
 31
0.0
  0
LINE
  5
EEB6
  8
0
 10
5362.240014238646836
 20
310.6517535802598218
 30
0.0
 11
5362.2793868093531273
 21
310.6517535802598218
 31
0.0
  0
LINE
  5
EEB7
  8
0
 10
5360.0351442336241234
 20
310.7735778107373221
 30
0.0
 11
5360.0351442336241234
 21
301.73425956878242
 31
0.0
  0
LINE
  5
EEB8
  8
0
 10
5359.2556426588253089
 20
310.7814778107372717
 30
0.0
 11
5360.0272442336236054
 21
310.7814778107372717
 31
0.0
  0
LINE
  5
EEB9
  8
0
 10
5359.2477426588238814
 20
310.7735778107373221
 30
0.0
 11
5359.2477426588238814
 21
301.73425956878242
 31
0.0
  0
ARC
  5
EEBA
  8
0
 10
5359.2556426588253089
 20
310.7735778107373221
 30
0.0
 40
0.0079
 50
90.0000000001563336
 51
179.9999999999608917
  0
ARC
  5
EEBB
  8
0
 10
5360.0272442336236054
 20
310.7735778107373221
 30
0.0
 40
0.0079
 50
0.0000000000390827
 51
89.9999999999478888
  0
LINE
  5
EEBC
  8
0
 10
5359.4150654934528575
 20
311.1730418074814111
 30
0.0
 11
5359.4150654934528575
 21
310.7893778107372214
 31
0.0
  0
LINE
  5
EEBD
  8
0
 10
5359.8678213989524011
 20
311.1732190773579987
 30
0.0
 11
5359.8678213989524011
 21
310.7893778107372214
 31
0.0
  0
ARC
  5
EEBE
  8
0
 10
5359.6415840326326361
 20
310.8140658469380924
 30
0.0
 40
0.4244695381771562
 50
56.708629069213508
 51
123.2913709307864991
  0
ARC
  5
EEBF
  8
0
 10
5359.4071654934532489
 20
310.7893778107372214
 30
0.0
 40
0.0079
 50
270.0
 51
0.0
  0
ARC
  5
EEC0
  8
0
 10
5359.8757213989529191
 20
310.7893778107372214
 30
0.0
 40
0.0079
 50
180.0
 51
270.0
  0
LINE
  5
EEC1
  8
0
 10
5362.9003769594837649
 20
312.4138728124834756
 30
0.0
 11
5362.8302638201203081
 21
312.4138728124834756
 31
0.0
  0
LINE
  5
EEC2
  8
0
 10
5362.741933327634797
 20
310.6438723788905918
 30
0.0
 11
5362.712317086656185
 21
310.6438723788905918
 31
0.0
  0
LINE
  5
EEC3
  8
0
 10
5362.9006861534917334
 20
310.7238728168094894
 30
0.0
 11
5362.8304221040052653
 21
310.7238728168094894
 31
0.0
  0
ARC
  5
EEC4
  8
0
 10
5365.270395470164658
 20
305.2109276500344777
 30
0.0
 40
6.0000325562987138
 50
105.6645359622884968
 51
113.2304343311395058
  0
ARC
  5
EEC5
  8
0
 10
5365.2703754474578091
 20
305.2109990527100081
 30
0.0
 40
5.9999583993645746
 50
93.7527007418045031
 51
105.6645359622884968
  0
ARC
  5
EEC6
  8
0
 10
5365.2724503012523201
 20
305.1919424453822103
 30
0.0
 40
6.0191276273384311
 50
94.1362097053318649
 51
96.213798725282615
  0
ARC
  5
EEC7
  8
0
 10
5362.9006861534917334
 20
310.7317728168096096
 30
0.0
 40
0.0079
 50
270.000000000104194
 51
293.230434330915898
  0
LINE
  5
EEC8
  8
0
 10
5362.8223170744367962
 20
310.6668400497019888
 30
0.0
 11
5362.8223170744367962
 21
312.4709116326126832
 31
0.0
  0
ARC
  5
EEC9
  8
0
 10
5362.742125209236292
 20
310.8327264647870152
 30
0.0
 40
0.1888541833749502
 50
269.9417857330790866
 51
293.5472693797743204
  0
ARC
  5
EECA
  8
0
 10
5362.8144170744353687
 20
310.6668400497022731
 30
0.0
 40
0.0079
 50
293.5498702622002725
 51
359.999999997847226
  0
LINE
  5
EECB
  8
0
 10
5362.741933327634797
 20
312.4938793034244213
 30
0.0
 11
5362.712317086656185
 21
312.4938793034244213
 31
0.0
  0
ARC
  5
EECC
  8
0
 10
5365.270395470164658
 20
317.9268240322804218
 30
0.0
 40
6.0000325562987138
 50
246.7695656688603947
 51
254.3354640377114038
  0
ARC
  5
EECD
  8
0
 10
5365.2703754474578091
 20
317.926752629605005
 30
0.0
 40
5.9999583993645746
 50
254.3354640377114038
 51
263.7862012747174276
  0
ARC
  5
EECE
  8
0
 10
5365.2724503012523201
 20
317.9458092369328028
 30
0.0
 40
6.0191276273384311
 50
263.7862012747174276
 51
266.2394747681087779
  0
ARC
  5
EECF
  8
0
 10
5362.9006861534917334
 20
312.4059788655054035
 30
0.0
 40
0.0079
 50
66.7695656690840735
 51
92.2430427394993444
  0
ARC
  5
EED0
  8
0
 10
5362.742125209236292
 20
312.3050252175278843
 30
0.0
 40
0.1888541833749502
 50
66.4527306202257222
 51
90.0582142669209134
  0
ARC
  5
EED1
  8
0
 10
5362.8144170744353687
 20
312.4709116326126832
 30
0.0
 40
0.0079
 50
0.0000000021495461
 51
66.4501297377997417
  0
ARC
  5
EED2
  8
0
 10
5362.8302558717032298
 20
312.421926617270401
 30
0.0
 40
0.0080538087131639
 50
189.6945062034334057
 51
270.0565752404984892
  0
ARC
  5
EED3
  8
0
 10
5362.8302030643162652
 20
310.7159702065293914
 30
0.0
 40
0.0079056452943837
 50
88.4123173371051507
 51
175.9588954037000974
  0
ARC
  5
EED4
  8
0
 10
5365.409191743547126
 20
312.2284537434426284
 30
0.0
 40
0.832047620386098
 50
198.674123599084794
 51
230.2973757056412865
  0
ARC
  5
EED5
  8
0
 10
5365.3689891991216427
 20
310.9291031363666775
 30
0.0
 40
0.7876422344692235
 50
128.5923771818982004
 51
161.7543604407316877
  0
LINE
  5
EED6
  8
0
 10
5362.9038021511196348
 20
310.7245133017585772
 30
0.0
 11
5362.9038021511196348
 21
312.4132383805564928
 31
0.0
  0
LINE
  5
EED7
  8
0
 10
5362.712317086656185
 20
312.4938793034244213
 30
0.0
 11
5362.712317086656185
 21
310.6438723788905918
 31
0.0
  0
LINE
  5
EED8
  8
0
 10
5362.7044170866565764
 20
312.4860053121511783
 30
0.0
 11
5362.680847008235105
 21
312.4860053121511783
 31
0.0
  0
LINE
  5
EED9
  8
0
 10
5362.7044170866565764
 20
310.651753343651194
 30
0.0
 11
5362.680847008235105
 21
310.651753343651194
 31
0.0
  0
LINE
  5
EEDA
  8
0
 10
5362.672947008234587
 20
310.6596533436510867
 30
0.0
 11
5362.672947008234587
 21
312.478105312151115
 31
0.0
  0
ARC
  5
EEDB
  8
0
 10
5362.7044170866565764
 20
312.478105312151115
 30
0.0
 40
0.0079
 50
0.0
 51
90.0
  0
ARC
  5
EEDC
  8
0
 10
5362.7044170866565764
 20
310.6596533436510867
 30
0.0
 40
0.0079
 50
270.0
 51
0.0
  0
ARC
  5
EEDD
  8
0
 10
5362.680847008235105
 20
310.6596533436510867
 30
0.0
 40
0.0079
 50
180.0000000000032117
 51
269.9999999998436806
  0
ARC
  5
EEDE
  8
0
 10
5362.680847008235105
 20
312.478105312151115
 30
0.0
 40
0.0079
 50
90.0000000001563336
 51
179.9999999999706972
  0
LINE
  5
EEDF
  8
0
 10
5362.6532619980525851
 20
311.7657031700554739
 30
0.0
 11
5362.6532619980525851
 21
311.3720286870554901
 31
0.0
  0
LINE
  5
EEE0
  8
0
 10
5362.6532619980525851
 20
311.3720286870554901
 30
0.0
 11
5362.5943474392533972
 21
311.3720286870554901
 31
0.0
  0
LINE
  5
EEE1
  8
0
 10
5362.5943474392533972
 20
311.7657031700554739
 30
0.0
 11
5362.6532619980525851
 21
311.7657031700554739
 31
0.0
  0
LINE
  5
EEE2
  8
0
 10
5362.6729470082527769
 20
311.4704538838554981
 30
0.0
 11
5362.6532619980525851
 21
311.4704538838554981
 31
0.0
  0
LINE
  5
EEE3
  8
0
 10
5362.6532619980525851
 20
311.6673042775555018
 30
0.0
 11
5362.6729470082527769
 21
311.6673042775555018
 31
0.0
  0
LINE
  5
EEE4
  8
0
 10
5362.0519543658192561
 20
300.0939643304274114
 30
0.0
 11
5362.1220675051827129
 21
300.0939643304274114
 31
0.0
  0
LINE
  5
EEE5
  8
0
 10
5359.2982790397118151
 20
300.5389616742535281
 30
0.0
 11
5359.9719134500837754
 21
300.5389616742535281
 31
0.0
  0
LINE
  5
EEE6
  8
0
 10
5359.2982790364785615
 20
301.3389616742534827
 30
0.0
 11
5359.4085940043632945
 21
301.3389616742534827
 31
0.0
  0
LINE
  5
EEE7
  8
0
 10
5359.8745740609037966
 20
301.3389616742534827
 30
0.0
 11
5359.9720218123256927
 21
301.3389616742534827
 31
0.0
  0
LINE
  5
EEE8
  8
0
 10
5362.210397997668224
 20
301.8639647640202952
 30
0.0
 11
5362.240014238646836
 21
301.8639647640202952
 31
0.0
  0
LINE
  5
EEE9
  8
0
 10
5362.0516451718121971
 20
301.7839643261015112
 30
0.0
 11
5362.1219092212977557
 21
301.7839643261015112
 31
0.0
  0
ARC
  5
EEEA
  8
0
 10
5359.9046502115534167
 20
300.938961676753479
 30
0.0
 40
0.7300000000000246
 50
147.1119322727979011
 51
212.888068199645204
  0
ARC
  5
EEEB
  8
0
 10
5359.2982790397118151
 20
300.5468616742529093
 30
0.0
 40
0.0079
 50
212.8880681969905027
 51
270.0000000010942927
  0
ARC
  5
EEEC
  8
0
 10
5359.2982790364785615
 20
301.3310616742539878
 30
0.0
 40
0.0079
 50
89.9999999990099155
 51
147.1119322756597114
  0
LINE
  5
EEED
  8
0
 10
5359.9771318292932847
 20
301.3370864337181274
 30
0.0
 11
5360.0746594551656017
 21
301.2543664801979162
 31
0.0
  0
LINE
  5
EEEE
  8
0
 10
5360.0746594551656017
 20
300.568195351572399
 30
0.0
 11
5360.0746594551656017
 21
301.3097272519345893
 31
0.0
  0
LINE
  5
EEEF
  8
0
 10
5360.0746594551656017
 20
300.6228841264082234
 30
0.0
 11
5359.9769958692277214
 21
300.5408136154209728
 31
0.0
  0
ARC
  5
EEF0
  8
0
 10
5359.9719134500837754
 20
300.5468616742534778
 30
0.0
 40
0.0079
 50
270.000000000104194
 51
310.041642161919583
  0
ARC
  5
EEF1
  8
0
 10
5359.9720218123256927
 20
301.3310616742534194
 30
0.0
 40
0.0079
 50
49.6964080726881008
 51
89.9999999999478888
  0
LINE
  5
EEF2
  8
0
 10
5359.2916451460432654
 20
301.3353513709441813
 30
0.0
 11
5359.2916451493119894
 21
300.5425719775079756
 31
0.0
  0
LINE
  5
EEF3
  8
0
 10
5359.9769958692277214
 20
300.5408136154209728
 30
0.0
 11
5359.9771318292932847
 21
301.3370864337181274
 31
0.0
  0
ARC
  5
EEF4
  8
0
 10
5359.681935855138363
 20
307.2969094928764093
 30
0.0
 40
6.0000325562987138
 50
285.6645359622884826
 51
293.2304343311395769
  0
ARC
  5
EEF5
  8
0
 10
5359.6819558778461214
 20
307.2968380902009926
 30
0.0
 40
5.9999583993645746
 50
276.2137987252825724
 51
285.6645359622884826
  0
ARC
  5
EEF6
  8
0
 10
5359.6798810240497914
 20
307.3158946975287904
 30
0.0
 40
6.0191276273384311
 50
273.7605758861387812
 51
276.2137987252825724
  0
ARC
  5
EEF7
  8
0
 10
5362.0516451718121971
 20
301.7760643261012774
 30
0.0
 40
0.0079
 50
90.0000000001042082
 51
113.230434330915898
  0
LINE
  5
EEF8
  8
0
 10
5362.1300142508662248
 20
301.8409970932088981
 30
0.0
 11
5362.1300142508662248
 21
300.0369255102983175
 31
0.0
  0
ARC
  5
EEF9
  8
0
 10
5362.210206116066729
 20
301.6751106781238718
 30
0.0
 40
0.1888541833749502
 50
89.9417857330791151
 51
113.5472693797743062
  0
ARC
  5
EEFA
  8
0
 10
5362.1379142508676523
 20
301.8409970932086139
 30
0.0
 40
0.0079
 50
113.5498702622002014
 51
179.9999999978471976
  0
LINE
  5
EEFB
  8
0
 10
5362.210397997668224
 20
300.0139578394865794
 30
0.0
 11
5362.240014238646836
 21
300.0139578394865794
 31
0.0
  0
ARC
  5
EEFC
  8
0
 10
5359.681935855138363
 20
294.5810131106305221
 30
0.0
 40
6.0000325562987138
 50
66.7695656688604373
 51
74.335464037711489
  0
ARC
  5
EEFD
  8
0
 10
5359.6819558778461214
 20
294.581084513305882
 30
0.0
 40
5.9999583993645746
 50
74.335464037711489
 51
83.786201274717385
  0
ARC
  5
EEFE
  8
0
 10
5359.6798810240497914
 20
294.5620279059780842
 30
0.0
 40
6.0191276273384311
 50
83.786201274717385
 51
86.2394241165768562
  0
ARC
  5
EEFF
  8
0
 10
5362.0516451718121971
 20
300.1018582774055972
 30
0.0
 40
0.0079
 50
246.769565669084102
 51
272.243042739447219
  0
ARC
  5
EF00
  8
0
 10
5362.210206116066729
 20
300.2028119253830027
 30
0.0
 40
0.1888541833749502
 50
246.452730620225708
 51
270.0582142669209134
  0
ARC
  5
EF01
  8
0
 10
5362.1379142508676523
 20
300.0369255102983175
 30
0.0
 40
0.0079
 50
180.0000000021495055
 51
246.4501297377998128
  0
ARC
  5
EF02
  8
0
 10
5362.1220754536007007
 20
300.085910525640486
 30
0.0
 40
0.0080538087131639
 50
9.6945062034334377
 51
90.0565752404985744
  0
ARC
  5
EF03
  8
0
 10
5362.1221282609858463
 20
301.7918669363816093
 30
0.0
 40
0.0079056452943837
 50
268.4123173371052076
 51
355.9588954037001258
  0
ARC
  5
EF04
  8
0
 10
5359.5431395817558951
 20
300.2793833994683155
 30
0.0
 40
0.832047620386098
 50
18.6741235990848793
 51
50.2969004715230597
  0
ARC
  5
EF05
  8
0
 10
5359.5833421261813783
 20
301.5787340065442095
 30
0.0
 40
0.7876422344692235
 50
308.5928713511347041
 51
341.7543604407317162
  0
LINE
  5
EF06
  8
0
 10
5362.0485291741833862
 20
301.7833238411523098
 30
0.0
 11
5362.0485291741833862
 21
300.0945987623545079
 31
0.0
  0
LINE
  5
EF07
  8
0
 10
5362.240014238646836
 20
300.0139578394865794
 30
0.0
 11
5362.240014238646836
 21
301.8639647640202952
 31
0.0
  0
LINE
  5
EF08
  8
0
 10
5362.240014238646836
 20
300.0218318307598224
 30
0.0
 11
5362.2793868093531273
 21
300.0218318307598224
 31
0.0
  0
LINE
  5
EF09
  8
0
 10
5362.240014238646836
 20
301.8560837992598067
 30
0.0
 11
5362.2793868093531273
 21
301.8560837992598067
 31
0.0
  0
LINE
  5
EF0A
  8
0
 10
5359.2556426588253089
 20
301.7263595687824136
 30
0.0
 11
5360.0272442336236054
 21
301.7263595687824136
 31
0.0
  0
LINE
  5
EF0B
  8
0
 10
5359.4150654934528575
 20
301.3347955720382174
 30
0.0
 11
5359.4150654934528575
 21
301.7184595687822934
 31
0.0
  0
LINE
  5
EF0C
  8
0
 10
5359.8678213989524011
 20
301.334618302161573
 30
0.0
 11
5359.8678213989524011
 21
301.7184595687822934
 31
0.0
  0
ARC
  5
EF0D
  8
0
 10
5359.6415840326326361
 20
301.6937715325814793
 30
0.0
 40
0.4244695381771562
 50
236.7086290692134867
 51
303.2913709307865133
  0
ARC
  5
EF0E
  8
0
 10
5359.4071654934532489
 20
301.7184595687822934
 30
0.0
 40
0.0079
 50
0.0
 51
90.0
  0
ARC
  5
EF0F
  8
0
 10
5359.8757213989529191
 20
301.7184595687822934
 30
0.0
 40
0.0079
 50
90.0
 51
180.0
  0
LINE
  5
EF10
  8
0
 10
5362.9003769594837649
 20
300.0939640938274806
 30
0.0
 11
5362.8302638201203081
 21
300.0939640938274806
 31
0.0
  0
LINE
  5
EF11
  8
0
 10
5362.741933327634797
 20
301.8639645274204213
 30
0.0
 11
5362.712317086656185
 21
301.8639645274204213
 31
0.0
  0
LINE
  5
EF12
  8
0
 10
5362.9006861534917334
 20
301.7839640895015236
 30
0.0
 11
5362.8304221040052653
 21
301.7839640895015236
 31
0.0
  0
ARC
  5
EF13
  8
0
 10
5365.270395470164658
 20
307.2969092562764217
 30
0.0
 40
6.0000325562987138
 50
246.7695656688603947
 51
254.3354640377114038
  0
ARC
  5
EF14
  8
0
 10
5365.2703754474578091
 20
307.296837853601005
 30
0.0
 40
5.9999583993645746
 50
254.3354640377114038
 51
263.7862012747174276
  0
ARC
  5
EF15
  8
0
 10
5365.2724503012523201
 20
307.3158944609288028
 30
0.0
 40
6.0191276273384311
 50
263.7862012747174276
 51
266.2394747681087779
  0
ARC
  5
EF16
  8
0
 10
5362.9006861534917334
 20
301.7760640895014035
 30
0.0
 40
0.0079
 50
66.7695656690840735
 51
89.9999999998957776
  0
LINE
  5
EF17
  8
0
 10
5362.8223170744367962
 20
301.8409968566090242
 30
0.0
 11
5362.8223170744367962
 21
300.036925273698273
 31
0.0
  0
ARC
  5
EF18
  8
0
 10
5362.742125209236292
 20
301.6751104415239979
 30
0.0
 40
0.1888541833749502
 50
66.4527306202257222
 51
90.0582142669209134
  0
ARC
  5
EF19
  8
0
 10
5362.8144170744353687
 20
301.8409968566086832
 30
0.0
 40
0.0079
 50
0.0000000021495461
 51
66.4501297377997417
  0
LINE
  5
EF1A
  8
0
 10
5362.741933327634797
 20
300.0139576028867054
 30
0.0
 11
5362.712317086656185
 21
300.0139576028867054
 31
0.0
  0
ARC
  5
EF1B
  8
0
 10
5365.270395470164658
 20
294.5810128740304776
 30
0.0
 40
6.0000325562987138
 50
105.6645359622884968
 51
113.2304343311395058
  0
ARC
  5
EF1C
  8
0
 10
5365.2703754474578091
 20
294.581084276706008
 30
0.0
 40
5.9999583993645746
 50
96.213798725282615
 51
105.6645359622884968
  0
ARC
  5
EF1D
  8
0
 10
5365.2724503012523201
 20
294.5620276693782102
 30
0.0
 40
6.0191276273384311
 50
93.7605252318912363
 51
96.213798725282615
  0
ARC
  5
EF1E
  8
0
 10
5362.9006861534917334
 20
300.1018580408056096
 30
0.0
 40
0.0079
 50
267.7569572605007124
 51
293.230434330915898
  0
ARC
  5
EF1F
  8
0
 10
5362.742125209236292
 20
300.202811688783072
 30
0.0
 40
0.1888541833749502
 50
269.9417857330790866
 51
293.5472693797743204
  0
ARC
  5
EF20
  8
0
 10
5362.8144170744353687
 20
300.036925273698273
 30
0.0
 40
0.0079
 50
293.5498702622002725
 51
359.999999997847226
  0
ARC
  5
EF21
  8
0
 10
5362.8302558717032298
 20
300.085910289040612
 30
0.0
 40
0.0080538087131639
 50
89.943424759501454
 51
170.3054937965632973
  0
ARC
  5
EF22
  8
0
 10
5362.8302030643162652
 20
301.7918666997816217
 30
0.0
 40
0.0079056452943837
 50
184.0411045962999026
 51
271.5876826628949061
  0
ARC
  5
EF23
  8
0
 10
5365.409191743547126
 20
300.2793831628683847
 30
0.0
 40
0.832047620386098
 50
129.7026242943587135
 51
161.3258764009150923
  0
ARC
  5
EF24
  8
0
 10
5365.3689891991216427
 20
301.5787337699442787
 30
0.0
 40
0.7876422344692235
 50
198.2456395592683123
 51
231.4076228181017996
  0
LINE
  5
EF25
  8
0
 10
5362.9038021511196348
 20
301.783323604552379
 30
0.0
 11
5362.9038021511196348
 21
300.0945985257545772
 31
0.0
  0
LINE
  5
EF26
  8
0
 10
5362.712317086656185
 20
300.0139576028867054
 30
0.0
 11
5362.712317086656185
 21
301.8639645274204213
 31
0.0
  0
LINE
  5
EF27
  8
0
 10
5362.7044170866565764
 20
300.021831594159778
 30
0.0
 11
5362.680847008235105
 21
300.021831594159778
 31
0.0
  0
LINE
  5
EF28
  8
0
 10
5362.7044170866565764
 20
301.8560835626598191
 30
0.0
 11
5362.680847008235105
 21
301.8560835626598191
 31
0.0
  0
LINE
  5
EF29
  8
0
 10
5362.672947008234587
 20
301.8481835626598127
 30
0.0
 11
5362.672947008234587
 21
300.0297315941597844
 31
0.0
  0
ARC
  5
EF2A
  8
0
 10
5362.7044170866565764
 20
300.0297315941597844
 30
0.0
 40
0.0079
 50
270.0
 51
0.0
  0
ARC
  5
EF2B
  8
0
 10
5362.7044170866565764
 20
301.8481835626598127
 30
0.0
 40
0.0079
 50
0.0
 51
90.0
  0
ARC
  5
EF2C
  8
0
 10
5362.680847008235105
 20
301.8481835626598127
 30
0.0
 40
0.0079
 50
90.0000000001563336
 51
179.9999999999967031
  0
ARC
  5
EF2D
  8
0
 10
5362.680847008235105
 20
300.0297315941597844
 30
0.0
 40
0.0079
 50
180.0000000000260059
 51
269.9999999998436806
  0
LINE
  5
EF2E
  8
0
 10
5362.6532619980525851
 20
300.7421337362554823
 30
0.0
 11
5362.6532619980525851
 21
301.135808219255523
 31
0.0
  0
LINE
  5
EF2F
  8
0
 10
5362.6532619980525851
 20
301.135808219255523
 30
0.0
 11
5362.5943474392533972
 21
301.135808219255523
 31
0.0
  0
LINE
  5
EF30
  8
0
 10
5362.5943474392533972
 20
300.7421337362554823
 30
0.0
 11
5362.6532619980525851
 21
300.7421337362554823
 31
0.0
  0
LINE
  5
EF31
  8
0
 10
5362.6729470082527769
 20
301.0373830224555149
 30
0.0
 11
5362.6532619980525851
 21
301.0373830224555149
 31
0.0
  0
LINE
  5
EF32
  8
0
 10
5362.6532619980525851
 20
300.8405326287555113
 30
0.0
 11
5362.6729470082527769
 21
300.8405326287555113
 31
0.0
  0
ARC
  5
EF33
  8
0
 10
5359.2556426588253089
 20
301.73425956878242
 30
0.0
 40
0.0079
 50
180.0
 51
270.0
  0
ARC
  5
EF34
  8
0
 10
5360.0272442336236054
 20
301.73425956878242
 30
0.0
 40
0.0079
 50
270.0000000000521254
 51
359.9999999999478746
  0
LINE
  5
EF35
  8
0
 10
5364.8776771798011396
 20
311.9396414423428041
 30
0.0
 11
5364.8776771798011396
 21
311.198092576673389
 31
0.0
  0
LINE
  5
EF36
  8
0
 10
5364.8776771798011396
 20
300.568195463968209
 30
0.0
 11
5364.8776771798011396
 21
301.3097266663389178
 31
0.0
  0
LINE
  5
EF37
  8
0
 10
5361.8068074212033025
 20
310.8221052590291151
 30
0.0
 11
5361.8068074212033025
 21
301.685732120490627
 31
0.0
  0
LINE
  5
EF38
  8
0
 10
5362.2005082086016046
 20
310.6441216824566141
 30
0.0
 11
5362.2005082085997856
 21
301.8637156970630144
 31
0.0
  0
LINE
  5
EF39
  8
0
 10
5365.6540523067160393
 20
311.9461108121250845
 30
0.0
 11
5364.9804178963440791
 21
311.9461108121250845
 31
0.0
  0
LINE
  5
EF3A
  8
0
 10
5365.654052309949293
 20
311.1461108121250732
 30
0.0
 11
5365.5437373420645599
 21
311.1461108121250732
 31
0.0
  0
LINE
  5
EF3B
  8
0
 10
5365.0777572855240578
 20
311.1461108121250732
 30
0.0
 11
5364.9803095341021617
 21
311.1461108121250732
 31
0.0
  0
ARC
  5
EF3C
  8
0
 10
5365.0476811348753472
 20
311.5461108096250769
 30
0.0
 40
0.7300000000000246
 50
327.1119322728006864
 51
32.8880681996452608
  0
ARC
  5
EF3D
  8
0
 10
5365.6540523067160393
 20
311.9382108121257033
 30
0.0
 40
0.0079
 50
32.8880681969932311
 51
90.0000000010943069
  0
ARC
  5
EF3E
  8
0
 10
5365.654052309949293
 20
311.1540108121246249
 30
0.0
 40
0.0079
 50
269.9999999990099013
 51
327.111932275659683
  0
LINE
  5
EF3F
  8
0
 10
5364.9751995171363887
 20
311.1479860526605989
 30
0.0
 11
5364.8776718912640717
 21
311.2307060061806965
 31
0.0
  0
LINE
  5
EF40
  8
0
 10
5364.8776771798011396
 20
311.862192804135816
 30
0.0
 11
5364.975335477200133
 21
311.944258870957583
 31
0.0
  0
ARC
  5
EF41
  8
0
 10
5364.9804178963440791
 20
311.9382108121250781
 30
0.0
 40
0.0079
 50
90.0000000001042082
 51
130.0416421619196115
  0
ARC
  5
EF42
  8
0
 10
5364.9803095341021617
 20
311.1540108121250796
 30
0.0
 40
0.0079
 50
229.6964080726880866
 51
269.9999999999478746
  0
LINE
  5
EF43
  8
0
 10
5365.660686200384589
 20
311.1497211154343745
 30
0.0
 11
5365.6606861971167746
 21
311.9425005088705802
 31
0.0
  0
LINE
  5
EF44
  8
0
 10
5364.975335477200133
 20
311.944258870957583
 30
0.0
 11
5364.9751995171363887
 21
311.1479860526605989
 31
0.0
  0
LINE
  5
EF45
  8
0
 10
5364.9171871128046405
 20
310.7508129175961926
 30
0.0
 11
5364.9171871128046405
 21
301.7114946756414042
 31
0.0
  0
LINE
  5
EF46
  8
0
 10
5365.696688687601636
 20
310.7587129175961991
 30
0.0
 11
5364.9250871128051585
 21
310.7587129175961991
 31
0.0
  0
LINE
  5
EF47
  8
0
 10
5365.7045886876030636
 20
310.7508129175961926
 30
0.0
 11
5365.7045886876030636
 21
301.7114946756414042
 31
0.0
  0
ARC
  5
EF48
  8
0
 10
5365.696688687601636
 20
310.7508129175961926
 30
0.0
 40
0.0079
 50
0.0000000000390827
 51
89.9999999998436664
  0
ARC
  5
EF49
  8
0
 10
5364.9250871128051585
 20
310.7508129175961926
 30
0.0
 40
0.0079
 50
90.0000000000521254
 51
179.9999999999608917
  0
LINE
  5
EF4A
  8
0
 10
5365.5372658529740875
 20
311.1502769143403953
 30
0.0
 11
5365.5372658529740875
 21
310.7666129175962055
 31
0.0
  0
LINE
  5
EF4B
  8
0
 10
5365.0845099474754534
 20
311.1504541842169829
 30
0.0
 11
5365.0845099474754534
 21
310.7666129175962055
 31
0.0
  0
ARC
  5
EF4C
  8
0
 10
5365.3107473137952184
 20
310.7913009537970765
 30
0.0
 40
0.4244695381771562
 50
56.708629069213508
 51
123.2913709307864991
  0
ARC
  5
EF4D
  8
0
 10
5365.5451658529746055
 20
310.7666129175962055
 30
0.0
 40
0.0079
 50
180.0
 51
270.0
  0
ARC
  5
EF4E
  8
0
 10
5365.0766099474749353
 20
310.7666129175962055
 30
0.0
 40
0.0079
 50
270.0
 51
0.0
  0
LINE
  5
EF4F
  8
0
 10
5365.6540523067160393
 20
300.5161967811125123
 30
0.0
 11
5364.9804178963440791
 21
300.5161967811125123
 31
0.0
  0
LINE
  5
EF50
  8
0
 10
5365.654052309949293
 20
301.3161967811125237
 30
0.0
 11
5365.5437373420645599
 21
301.3161967811125237
 31
0.0
  0
LINE
  5
EF51
  8
0
 10
5365.0777572855240578
 20
301.3161967811125237
 30
0.0
 11
5364.9803095341021617
 21
301.3161967811125237
 31
0.0
  0
ARC
  5
EF52
  8
0
 10
5365.0476811348753472
 20
300.91619678361252
 30
0.0
 40
0.7300000000000246
 50
327.111931800354796
 51
32.8880677272020492
  0
ARC
  5
EF53
  8
0
 10
5365.6540523067160393
 20
300.5240967811118935
 30
0.0
 40
0.0079
 50
269.9999999989057073
 51
327.111931803009611
  0
ARC
  5
EF54
  8
0
 10
5365.654052309949293
 20
301.308296781112972
 30
0.0
 40
0.0079
 50
32.8880677243402673
 51
90.0000000009900987
  0
LINE
  5
EF55
  8
0
 10
5364.9751995171363887
 20
301.3143215405769979
 30
0.0
 11
5364.8776718912640717
 21
301.2316015870569004
 31
0.0
  0
LINE
  5
EF56
  8
0
 10
5364.8776771798011396
 20
300.600114789101724
 30
0.0
 11
5364.975335477200133
 21
300.5180487222800139
 31
0.0
  0
ARC
  5
EF57
  8
0
 10
5364.9804178963440791
 20
300.5240967811125188
 30
0.0
 40
0.0079
 50
229.9583578380803885
 51
269.999999999895806
  0
ARC
  5
EF58
  8
0
 10
5364.9803095341021617
 20
301.3082967811124036
 30
0.0
 40
0.0079
 50
90.0000000000521254
 51
130.3035919273119134
  0
LINE
  5
EF59
  8
0
 10
5365.660686200384589
 20
301.3125864778032224
 30
0.0
 11
5365.6606861971167746
 21
300.5198070843670166
 31
0.0
  0
LINE
  5
EF5A
  8
0
 10
5364.975335477200133
 20
300.5180487222800139
 30
0.0
 11
5364.9751995171363887
 21
301.3143215405769979
 31
0.0
  0
LINE
  5
EF5B
  8
0
 10
5365.696688687601636
 20
301.7035946756413978
 30
0.0
 11
5364.9250871128051585
 21
301.7035946756413978
 31
0.0
  0
LINE
  5
EF5C
  8
0
 10
5365.5372658529740875
 20
301.3120306788972016
 30
0.0
 11
5365.5372658529740875
 21
301.6956946756412776
 31
0.0
  0
LINE
  5
EF5D
  8
0
 10
5365.0845099474754534
 20
301.311853409020614
 30
0.0
 11
5365.0845099474754534
 21
301.6956946756412776
 31
0.0
  0
ARC
  5
EF5E
  8
0
 10
5365.3107473137952184
 20
301.6710066394405203
 30
0.0
 40
0.4244695381771562
 50
236.7086290692134867
 51
303.2913709307865133
  0
ARC
  5
EF5F
  8
0
 10
5365.5451658529746055
 20
301.6956946756412776
 30
0.0
 40
0.0079
 50
90.0
 51
180.0
  0
ARC
  5
EF60
  8
0
 10
5365.0766099474749353
 20
301.6956946756412776
 30
0.0
 40
0.0079
 50
0.0
 51
90.0
  0
ARC
  5
EF61
  8
0
 10
5365.696688687601636
 20
301.7114946756414042
 30
0.0
 40
0.0079
 50
270.0
 51
0.0
  0
ARC
  5
EF62
  8
0
 10
5364.9250871128051585
 20
301.7114946756414042
 30
0.0
 40
0.0079
 50
180.000000000052097
 51
269.9999999999478746
  0
ENDSEC
  0
EOF
