  0
SECTION
  2
HEADER
  9
$ACADVER
  1
AC1009
  9
$INSBASE
 10
5443.5181970573557919
 20
271.5788126909445737
 30
0.0
  9
$EXTMIN
 10
5441.5960442514551687
 20
271.5716317877879078
 30
0.0
  9
$EXTMAX
 10
5458.4968442514564231
 20
349.5788126909445737
 30
0.0
  9
$LIMMIN
 10
0.0
 20
0.0
  9
$LIMMAX
 10
11.6929133858000007
 20
8.2677165353999982
  9
$ORTHOMODE
 70
     0
  9
$REGENMODE
 70
     1
  9
$FILLMODE
 70
     1
  9
$QTEXTMODE
 70
     0
  9
$MIRRTEXT
 70
     0
  9
$DRAGMODE
 70
     2
  9
$LTSCALE
 40
0.6431102362
  9
$OSMODE
 70
  4095
  9
$ATTMODE
 70
     1
  9
$TEXTSIZE
 40
0.2
  9
$TRACEWID
 40
0.05
  9
$TEXTSTYLE
  7
STANDARD
  9
$CLAYER
  8
0
  9
$CELTYPE
  6
BYLAYER
  9
$CECOLOR
 62
   256
  9
$DIMSCALE
 40
1.0
  9
$DIMASZ
 40
0.1875
  9
$DIMEXO
 40
0.0625
  9
$DIMDLI
 40
0.4443307087
  9
$DIMRND
 40
0.0
  9
$DIMDLE
 40
0.0
  9
$DIMEXE
 40
0.125
  9
$DIMTP
 40
0.01
  9
$DIMTM
 40
0.01
  9
$DIMTXT
 40
2.0
  9
$DIMCEN
 40
0.1052362205
  9
$DIMTSZ
 40
0.0
  9
$DIMTOL
 70
     1
  9
$DIMLIM
 70
     0
  9
$DIMTIH
 70
     1
  9
$DIMTOH
 70
     1
  9
$DIMSE1
 70
     0
  9
$DIMSE2
 70
     0
  9
$DIMTAD
 70
     0
  9
$DIMZIN
 70
     0
  9
$DIMBLK
  1

  9
$DIMASO
 70
     1
  9
$DIMSHO
 70
     1
  9
$DIMPOST
  1
\X
  9
$DIMAPOST
  1

  9
$DIMALT
 70
     1
  9
$DIMALTD
 70
     2
  9
$DIMALTF
 40
25.3999999999999986
  9
$DIMLFAC
 40
1.0
  9
$DIMTOFL
 70
     0
  9
$DIMTVP
 40
0.0
  9
$DIMTIX
 70
     0
  9
$DIMSOXD
 70
     0
  9
$DIMSAH
 70
     0
  9
$DIMBLK1
  1

  9
$DIMBLK2
  1

  9
$DIMSTYLE
  2
STANDARD
  9
$DIMCLRD
 70
     0
  9
$DIMCLRE
 70
     0
  9
$DIMCLRT
 70
     0
  9
$DIMTFAC
 40
1.0
  9
$DIMGAP
 40
0.09
  9
$LUNITS
 70
     2
  9
$LUPREC
 70
     4
  9
$SKETCHINC
 40
0.1
  9
$FILLETRAD
 40
0.0
  9
$AUNITS
 70
     0
  9
$AUPREC
 70
     0
  9
$MENU
  1
.
  9
$ELEVATION
 40
0.0
  9
$PELEVATION
 40
0.0
  9
$THICKNESS
 40
0.0
  9
$LIMCHECK
 70
     0
  9
$BLIPMODE
 70
     0
  9
$CHAMFERA
 40
0.0
  9
$CHAMFERB
 40
0.0
  9
$SKPOLY
 70
     0
  9
$TDCREATE
 40
2458060.468368056230247
  9
$TDUPDATE
 40
2459190.6031249999068677
  9
$TDINDWG
 40
0.364659838
  9
$TDUSRTIMER
 40
0.364659838
  9
$USRTIMER
 70
     1
  9
$ANGBASE
 50
0.0
  9
$ANGDIR
 70
     0
  9
$PDMODE
 70
     0
  9
$PDSIZE
 40
0.3125
  9
$PLINEWID
 40
0.0
  9
$COORDS
 70
     1
  9
$SPLFRAME
 70
     0
  9
$SPLINETYPE
 70
     6
  9
$SPLINESEGS
 70
     8
  9
$ATTDIA
 70
     1
  9
$ATTREQ
 70
     1
  9
$HANDLING
 70
     1
  9
$HANDSEED
  5
E8EC
  9
$SURFTAB1
 70
     6
  9
$SURFTAB2
 70
     6
  9
$SURFTYPE
 70
     6
  9
$SURFU
 70
     6
  9
$SURFV
 70
     6
  9
$UCSNAME
  2

  9
$UCSORG
 10
0.0
 20
0.0
 30
0.0
  9
$UCSXDIR
 10
1.0
 20
0.0
 30
0.0
  9
$UCSYDIR
 10
0.0
 20
1.0
 30
0.0
  9
$PUCSNAME
  2

  9
$PUCSORG
 10
0.0
 20
0.0
 30
0.0
  9
$PUCSXDIR
 10
1.0
 20
0.0
 30
0.0
  9
$PUCSYDIR
 10
0.0
 20
1.0
 30
0.0
  9
$USERI1
 70
     0
  9
$USERI2
 70
     0
  9
$USERI3
 70
     0
  9
$USERI4
 70
     0
  9
$USERI5
 70
     0
  9
$USERR1
 40
0.0
  9
$USERR2
 40
0.0
  9
$USERR3
 40
0.0
  9
$USERR4
 40
0.0
  9
$USERR5
 40
0.0
  9
$WORLDVIEW
 70
     1
  9
$SHADEDGE
 70
     3
  9
$SHADEDIF
 70
    70
  9
$TILEMODE
 70
     1
  9
$MAXACTVP
 70
    64
  9
$PLIMCHECK
 70
     0
  9
$PEXTMIN
 10
1.0000000000000000E+20
 20
1.0000000000000000E+20
 30
1.0000000000000000E+20
  9
$PEXTMAX
 10
-1.0000000000000000E+20
 20
-1.0000000000000000E+20
 30
-1.0000000000000000E+20
  9
$PLIMMIN
 10
0.0
 20
0.0
  9
$PLIMMAX
 10
12.0
 20
9.0
  9
$UNITMODE
 70
     0
  9
$VISRETAIN
 70
     1
  9
$PLINEGEN
 70
     0
  9
$PSLTSCALE
 70
     1
  0
ENDSEC
  0
SECTION
  2
TABLES
  0
TABLE
  2
VPORT
 70
     1
  0
VPORT
  2
*ACTIVE
 70
     0
 10
0.0
 20
0.0
 11
1.0
 21
1.0
 12
509.6849414116522894
 22
-3.699579185713048
 13
0.0
 23
0.0
 14
1.0
 24
1.0
 15
0.0
 25
0.0
 16
0.0
 26
0.0
 36
326.4906812651062182
 17
4940.2302854314038996
 27
314.272995739644216
 37
0.0
 40
79.0657268658028585
 41
2.887234042553191
 42
50.0
 43
0.0
 44
0.0
 50
0.0
 51
0.0
 71
     0
 72
   100
 73
     1
 74
     1
 75
     0
 76
     0
 77
     0
 78
     0
  0
ENDTAB
  0
TABLE
  2
LTYPE
 70
     2
  0
LTYPE
  2
CONTINUOUS
 70
     0
  3
Solid line
 72
    65
 73
     0
 40
0.0
  0
LTYPE
  2
PHANTOM2
 70
     0
  3
___ _ _ ___ _ _ ___ _ _ ___ _ _
 72
    65
 73
     6
 40
1.25
 49
0.625
 49
-0.125
 49
0.125
 49
-0.125
 49
0.125
 49
-0.125
  0
ENDTAB
  0
TABLE
  2
LAYER
 70
     2
  0
LAYER
  2
0
 70
     0
 62
   255
  6
CONTINUOUS
  0
LAYER
  2
DEFPOINTS
 70
     0
 62
     7
  6
CONTINUOUS
  0
ENDTAB
  0
TABLE
  2
STYLE
 70
     1
  0
STYLE
  2
STANDARD
 70
     0
 40
0.0
 41
0.8
 50
0.0
 71
     0
 42
0.2
  3
txt
  4

  0
ENDTAB
  0
TABLE
  2
VIEW
 70
     0
  0
ENDTAB
  0
TABLE
  2
UCS
 70
     0
  0
ENDTAB
  0
TABLE
  2
APPID
 70
     9
  0
APPID
  2
ACAD
 70
     0
  0
APPID
  2
ACAD_MLEADERVER
 70
     0
  0
APPID
  2
ACAD_EXEMPT_FROM_CAD_STANDARDS
 70
     0
  0
APPID
  2
ACAD_NAV_VCDISPLAY
 70
     0
  0
APPID
  2
ACAECLAYERSTANDARD
 70
     0
  0
APPID
  2
ACCMTRANSPARENCY
 70
     0
  0
APPID
  2
ACAD_DSTYLE_DIMJAG
 70
     0
  0
APPID
  2
ACAD_DSTYLE_DIMTALN
 70
     0
  0
APPID
  2
ACDBATTR
 70
     0
  0
ENDTAB
  0
TABLE
  2
DIMSTYLE
 70
     1
  0
DIMSTYLE
  2
STANDARD
 70
     0
  3

  4

  5

  6

  7

 40
1.0
 41
0.1875
 42
0.0625
 43
0.38
 44
0.125
 45
0.0
 46
0.0
 47
0.01
 48
0.01
140
0.15625
141
0.09
142
0.0
143
25.3999999999999986
144
1.0
145
0.0
146
1.0
147
0.09
 71
     1
 72
     0
 73
     1
 74
     1
 75
     0
 76
     0
 77
     0
 78
     4
170
     0
171
     2
172
     0
173
     0
174
     0
175
     0
176
     0
177
     0
178
     0
  0
ENDTAB
  0
ENDSEC
  0
SECTION
  2
BLOCKS
  0
BLOCK
  8
0
  2
$MODEL_SPACE
 70
     0
 10
0.0
 20
0.0
 30
0.0
  3
$MODEL_SPACE
  1

  0
ENDBLK
  5
21
  8
0
  0
BLOCK
 67
     1
  8
0
  2
$PAPER_SPACE
 70
     0
 10
0.0
 20
0.0
 30
0.0
  3
$PAPER_SPACE
  1

  0
ENDBLK
  5
1D
 67
     1
  8
0
  0
ENDSEC
  0
SECTION
  2
ENTITIES
  0
ATTDEF
  5
3930
  8
DEFPOINTS
 10
5443.5152128386625918
 20
271.5749651211211813
 30
0.0
 40
0.001
  1
K-76583T-L
  3

  2
MODELNUMBER
 70
     0
1001
ACDBATTR
1070
     0
1070
     1
  0
ATTDEF
  5
3931
  8
DEFPOINTS
 10
5443.5152128386625918
 20
271.5732984544545161
 30
0.0
 40
0.001
  1
NEW MEMOIRS
  3

  2
TRADENAME
 70
     0
1001
ACDBATTR
1070
     0
1070
     1
  0
ATTDEF
  5
3932
  8
DEFPOINTS
 10
5443.5152128386625918
 20
271.5716317877879078
 30
0.0
 40
0.001
  1
SHOWER DOOR
  3

  2
PRODUCT
 70
     0
1001
ACDBATTR
1070
     0
1070
     1
  0
LINE
  5
E682
  8
0
 10
5456.823891764455766
 20
271.5788126909445737
 30
0.0
 11
5443.5181970573557919
 21
271.5788126909445737
 31
0.0
  0
LINE
  5
E683
  8
0
 10
5456.823891764455766
 20
273.9410174153446178
 30
0.0
 11
5443.5181970573557919
 21
273.9410174153446178
 31
0.0
  0
LINE
  5
E684
  8
0
 10
5455.0036640170555984
 20
273.980387494044578
 30
0.0
 11
5446.743839994355767
 21
273.980387494044578
 31
0.0
  0
LINE
  5
E685
  8
0
 10
5446.743839994355767
 20
274.4921985177447255
 30
0.0
 11
5446.7920484090564059
 21
274.4921985177447255
 31
0.0
  0
LINE
  5
E686
  8
0
 10
5446.7241399943559372
 20
274.531568596444572
 30
0.0
 11
5444.190819636555716
 21
274.531568596444572
 31
0.0
  0
LINE
  5
E687
  8
0
 10
5444.6220389815562157
 20
274.9252693838445794
 30
0.0
 11
5444.656698907556347
 21
274.9252693838445794
 31
0.0
  0
LINE
  5
E688
  8
0
 10
5443.5181970573557919
 20
273.9410174153446178
 30
0.0
 11
5443.5181970573557919
 21
271.5788126909445737
 31
0.0
  0
LINE
  5
E689
  8
0
 10
5444.1711345972562412
 20
274.5118835570447118
 30
0.0
 11
5444.1711345972562412
 21
273.9607024547447054
 31
0.0
  0
LINE
  5
E68A
  8
0
 10
5444.6220389815562157
 20
348.7441670216447278
 30
0.0
 11
5444.6220389815562157
 21
274.9252693838445794
 31
0.0
  0
LINE
  5
E68B
  8
0
 10
5444.656698907556347
 20
274.531568596444572
 30
0.0
 11
5444.656698907556347
 21
348.7835371003445744
 31
0.0
  0
LINE
  5
E68C
  8
0
 10
5444.71696401495592
 20
274.531568596444572
 30
0.0
 11
5444.71696401495592
 21
348.7835371003445744
 31
0.0
  0
LINE
  5
E68D
  8
0
 10
5445.3062521724559701
 20
274.531568596444572
 30
0.0
 11
5445.3062521724559701
 21
348.7835371003445744
 31
0.0
  0
LINE
  5
E68E
  8
0
 10
5445.382123588657123
 20
348.7835371003445744
 30
0.0
 11
5445.382123588657123
 21
274.531568596444572
 31
0.0
  0
LINE
  5
E68F
  8
0
 10
5445.4010710815573475
 20
348.7835371003445744
 30
0.0
 11
5445.4010710815573475
 21
348.7441670216447278
 31
0.0
  0
LINE
  5
E690
  8
0
 10
5445.4931129805572709
 20
348.7441670216447278
 30
0.0
 11
5445.4931129805572709
 21
348.7835371003445744
 31
0.0
  0
LINE
  5
E691
  8
0
 10
5445.5209518302572178
 20
348.7441670216447278
 30
0.0
 11
5445.5209518302572178
 21
348.7835371003445744
 31
0.0
  0
LINE
  5
E692
  8
0
 10
5445.6326751724573114
 20
348.7441670216447278
 30
0.0
 11
5445.6326751724573114
 21
348.7835371003445744
 31
0.0
  0
LINE
  5
E693
  8
0
 10
5446.743839994355767
 20
274.5118685964445717
 30
0.0
 11
5446.743839994355767
 21
273.9607174153446181
 31
0.0
  0
ARC
  5
E694
  8
0
 10
5446.7241399943559372
 20
273.9607174153446181
 30
0.0
 40
0.0197
 50
270.0
 51
0.0
  0
ARC
  5
E695
  8
0
 10
5446.7241399943559372
 20
274.5118685964445717
 30
0.0
 40
0.0197
 50
0.0
 51
90.0
  0
LINE
  5
E696
  8
0
 10
5446.8117484090562357
 20
274.4724985177446115
 30
0.0
 11
5446.8117484090562357
 21
274.0000874940445783
 31
0.0
  0
ARC
  5
E697
  8
0
 10
5446.7920484090564059
 20
274.4724985177446115
 30
0.0
 40
0.0197
 50
0.0
 51
90.0
  0
ARC
  5
E698
  8
0
 10
5446.7920484090564059
 20
274.0000874940445783
 30
0.0
 40
0.0197
 50
270.0
 51
0.0
  0
LINE
  5
E699
  8
0
 10
5454.5967837922562467
 20
273.9410174153446178
 30
0.0
 11
5454.5967837922562467
 21
271.5788126909445737
 31
0.0
  0
LINE
  5
E69A
  8
0
 10
5455.0036640170555984
 20
348.7441670216447278
 30
0.0
 11
5455.0036640170555984
 21
337.9173953680445948
 31
0.0
  0
LINE
  5
E69B
  8
0
 10
5455.0036640170555984
 20
335.9488914311446024
 30
0.0
 11
5455.0036640170555984
 21
286.7362930058445727
 31
0.0
  0
LINE
  5
E69C
  8
0
 10
5455.0036640170555984
 20
284.7677890688445927
 30
0.0
 11
5455.0036640170555984
 21
273.9410174153446178
 31
0.0
  0
LINE
  5
E69D
  8
0
 10
5455.6377336626546821
 20
348.7441670216447278
 30
0.0
 11
5455.6377336626546821
 21
273.9410174153446178
 31
0.0
  0
LINE
  5
E69E
  8
0
 10
5455.6655788255557127
 20
348.7441670216447278
 30
0.0
 11
5455.6655788255557127
 21
337.9173953681445823
 31
0.0
  0
LINE
  5
E69F
  8
0
 10
5455.6655788255557127
 20
335.9488914310446717
 30
0.0
 11
5455.6655788255557127
 21
286.7362930058445727
 31
0.0
  0
LINE
  5
E6A0
  8
0
 10
5455.6655788255557127
 20
284.7677890688445927
 30
0.0
 11
5455.6655788255557127
 21
273.9410174153446178
 31
0.0
  0
LINE
  5
E6A1
  8
0
 10
5456.823891764455766
 20
273.9410174153446178
 30
0.0
 11
5456.823891764455766
 21
271.5788126909445737
 31
0.0
  0
LINE
  5
E6A2
  8
0
 10
5445.4010710815573475
 20
348.704796942944597
 30
0.0
 11
5446.2868871708560619
 21
348.704796942944597
 31
0.0
  0
LINE
  5
E6A3
  8
0
 10
5445.382123588657123
 20
348.704796942944597
 30
0.0
 11
5446.2868871708560619
 21
348.704796942944597
 31
0.0
  0
LINE
  5
E6A4
  8
0
 10
5447.7066685031559246
 20
348.704796942944597
 30
0.0
 11
5455.0036640170555984
 21
348.704796942944597
 31
0.0
  0
LINE
  5
E6A5
  8
0
 10
5444.656698907556347
 20
348.7441670216447278
 30
0.0
 11
5444.6220389815562157
 21
348.7441670216447278
 31
0.0
  0
LINE
  5
E6A6
  8
0
 10
5445.4010710815573475
 20
348.7441670216447278
 30
0.0
 11
5446.2868871708560619
 21
348.7441670216447278
 31
0.0
  0
LINE
  5
E6A7
  8
0
 10
5447.7066685031559246
 20
348.7441670216447278
 30
0.0
 11
5455.0036641683564085
 21
348.7441670216447278
 31
0.0
  0
LINE
  5
E6A8
  8
0
 10
5455.0036641683564085
 20
348.7441670216447278
 30
0.0
 11
5455.6655784727572609
 21
348.7441670216447278
 31
0.0
  0
LINE
  5
E6A9
  8
0
 10
5444.656698907556347
 20
348.7835371003445744
 30
0.0
 11
5445.6326751724573114
 21
348.7835371003445744
 31
0.0
  0
LINE
  5
E6AA
  8
0
 10
5449.7750949923556618
 20
348.9882615098446195
 30
0.0
 11
5455.9859423899561079
 21
348.9882615098446195
 31
0.0
  0
LINE
  5
E6AB
  8
0
 10
5455.9859423899561079
 20
349.3819622972446268
 30
0.0
 11
5449.7750949923556618
 21
349.3819622972446268
 31
0.0
  0
ARC
  5
E6AC
  8
0
 10
5444.190819636555716
 20
274.5118835570447118
 30
0.0
 40
0.0196850394
 50
90.0
 51
180.0
  0
ARC
  5
E6AD
  8
0
 10
5444.190819636555716
 20
273.9607024547447054
 30
0.0
 40
0.0196850394
 50
180.0
 51
270.0
  0
ARC
  5
E6AE
  8
0
 10
5446.7183878693558654
 20
274.5217155004445999
 30
0.0
 40
0.0098530962
 50
84.5510732619783738
 51
89.9914457505103655
  0
LINE
  5
E6AF
  8
0
 10
5444.5486452215691315
 20
337.9173953680445948
 30
0.0
 11
5444.6220389815562157
 21
337.9173953680445948
 31
0.0
  0
LINE
  5
E6B0
  8
0
 10
5444.5486452218583509
 20
335.9488914310446717
 30
0.0
 11
5444.6220389815562157
 21
335.9488914310446717
 31
0.0
  0
LINE
  5
E6B1
  8
0
 10
5444.5386859558066135
 20
335.9515942836455906
 30
0.0
 11
5444.049042489704334
 21
336.2384947520008041
 31
0.0
  0
LINE
  5
E6B2
  8
0
 10
5444.5388861078563423
 20
337.8976953680445945
 30
0.0
 11
5444.5388861078563423
 21
335.9685914310446151
 31
0.0
  0
LINE
  5
E6B3
  8
0
 10
5444.0393017557562416
 20
336.3419229801701817
 30
0.0
 11
5444.0393017557562416
 21
336.2554918993998854
 31
0.0
  0
LINE
  5
E6B4
  8
0
 10
5444.0393017557562416
 20
336.4095473366447209
 30
0.0
 11
5444.0393017557562416
 21
337.45673946254459
 31
0.0
  0
LINE
  5
E6B5
  8
0
 10
5444.0393017557562416
 20
337.5276315883659777
 30
0.0
 11
5444.0393017557562416
 21
337.6107948997330936
 31
0.0
  0
LINE
  5
E6B6
  8
0
 10
5444.0572926112763525
 20
336.3582672027876015
 30
0.0
 11
5444.0572926112763525
 21
337.5080195892230108
 31
0.0
  0
LINE
  5
E6B7
  8
0
 10
5444.049042489700696
 20
337.6277920471302991
 30
0.0
 11
5444.5386859555137562
 21
337.9146925154419137
 31
0.0
  0
ARC
  5
E6B8
  8
0
 10
5444.0590017557560714
 20
337.61079489973298
 30
0.0
 40
0.0197
 50
120.3676369895284068
 51
179.9999999999787974
  0
ARC
  5
E6B9
  8
0
 10
5444.5486452215691315
 20
337.8976953680444808
 30
0.0
 40
0.0197
 50
90.0
 51
120.3676369893523059
  0
ARC
  5
E6BA
  8
0
 10
5444.558586107856172
 20
337.8976953680445945
 30
0.0
 40
0.0197
 50
90.0
 51
180.0
  0
ARC
  5
E6BB
  8
0
 10
5444.558586107856172
 20
335.9685914310446719
 30
0.0
 40
0.0197
 50
180.0000000000406999
 51
270.0
  0
ARC
  5
E6BC
  8
0
 10
5444.5486452218583509
 20
335.9685914310446151
 30
0.0
 40
0.0197
 50
239.6323630214118054
 51
270.0
  0
ARC
  5
E6BD
  8
0
 10
5444.0590017557560714
 20
336.2554918993998854
 30
0.0
 40
0.0197
 50
179.9999999999787974
 51
239.6323630214633909
  0
LINE
  5
E6BE
  8
0
 10
5444.0472017557558502
 20
336.4016473366447144
 30
0.0
 11
5444.0572926112763525
 21
336.4016473366447144
 31
0.0
  0
LINE
  5
E6BF
  8
0
 10
5444.0472017557558502
 20
337.4646394625447101
 30
0.0
 11
5444.0572926112763525
 21
337.4646394625447101
 31
0.0
  0
ARC
  5
E6C0
  8
0
 10
5444.0472017557558502
 20
337.45673946254459
 30
0.0
 40
0.0079
 50
90.0000000001042082
 51
179.9999999998453006
  0
ARC
  5
E6C1
  8
0
 10
5444.0472017557558502
 20
336.4095473366447209
 30
0.0
 40
0.0079
 50
180.0000000001546994
 51
269.999999999895806
  0
ARC
  5
E6C2
  8
0
 10
5444.0589867949584004
 20
337.5276315883659777
 30
0.0
 40
0.0196850392022299
 50
180.0
 51
265.0627576093281164
  0
ARC
  5
E6C3
  8
0
 10
5444.0593357228081004
 20
336.3379444514509942
 30
0.0
 40
0.0204251934319411
 50
95.7408400309066394
 51
168.7678146197185924
  0
LINE
  5
E6C4
  8
0
 10
5453.8413565434557313
 20
337.9173953680445948
 30
0.0
 11
5455.3115570735571964
 21
337.9173953680445948
 31
0.0
  0
LINE
  5
E6C5
  8
0
 10
5453.8413565434557313
 20
335.9488914311446024
 30
0.0
 11
5455.3115570735571964
 21
335.9488914311446024
 31
0.0
  0
LINE
  5
E6C6
  8
0
 10
5453.8216565434559016
 20
335.9685914311446027
 30
0.0
 11
5453.8216565434559016
 21
337.8976953680445945
 31
0.0
  0
LINE
  5
E6C7
  8
0
 10
5455.3312570735561167
 20
335.9685914311446027
 30
0.0
 11
5455.3312570735561167
 21
337.8976953680445945
 31
0.0
  0
LINE
  5
E6C8
  8
0
 10
5455.018375016430582
 20
336.2250806734650155
 30
0.0
 11
5455.018375016430582
 21
337.6412061257242954
 31
0.0
  0
LINE
  5
E6C9
  8
0
 10
5455.2788475864635984
 20
336.1306986001036989
 30
0.0
 11
5455.2788475864635984
 21
336.8839158405446028
 31
0.0
  0
LINE
  5
E6CA
  8
0
 10
5455.2591475864637687
 20
336.9036158405446031
 30
0.0
 11
5455.0858252855859973
 21
336.9036158405446031
 31
0.0
  0
LINE
  5
E6CB
  8
0
 10
5455.2465770656372115
 20
336.1155304754294093
 30
0.0
 11
5455.0732547647603496
 21
336.259170618147607
 31
0.0
  0
LINE
  5
E6CC
  8
0
 10
5455.0661252855870771
 20
336.2743387428220103
 30
0.0
 11
5455.0661252855870771
 21
336.8839158405446028
 31
0.0
  0
ARC
  5
E6CD
  8
0
 10
5455.2591475864637687
 20
336.1306986001036989
 30
0.0
 40
0.0197
 50
230.3498989964026862
 51
0.0000000000195413
  0
ARC
  5
E6CE
  8
0
 10
5455.0858252855859973
 20
336.2743387428220103
 30
0.0
 40
0.0197
 50
179.9999999999380975
 51
230.3498989964182897
  0
ARC
  5
E6CF
  8
0
 10
5455.2591475864637687
 20
336.8839158405446028
 30
0.0
 40
0.0197
 50
359.9999999999575948
 51
89.9999999999478888
  0
ARC
  5
E6D0
  8
0
 10
5455.0858252855859973
 20
336.8839158405446028
 30
0.0
 40
0.0197
 50
90.0
 51
180.0000000000406999
  0
ARC
  5
E6D1
  8
0
 10
5453.8413565434557313
 20
335.9685914311446027
 30
0.0
 40
0.0197
 50
180.0
 51
270.0
  0
ARC
  5
E6D2
  8
0
 10
5453.8413565434557313
 20
337.8976953680445945
 30
0.0
 40
0.0197
 50
90.0000000001042082
 51
179.9999999999575948
  0
ARC
  5
E6D3
  8
0
 10
5455.3960784355258511
 20
331.6716635990410964
 30
0.0
 40
4.5510260479810851
 50
94.9876748449205053
 51
109.9756089966699051
  0
ARC
  5
E6D4
  8
0
 10
5454.9986750164298428
 20
336.2250806734650155
 30
0.0
 40
0.0197
 50
275.0399145128751002
 51
359.9999999999789111
  0
ARC
  5
E6D5
  8
0
 10
5455.3115570735571964
 20
335.9685914311446027
 30
0.0
 40
0.0197
 50
269.999999999895806
 51
0.0
  0
ARC
  5
E6D6
  8
0
 10
5455.3115570735571964
 20
337.8976953680445945
 30
0.0
 40
0.0197
 50
0.0000000000195413
 51
90.0000000000521254
  0
ARC
  5
E6D7
  8
0
 10
5453.6857751901352458
 20
334.2813265887177749
 30
0.0
 40
2.342798445293194
 50
45.5814548539804889
 51
55.4865508900931133
  0
LINE
  5
E6D8
  8
0
 10
5455.2788475864635984
 20
337.7355881990856119
 30
0.0
 11
5455.2788475864635984
 21
336.9823709586445943
 31
0.0
  0
LINE
  5
E6D9
  8
0
 10
5455.2591475864637687
 20
336.9626709586445941
 30
0.0
 11
5455.0858252855859973
 21
336.9626709586445941
 31
0.0
  0
LINE
  5
E6DA
  8
0
 10
5455.2465770656372115
 20
337.7507563237597878
 30
0.0
 11
5455.0732547647603496
 21
337.6071161810414765
 31
0.0
  0
LINE
  5
E6DB
  8
0
 10
5455.0661252855870771
 20
337.5919480563671868
 30
0.0
 11
5455.0661252855870771
 21
336.9823709586445943
 31
0.0
  0
ARC
  5
E6DC
  8
0
 10
5455.2591475864637687
 20
337.7355881990856119
 30
0.0
 40
0.0197
 50
359.9999999999789111
 51
129.6501010035973138
  0
ARC
  5
E6DD
  8
0
 10
5455.0858252855859973
 20
337.5919480563673005
 30
0.0
 40
0.0197
 50
129.6501010035815966
 51
180.0000000000619025
  0
ARC
  5
E6DE
  8
0
 10
5455.2591475864637687
 20
336.9823709586444807
 30
0.0
 40
0.0197
 50
270.0000000000521254
 51
0.0000000000423395
  0
ARC
  5
E6DF
  8
0
 10
5455.0858252855859973
 20
336.9823709586444807
 30
0.0
 40
0.0197
 50
179.9999999999575948
 51
270.0
  0
ARC
  5
E6E0
  8
0
 10
5455.3960784355258511
 20
342.1946232001479871
 30
0.0
 40
4.5510260479810851
 50
250.0243910033300949
 51
265.0123251550795089
  0
ARC
  5
E6E1
  8
0
 10
5454.9986750164298428
 20
337.6412061257242954
 30
0.0
 40
0.0197
 50
0.0000000000195413
 51
84.9600854871249709
  0
ARC
  5
E6E2
  8
0
 10
5453.6857751901352458
 20
339.5849602104714222
 30
0.0
 40
2.342798445293194
 50
304.513449109906901
 51
314.4185451460184026
  0
LINE
  5
E6E3
  8
0
 10
5456.9352471631545995
 20
335.9685914310446151
 30
0.0
 11
5456.9352471631545995
 21
337.8976953681445821
 31
0.0
  0
LINE
  5
E6E4
  8
0
 10
5456.9155471631556793
 20
335.9488914310446717
 30
0.0
 11
5455.6377336626546821
 21
335.9488914310446717
 31
0.0
  0
LINE
  5
E6E5
  8
0
 10
5456.8841690393110184
 20
335.9685914310446151
 30
0.0
 11
5456.8841690393110184
 21
337.8976953681445821
 31
0.0
  0
LINE
  5
E6E6
  8
0
 10
5456.7960529148558635
 20
336.0473166279446104
 30
0.0
 11
5456.7960529148558635
 21
336.8642308011445721
 31
0.0
  0
LINE
  5
E6E7
  8
0
 10
5456.2543744783242801
 20
336.0473166279446104
 30
0.0
 11
5455.7792503767559538
 21
336.0473166279446104
 31
0.0
  0
ARC
  5
E6E8
  8
0
 10
5456.8644690393102792
 20
335.9685914310446151
 30
0.0
 40
0.0197
 50
269.9999999999478746
 51
0.0
  0
ARC
  5
E6E9
  8
0
 10
5456.9155471631556793
 20
335.9685914310446151
 30
0.0
 40
0.0197
 50
270.0
 51
0.0
  0
LINE
  5
E6EA
  8
0
 10
5456.3494438850311781
 20
336.0670166279447244
 30
0.0
 11
5456.3494438850311781
 21
336.6068175250686068
 31
0.0
  0
LINE
  5
E6EB
  8
0
 10
5456.2740744783241098
 20
336.5984827696447041
 30
0.0
 11
5456.2740744783241098
 21
336.0670166279447244
 31
0.0
  0
LINE
  5
E6EC
  8
0
 10
5456.1766385099117542
 20
336.3439676759369945
 30
0.0
 11
5456.1766385099117542
 21
336.5984827696447041
 31
0.0
  0
ARC
  5
E6ED
  8
0
 10
5456.1569385099119245
 20
336.3439676759369945
 30
0.0
 40
0.0197
 50
270.0
 51
0.0
  0
ARC
  5
E6EE
  8
0
 10
5456.1569385099119245
 20
336.5984827696447041
 30
0.0
 40
0.0197
 50
0.0
 51
90.0
  0
LINE
  5
E6EF
  8
0
 10
5456.1569385099119245
 20
336.3242676759371079
 30
0.0
 11
5455.7595503767570335
 21
336.3242676759371079
 31
0.0
  0
LINE
  5
E6F0
  8
0
 10
5456.2543744783242801
 20
336.6181827696447044
 30
0.0
 11
5456.0220642201602459
 21
336.6181827696447044
 31
0.0
  0
ARC
  5
E6F1
  8
0
 10
5456.2543744783242801
 20
336.5984827696447041
 30
0.0
 40
0.0197
 50
359.9999999999789111
 51
90.0
  0
ARC
  5
E6F2
  8
0
 10
5456.2543744783242801
 20
336.0670166279447244
 30
0.0
 40
0.0197
 50
270.0
 51
0.0
  0
LINE
  5
E6F3
  8
0
 10
5455.7595503767570335
 20
336.0670166279447244
 30
0.0
 11
5455.7595503767570335
 21
336.8642308011445721
 31
0.0
  0
ARC
  5
E6F4
  8
0
 10
5455.7792503767559538
 20
336.0670166279447244
 30
0.0
 40
0.0197
 50
180.0000000000194973
 51
269.9999999999478746
  0
LINE
  5
E6F5
  8
0
 10
5455.6611251799558886
 20
336.067001667344698
 30
0.0
 11
5455.6611251799558886
 21
336.8599347406150741
 31
0.0
  0
ARC
  5
E6F6
  8
0
 10
5455.6414401405563694
 20
336.067001667344698
 30
0.0
 40
0.0196850394000308
 50
259.1470464959861033
 51
0.0
  0
LINE
  5
E6F7
  8
0
 10
5455.8840065919357585
 20
336.8839308011445723
 30
0.0
 11
5455.7792503767559538
 21
336.8839308011445723
 31
0.0
  0
ARC
  5
E6F8
  8
0
 10
5456.1701913933220567
 20
336.8805539130187867
 30
0.0
 40
0.2669499337613248
 50
183.2644403356387102
 51
259.3727517813525765
  0
ARC
  5
E6F9
  8
0
 10
5455.8840065919357585
 20
336.8642308011442879
 30
0.0
 40
0.0197
 50
3.2644403365943608
 51
89.9999999996352216
  0
ARC
  5
E6FA
  8
0
 10
5456.0378021862143214
 20
336.8268098614822179
 30
0.0
 40
0.209219853322045
 50
203.9972519486393878
 51
265.6860136928024758
  0
ARC
  5
E6FB
  8
0
 10
5457.0880774677552836
 20
337.2943621861674046
 30
0.0
 40
1.358864730375889
 50
198.2729276348015048
 51
203.9972519486393878
  0
ARC
  5
E6FC
  8
0
 10
5455.7729539389238198
 20
336.8601159190648104
 30
0.0
 40
0.0260972606480622
 50
18.2729276348076901
 51
65.859226641489002
  0
ARC
  5
E6FD
  8
0
 10
5455.7792503767559538
 20
336.8642308011446858
 30
0.0
 40
0.0197
 50
90.0
 51
180.0000000000406999
  0
ARC
  5
E6FE
  8
0
 10
5455.6377208266585512
 20
336.8620902469072007
 30
0.0
 40
0.0235034031659871
 50
354.7379877248349089
 51
89.9687088513721136
  0
LINE
  5
E6FF
  8
0
 10
5456.7763529148560337
 20
336.8839308011445723
 30
0.0
 11
5456.5489098707812445
 21
336.8839308011445723
 31
0.0
  0
ARC
  5
E700
  8
0
 10
5456.7763529148560337
 20
336.8642308011445721
 30
0.0
 40
0.0197
 50
359.9999999999789111
 51
90.0000000000521254
  0
ARC
  5
E701
  8
0
 10
5456.2582032637083103
 20
336.8867724365775871
 30
0.0
 40
0.2814354743928032
 50
291.6174482229159253
 51
355.4090167110260268
  0
ARC
  5
E702
  8
0
 10
5456.5673049085708044
 20
336.8619516667370135
 30
0.0
 40
0.0286611193864283
 50
129.9270360924130046
 51
175.4090167110520042
  0
ARC
  5
E703
  8
0
 10
5456.3691438850291888
 20
336.606817525068891
 30
0.0
 40
0.0197
 50
111.6174482204501999
 51
180.0000000009297878
  0
LINE
  5
E704
  8
0
 10
5456.7960529148558635
 20
336.0473166279446104
 30
0.0
 11
5456.3691438850300983
 21
336.0473166279446104
 31
0.0
  0
ARC
  5
E705
  8
0
 10
5456.3691438850300983
 20
336.0670166279447244
 30
0.0
 40
0.0197
 50
180.0
 51
270.0
  0
ARC
  5
E706
  8
0
 10
5454.0789001033363093
 20
335.4384331986208281
 30
0.0
 40
2.2740471337897139
 50
15.6815563465454595
 51
23.0838775931822617
  0
ARC
  5
E707
  8
0
 10
5455.9755834253337525
 20
335.2105592298343026
 30
0.0
 40
1.1718929671811009
 50
45.5631083943251767
 51
71.3961677146396738
  0
LINE
  5
E708
  8
0
 10
5456.9155471631556793
 20
337.9173953681445823
 30
0.0
 11
5455.6377336626546821
 21
337.9173953681445823
 31
0.0
  0
LINE
  5
E709
  8
0
 10
5456.7960529148558635
 20
337.8189701712447004
 30
0.0
 11
5456.7960529148558635
 21
337.0020559980446251
 31
0.0
  0
LINE
  5
E70A
  8
0
 10
5456.2543744783242801
 20
337.8189701712447004
 30
0.0
 11
5455.7792503767559538
 21
337.8189701712447004
 31
0.0
  0
ARC
  5
E70B
  8
0
 10
5456.8644690393102792
 20
337.8976953681445821
 30
0.0
 40
0.0197
 50
0.0
 51
90.0000000000521254
  0
ARC
  5
E70C
  8
0
 10
5456.9155471631556793
 20
337.8976953681445821
 30
0.0
 40
0.0197
 50
0.0
 51
90.0
  0
LINE
  5
E70D
  8
0
 10
5456.3494438850311781
 20
337.7992701712447001
 30
0.0
 11
5456.3494438850311781
 21
337.2594692741205904
 31
0.0
  0
LINE
  5
E70E
  8
0
 10
5456.2740744783241098
 20
337.2678040295447204
 30
0.0
 11
5456.2740744783241098
 21
337.7992701712447001
 31
0.0
  0
LINE
  5
E70F
  8
0
 10
5456.1766385099117542
 20
337.5223191232522026
 30
0.0
 11
5456.1766385099117542
 21
337.2678040295447204
 31
0.0
  0
ARC
  5
E710
  8
0
 10
5456.1569385099119245
 20
337.5223191232522026
 30
0.0
 40
0.0197
 50
0.0
 51
90.0
  0
ARC
  5
E711
  8
0
 10
5456.1569385099119245
 20
337.2678040295447204
 30
0.0
 40
0.0197
 50
270.0
 51
0.0
  0
LINE
  5
E712
  8
0
 10
5456.1569385099119245
 20
337.5420191232522029
 30
0.0
 11
5455.7595503767570335
 21
337.5420191232522029
 31
0.0
  0
LINE
  5
E713
  8
0
 10
5456.2543744783242801
 20
337.2481040295446064
 30
0.0
 11
5456.0220642201602459
 21
337.2481040295446064
 31
0.0
  0
ARC
  5
E714
  8
0
 10
5456.2543744783242801
 20
337.2678040295447204
 30
0.0
 40
0.0197
 50
270.0
 51
0.0000000000195413
  0
ARC
  5
E715
  8
0
 10
5456.2543744783242801
 20
337.7992701712447001
 30
0.0
 40
0.0197
 50
0.0
 51
90.0
  0
LINE
  5
E716
  8
0
 10
5455.7595503767570335
 20
337.7992701712447001
 30
0.0
 11
5455.7595503767570335
 21
337.0020559980446251
 31
0.0
  0
ARC
  5
E717
  8
0
 10
5455.7792503767559538
 20
337.7992701712447001
 30
0.0
 40
0.0197
 50
90.0000000000521254
 51
179.9999999999787974
  0
LINE
  5
E718
  8
0
 10
5455.6611251799558886
 20
337.7992851318446128
 30
0.0
 11
5455.6611251799558886
 21
337.0063520585741799
 31
0.0
  0
ARC
  5
E719
  8
0
 10
5455.6414401405563694
 20
337.7992851318446128
 30
0.0
 40
0.0196850394000308
 50
0.0
 51
100.8529535040137972
  0
LINE
  5
E71A
  8
0
 10
5455.8840065919357585
 20
336.9823559980446817
 30
0.0
 11
5455.7792503767559538
 21
336.9823559980446817
 31
0.0
  0
ARC
  5
E71B
  8
0
 10
5456.1701913933220567
 20
336.9857328861705241
 30
0.0
 40
0.2669499337613248
 50
100.6272482186472956
 51
176.7355596643612898
  0
ARC
  5
E71C
  8
0
 10
5455.8840065919357585
 20
337.002055998045023
 30
0.0
 40
0.0197
 50
270.0000000003647074
 51
356.7355596634039898
  0
ARC
  5
E71D
  8
0
 10
5456.0378021862143214
 20
337.0394769377070929
 30
0.0
 40
0.209219853322045
 50
94.3139863071975526
 51
156.0027480513604985
  0
ARC
  5
E71E
  8
0
 10
5457.0880774677552836
 20
336.5719246130219062
 30
0.0
 40
1.358864730375889
 50
156.0027480513604985
 51
161.7270723651984952
  0
ARC
  5
E71F
  8
0
 10
5455.7729539389238198
 20
337.0061708801245004
 30
0.0
 40
0.0260972606480622
 50
294.1407733585110122
 51
341.7270723651923277
  0
ARC
  5
E720
  8
0
 10
5455.7792503767559538
 20
337.0020559980446251
 30
0.0
 40
0.0197
 50
179.9999999999575948
 51
270.0
  0
ARC
  5
E721
  8
0
 10
5455.6377208266585512
 20
337.0041965522821101
 30
0.0
 40
0.0235034031659871
 50
270.0312911486278722
 51
5.2620122751651168
  0
LINE
  5
E722
  8
0
 10
5456.7763529148560337
 20
336.9823559980446817
 30
0.0
 11
5456.5489098707812445
 21
336.9823559980446817
 31
0.0
  0
ARC
  5
E723
  8
0
 10
5456.7763529148560337
 20
337.0020559980446251
 30
0.0
 40
0.0197
 50
269.9999999999478746
 51
0.0000000000195413
  0
ARC
  5
E724
  8
0
 10
5456.2582032637083103
 20
336.9795143626117238
 30
0.0
 40
0.2814354743928032
 50
4.5909832889739413
 51
68.3825517770840747
  0
ARC
  5
E725
  8
0
 10
5456.5673049085708044
 20
337.0043351324521836
 30
0.0
 40
0.0286611193864283
 50
184.5909832889479105
 51
230.0729639075869954
  0
ARC
  5
E726
  8
0
 10
5456.3691438850291888
 20
337.2594692741204199
 30
0.0
 40
0.0197
 50
179.9999999990700985
 51
248.3825517795498001
  0
LINE
  5
E727
  8
0
 10
5456.7960529148558635
 20
337.8189701712447004
 30
0.0
 11
5456.3691438850300983
 21
337.8189701712447004
 31
0.0
  0
ARC
  5
E728
  8
0
 10
5456.3691438850300983
 20
337.7992701712447001
 30
0.0
 40
0.0197
 50
90.0
 51
180.0
  0
ARC
  5
E729
  8
0
 10
5454.0789001033363093
 20
338.4278536005684828
 30
0.0
 40
2.2740471337897139
 50
336.9161224068176921
 51
344.3184436534530164
  0
ARC
  5
E72A
  8
0
 10
5455.9755834253337525
 20
338.6557275693550082
 30
0.0
 40
1.1718929671811009
 50
288.6038322853603972
 51
314.4368916056736794
  0
LINE
  5
E72B
  8
0
 10
5456.360112043402296
 20
336.8445607224446121
 30
0.0
 11
5456.1348802355623775
 21
336.8445607224446121
 31
0.0
  0
LINE
  5
E72C
  8
0
 10
5456.3575910328554528
 20
337.021726076744585
 30
0.0
 11
5456.1348802355623775
 21
337.021726076744585
 31
0.0
  0
ARC
  5
E72D
  8
0
 10
5456.1662001733357101
 20
336.9331433995947123
 30
0.0
 40
0.0939565282118573
 50
109.4719289130193971
 51
250.5280710869805887
  0
ARC
  5
E72E
  8
0
 10
5456.3256019769860359
 20
336.9326702681822781
 30
0.0
 40
0.094626828828611
 50
291.3889015292617728
 51
70.241592389295505
  0
ARC
  5
E72F
  8
0
 10
5456.2286394273187398
 20
336.933249263918583
 30
0.0
 40
0.1083984250809047
 50
305.0977931957992837
 51
54.7080349841385072
  0
ARC
  5
E730
  8
0
 10
5456.0740740027849824
 20
336.9330883188703183
 30
0.0
 40
0.1861054854620681
 50
331.5960373170019011
 51
28.4425264290977111
  0
LINE
  5
E731
  8
0
 10
5444.5486452215691315
 20
286.7362930057446988
 30
0.0
 11
5444.6220389815562157
 21
286.7362930057446988
 31
0.0
  0
LINE
  5
E732
  8
0
 10
5444.5486452218583509
 20
284.7677890687446052
 30
0.0
 11
5444.6220389815562157
 21
284.7677890687446052
 31
0.0
  0
LINE
  5
E733
  8
0
 10
5444.5386859558066135
 20
284.7704919213455241
 30
0.0
 11
5444.049042489704334
 21
285.0573923897007944
 31
0.0
  0
LINE
  5
E734
  8
0
 10
5444.5388861078563423
 20
286.7165930057446985
 30
0.0
 11
5444.5388861078563423
 21
284.7874890687446054
 31
0.0
  0
LINE
  5
E735
  8
0
 10
5444.0393017557562416
 20
285.1608206178701721
 30
0.0
 11
5444.0393017557562416
 21
285.0743895370999894
 31
0.0
  0
LINE
  5
E736
  8
0
 10
5444.0393017557562416
 20
285.2284449743445975
 30
0.0
 11
5444.0393017557562416
 21
286.275637100244694
 31
0.0
  0
LINE
  5
E737
  8
0
 10
5444.0393017557562416
 20
286.3465292260660817
 30
0.0
 11
5444.0393017557562416
 21
286.429692537433084
 31
0.0
  0
LINE
  5
E738
  8
0
 10
5444.0572926112763525
 20
285.1771648404875918
 30
0.0
 11
5444.0572926112763525
 21
286.3269172269230012
 31
0.0
  0
LINE
  5
E739
  8
0
 10
5444.049042489700696
 20
286.4466896848302895
 30
0.0
 11
5444.5386859555137562
 21
286.733590153141904
 31
0.0
  0
ARC
  5
E73A
  8
0
 10
5444.0590017557560714
 20
286.429692537433084
 30
0.0
 40
0.0197
 50
120.3676369895284068
 51
179.9999999999787974
  0
ARC
  5
E73B
  8
0
 10
5444.5486452215691315
 20
286.716593005744528
 30
0.0
 40
0.0197
 50
90.0
 51
120.3676369893523059
  0
ARC
  5
E73C
  8
0
 10
5444.558586107856172
 20
286.7165930057446985
 30
0.0
 40
0.0197
 50
90.0
 51
180.0
  0
ARC
  5
E73D
  8
0
 10
5444.558586107856172
 20
284.7874890687446054
 30
0.0
 40
0.0197
 50
180.0000000000406999
 51
270.0
  0
ARC
  5
E73E
  8
0
 10
5444.5486452218583509
 20
284.7874890687446054
 30
0.0
 40
0.0197
 50
239.6323630214118054
 51
270.0
  0
ARC
  5
E73F
  8
0
 10
5444.0590017557560714
 20
285.0743895370999894
 30
0.0
 40
0.0197
 50
179.9999999999787974
 51
239.6323630214633909
  0
LINE
  5
E740
  8
0
 10
5444.0472017557558502
 20
285.2205449743447048
 30
0.0
 11
5444.0572926112763525
 21
285.2205449743447048
 31
0.0
  0
LINE
  5
E741
  8
0
 10
5444.0472017557558502
 20
286.2835371002447005
 30
0.0
 11
5444.0572926112763525
 21
286.2835371002447005
 31
0.0
  0
ARC
  5
E742
  8
0
 10
5444.0472017557558502
 20
286.275637100244694
 30
0.0
 40
0.0079
 50
90.0000000001042082
 51
179.9999999998453006
  0
ARC
  5
E743
  8
0
 10
5444.0472017557558502
 20
285.2284449743445975
 30
0.0
 40
0.0079
 50
180.0000000001546994
 51
269.999999999895806
  0
ARC
  5
E744
  8
0
 10
5444.0589867949584004
 20
286.3465292260660817
 30
0.0
 40
0.0196850392022299
 50
180.0
 51
265.0627576093281164
  0
ARC
  5
E745
  8
0
 10
5444.0593357228081004
 20
285.1568420891509845
 30
0.0
 40
0.0204251934319411
 50
95.7408400309066394
 51
168.7678146197185924
  0
LINE
  5
E746
  8
0
 10
5453.8413565434557313
 20
286.7362930057446988
 30
0.0
 11
5455.3115570735571964
 21
286.7362930057446988
 31
0.0
  0
LINE
  5
E747
  8
0
 10
5453.8413565434557313
 20
284.7677890688445927
 30
0.0
 11
5455.3115570735571964
 21
284.7677890688445927
 31
0.0
  0
LINE
  5
E748
  8
0
 10
5453.8216565434559016
 20
284.787489068844593
 30
0.0
 11
5453.8216565434559016
 21
286.7165930057445848
 31
0.0
  0
LINE
  5
E749
  8
0
 10
5455.3312570735561167
 20
284.787489068844593
 30
0.0
 11
5455.3312570735561167
 21
286.7165930057445848
 31
0.0
  0
LINE
  5
E74A
  8
0
 10
5455.018375016430582
 20
285.0439783111648921
 30
0.0
 11
5455.018375016430582
 21
286.4601037634242857
 31
0.0
  0
LINE
  5
E74B
  8
0
 10
5455.2788475864635984
 20
284.9495962378036893
 30
0.0
 11
5455.2788475864635984
 21
285.7028134782447069
 31
0.0
  0
LINE
  5
E74C
  8
0
 10
5455.2591475864637687
 20
285.7225134782447071
 30
0.0
 11
5455.0858252855859973
 21
285.7225134782447071
 31
0.0
  0
LINE
  5
E74D
  8
0
 10
5455.2465770656372115
 20
284.9344281131293997
 30
0.0
 11
5455.0732547647603496
 21
285.078068255847711
 31
0.0
  0
LINE
  5
E74E
  8
0
 10
5455.0661252855870771
 20
285.093236380521887
 30
0.0
 11
5455.0661252855870771
 21
285.7028134782447069
 31
0.0
  0
ARC
  5
E74F
  8
0
 10
5455.2591475864637687
 20
284.9495962378036893
 30
0.0
 40
0.0197
 50
230.3498989964026862
 51
0.0000000000211698
  0
ARC
  5
E750
  8
0
 10
5455.0858252855859973
 20
285.093236380521887
 30
0.0
 40
0.0197
 50
179.9999999999380975
 51
230.3498989964182897
  0
ARC
  5
E751
  8
0
 10
5455.2591475864637687
 20
285.7028134782447069
 30
0.0
 40
0.0197
 50
359.9999999999575948
 51
89.9999999999478888
  0
ARC
  5
E752
  8
0
 10
5455.0858252855859973
 20
285.7028134782447069
 30
0.0
 40
0.0197
 50
90.0
 51
180.0000000000406999
  0
ARC
  5
E753
  8
0
 10
5453.8413565434557313
 20
284.787489068844593
 30
0.0
 40
0.0197
 50
180.0
 51
270.0
  0
ARC
  5
E754
  8
0
 10
5453.8413565434557313
 20
286.7165930057445848
 30
0.0
 40
0.0197
 50
90.0000000001042082
 51
179.9999999999575948
  0
ARC
  5
E755
  8
0
 10
5455.3960784355258511
 20
280.4905612367412004
 30
0.0
 40
4.5510260479810851
 50
94.9876748449205053
 51
109.9756089966699051
  0
ARC
  5
E756
  8
0
 10
5454.9986750164298428
 20
285.0439783111648921
 30
0.0
 40
0.0197
 50
275.0399145128751002
 51
359.9999999999789111
  0
ARC
  5
E757
  8
0
 10
5455.3115570735571964
 20
284.787489068844593
 30
0.0
 40
0.0197
 50
269.999999999895806
 51
0.0
  0
ARC
  5
E758
  8
0
 10
5455.3115570735571964
 20
286.7165930057445848
 30
0.0
 40
0.0197
 50
0.0000000000211698
 51
90.0000000000521254
  0
ARC
  5
E759
  8
0
 10
5453.6857751901352458
 20
283.1002242264178221
 30
0.0
 40
2.342798445293194
 50
45.5814548539804889
 51
55.4865508900931133
  0
LINE
  5
E75A
  8
0
 10
5455.2788475864635984
 20
286.5544858367854886
 30
0.0
 11
5455.2788475864635984
 21
285.8012685963445847
 31
0.0
  0
LINE
  5
E75B
  8
0
 10
5455.2591475864637687
 20
285.7815685963445844
 30
0.0
 11
5455.0858252855859973
 21
285.7815685963445844
 31
0.0
  0
LINE
  5
E75C
  8
0
 10
5455.2465770656372115
 20
286.5696539614598919
 30
0.0
 11
5455.0732547647603496
 21
286.4260138187415805
 31
0.0
  0
LINE
  5
E75D
  8
0
 10
5455.0661252855870771
 20
286.4108456940671772
 30
0.0
 11
5455.0661252855870771
 21
285.8012685963445847
 31
0.0
  0
ARC
  5
E75E
  8
0
 10
5455.2591475864637687
 20
286.5544858367854886
 30
0.0
 40
0.0197
 50
359.9999999999789111
 51
129.6501010035973138
  0
ARC
  5
E75F
  8
0
 10
5455.0858252855859973
 20
286.4108456940672909
 30
0.0
 40
0.0197
 50
129.6501010035815966
 51
180.0000000000619025
  0
ARC
  5
E760
  8
0
 10
5455.2591475864637687
 20
285.8012685963445847
 30
0.0
 40
0.0197
 50
270.0000000000521254
 51
0.0000000000423395
  0
ARC
  5
E761
  8
0
 10
5455.0858252855859973
 20
285.8012685963445847
 30
0.0
 40
0.0197
 50
179.9999999999575948
 51
270.0
  0
ARC
  5
E762
  8
0
 10
5455.3960784355258511
 20
291.0135208378480911
 30
0.0
 40
4.5510260479810851
 50
250.0243910033300949
 51
265.0123251550795089
  0
ARC
  5
E763
  8
0
 10
5454.9986750164298428
 20
286.4601037634242857
 30
0.0
 40
0.0197
 50
0.0000000000195413
 51
84.9600854871249709
  0
ARC
  5
E764
  8
0
 10
5453.6857751901352458
 20
288.4038578481715263
 30
0.0
 40
2.342798445293194
 50
304.513449109906901
 51
314.4185451460184026
  0
LINE
  5
E765
  8
0
 10
5456.9352471631545995
 20
284.7874890687446054
 30
0.0
 11
5456.9352471631545995
 21
286.7165930058445724
 31
0.0
  0
LINE
  5
E766
  8
0
 10
5456.9155471631556793
 20
284.7677890687446052
 30
0.0
 11
5455.6377336626546821
 21
284.7677890687446052
 31
0.0
  0
LINE
  5
E767
  8
0
 10
5456.8841690393110184
 20
284.7874890687446054
 30
0.0
 11
5456.8841690393110184
 21
286.7165930058445724
 31
0.0
  0
LINE
  5
E768
  8
0
 10
5456.7960529148558635
 20
284.8662142656447145
 30
0.0
 11
5456.7960529148558635
 21
285.6831284388446193
 31
0.0
  0
LINE
  5
E769
  8
0
 10
5456.2543744783242801
 20
284.8662142656447145
 30
0.0
 11
5455.7792503767559538
 21
284.8662142656447145
 31
0.0
  0
ARC
  5
E76A
  8
0
 10
5456.8644690393102792
 20
284.7874890687446054
 30
0.0
 40
0.0197
 50
269.9999999999478746
 51
0.0
  0
ARC
  5
E76B
  8
0
 10
5456.9155471631556793
 20
284.7874890687446054
 30
0.0
 40
0.0197
 50
270.0
 51
0.0
  0
LINE
  5
E76C
  8
0
 10
5456.3494438850311781
 20
284.8859142656447148
 30
0.0
 11
5456.3494438850311781
 21
285.4257151627685971
 31
0.0
  0
LINE
  5
E76D
  8
0
 10
5456.2740744783241098
 20
285.4173804073445808
 30
0.0
 11
5456.2740744783241098
 21
284.8859142656447148
 31
0.0
  0
LINE
  5
E76E
  8
0
 10
5456.1766385099117542
 20
285.1628653136370986
 30
0.0
 11
5456.1766385099117542
 21
285.4173804073445808
 31
0.0
  0
ARC
  5
E76F
  8
0
 10
5456.1569385099119245
 20
285.1628653136370986
 30
0.0
 40
0.0197
 50
270.0
 51
0.0
  0
ARC
  5
E770
  8
0
 10
5456.1569385099119245
 20
285.4173804073445808
 30
0.0
 40
0.0197
 50
0.0
 51
90.0
  0
LINE
  5
E771
  8
0
 10
5456.1569385099119245
 20
285.1431653136370983
 30
0.0
 11
5455.7595503767570335
 21
285.1431653136370983
 31
0.0
  0
LINE
  5
E772
  8
0
 10
5456.2543744783242801
 20
285.4370804073445811
 30
0.0
 11
5456.0220642201602459
 21
285.4370804073445811
 31
0.0
  0
ARC
  5
E773
  8
0
 10
5456.2543744783242801
 20
285.4173804073445808
 30
0.0
 40
0.0197
 50
359.9999999999789111
 51
90.0
  0
ARC
  5
E774
  8
0
 10
5456.2543744783242801
 20
284.8859142656447148
 30
0.0
 40
0.0197
 50
270.0
 51
0.0
  0
LINE
  5
E775
  8
0
 10
5455.7595503767570335
 20
284.8859142656447148
 30
0.0
 11
5455.7595503767570335
 21
285.6831284388446193
 31
0.0
  0
ARC
  5
E776
  8
0
 10
5455.7792503767559538
 20
284.8859142656447148
 30
0.0
 40
0.0197
 50
180.0000000000194973
 51
269.9999999999478746
  0
LINE
  5
E777
  8
0
 10
5455.6611251799558886
 20
284.8858993050446884
 30
0.0
 11
5455.6611251799558886
 21
285.6788323783151782
 31
0.0
  0
ARC
  5
E778
  8
0
 10
5455.6414401405563694
 20
284.8858993050446884
 30
0.0
 40
0.0196850394000308
 50
259.1470464959861033
 51
0.0
  0
LINE
  5
E779
  8
0
 10
5455.8840065919357585
 20
285.7028284388446764
 30
0.0
 11
5455.7792503767559538
 21
285.7028284388446764
 31
0.0
  0
ARC
  5
E77A
  8
0
 10
5456.1701913933220567
 20
285.6994515507187771
 30
0.0
 40
0.2669499337613248
 50
183.2644403356387102
 51
259.3727517813525765
  0
ARC
  5
E77B
  8
0
 10
5455.8840065919357585
 20
285.6831284388442782
 30
0.0
 40
0.0197
 50
3.2644403365943608
 51
89.9999999996352216
  0
ARC
  5
E77C
  8
0
 10
5456.0378021862143214
 20
285.6457074991820946
 30
0.0
 40
0.209219853322045
 50
203.9972519486393878
 51
265.6860136928024758
  0
ARC
  5
E77D
  8
0
 10
5457.0880774677552836
 20
286.113259823867395
 30
0.0
 40
1.358864730375889
 50
198.2729276348015048
 51
203.9972519486393878
  0
ARC
  5
E77E
  8
0
 10
5455.7729539389238198
 20
285.6790135567648008
 30
0.0
 40
0.0260972606480622
 50
18.2729276348076901
 51
65.859226641489002
  0
ARC
  5
E77F
  8
0
 10
5455.7792503767559538
 20
285.6831284388446193
 30
0.0
 40
0.0197
 50
90.0
 51
180.0000000000406999
  0
ARC
  5
E780
  8
0
 10
5455.6377208266585512
 20
285.6809878846073047
 30
0.0
 40
0.0235034031659871
 50
354.7379877248349089
 51
89.9687088513721136
  0
LINE
  5
E781
  8
0
 10
5456.7763529148560337
 20
285.7028284388446764
 30
0.0
 11
5456.5489098707812445
 21
285.7028284388446764
 31
0.0
  0
ARC
  5
E782
  8
0
 10
5456.7763529148560337
 20
285.6831284388446193
 30
0.0
 40
0.0197
 50
359.9999999999789111
 51
90.0000000000521254
  0
ARC
  5
E783
  8
0
 10
5456.2582032637083103
 20
285.7056700742775774
 30
0.0
 40
0.2814354743928032
 50
291.6174482229159253
 51
355.4090167110260268
  0
ARC
  5
E784
  8
0
 10
5456.5673049085708044
 20
285.6808493044371176
 30
0.0
 40
0.0286611193864283
 50
129.9270360924130046
 51
175.4090167110520042
  0
ARC
  5
E785
  8
0
 10
5456.3691438850291888
 20
285.425715162768995
 30
0.0
 40
0.0197
 50
111.6174482204501999
 51
180.0000000009297878
  0
LINE
  5
E786
  8
0
 10
5456.7960529148558635
 20
284.8662142656447145
 30
0.0
 11
5456.3691438850300983
 21
284.8662142656447145
 31
0.0
  0
ARC
  5
E787
  8
0
 10
5456.3691438850300983
 20
284.8859142656447148
 30
0.0
 40
0.0197
 50
180.0
 51
270.0
  0
ARC
  5
E788
  8
0
 10
5454.0789001033363093
 20
284.2573308363208184
 30
0.0
 40
2.2740471337897139
 50
15.6815563465454595
 51
23.0838775931822617
  0
ARC
  5
E789
  8
0
 10
5455.9755834253337525
 20
284.029456867534293
 30
0.0
 40
1.1718929671811009
 50
45.5631083943263135
 51
71.3961677146396738
  0
LINE
  5
E78A
  8
0
 10
5456.9155471631556793
 20
286.7362930058445727
 30
0.0
 11
5455.6377336626546821
 21
286.7362930058445727
 31
0.0
  0
LINE
  5
E78B
  8
0
 10
5456.7960529148558635
 20
286.6378678089445771
 30
0.0
 11
5456.7960529148558635
 21
285.8209536357446723
 31
0.0
  0
LINE
  5
E78C
  8
0
 10
5456.2543744783242801
 20
286.6378678089445771
 30
0.0
 11
5455.7792503767559538
 21
286.6378678089445771
 31
0.0
  0
ARC
  5
E78D
  8
0
 10
5456.8644690393102792
 20
286.7165930058445724
 30
0.0
 40
0.0197
 50
0.0
 51
90.0000000000521254
  0
ARC
  5
E78E
  8
0
 10
5456.9155471631556793
 20
286.7165930058445724
 30
0.0
 40
0.0197
 50
0.0
 51
90.0
  0
LINE
  5
E78F
  8
0
 10
5456.3494438850311781
 20
286.6181678089445768
 30
0.0
 11
5456.3494438850311781
 21
286.0783669118206944
 31
0.0
  0
LINE
  5
E790
  8
0
 10
5456.2740744783241098
 20
286.0867016672447107
 30
0.0
 11
5456.2740744783241098
 21
286.6181678089445768
 31
0.0
  0
LINE
  5
E791
  8
0
 10
5456.1766385099117542
 20
286.341216760952193
 30
0.0
 11
5456.1766385099117542
 21
286.0867016672447107
 31
0.0
  0
ARC
  5
E792
  8
0
 10
5456.1569385099119245
 20
286.341216760952193
 30
0.0
 40
0.0197
 50
0.0
 51
90.0
  0
ARC
  5
E793
  8
0
 10
5456.1569385099119245
 20
286.0867016672447107
 30
0.0
 40
0.0197
 50
270.0
 51
0.0
  0
LINE
  5
E794
  8
0
 10
5456.1569385099119245
 20
286.3609167609521933
 30
0.0
 11
5455.7595503767570335
 21
286.3609167609521933
 31
0.0
  0
LINE
  5
E795
  8
0
 10
5456.2543744783242801
 20
286.0670016672447105
 30
0.0
 11
5456.0220642201602459
 21
286.0670016672447105
 31
0.0
  0
ARC
  5
E796
  8
0
 10
5456.2543744783242801
 20
286.0867016672447107
 30
0.0
 40
0.0197
 50
270.0
 51
0.0000000000195413
  0
ARC
  5
E797
  8
0
 10
5456.2543744783242801
 20
286.6181678089445768
 30
0.0
 40
0.0197
 50
0.0
 51
90.0
  0
LINE
  5
E798
  8
0
 10
5455.7595503767570335
 20
286.6181678089445768
 30
0.0
 11
5455.7595503767570335
 21
285.8209536357446723
 31
0.0
  0
ARC
  5
E799
  8
0
 10
5455.7792503767559538
 20
286.6181678089445768
 30
0.0
 40
0.0197
 50
90.0000000000521254
 51
179.9999999999787974
  0
LINE
  5
E79A
  8
0
 10
5455.6611251799558886
 20
286.6181827695446032
 30
0.0
 11
5455.6611251799558886
 21
285.8252496962741134
 31
0.0
  0
ARC
  5
E79B
  8
0
 10
5455.6414401405563694
 20
286.6181827695446032
 30
0.0
 40
0.0196850394000308
 50
0.0
 51
100.8529535040137972
  0
LINE
  5
E79C
  8
0
 10
5455.8840065919357585
 20
285.8012536357446152
 30
0.0
 11
5455.7792503767559538
 21
285.8012536357446152
 31
0.0
  0
ARC
  5
E79D
  8
0
 10
5456.1701913933220567
 20
285.8046305238705145
 30
0.0
 40
0.2669499337613248
 50
100.6272482186472956
 51
176.7355596643612898
  0
ARC
  5
E79E
  8
0
 10
5455.8840065919357585
 20
285.8209536357450133
 30
0.0
 40
0.0197
 50
270.0000000003647074
 51
356.7355596634039898
  0
ARC
  5
E79F
  8
0
 10
5456.0378021862143214
 20
285.858374575407197
 30
0.0
 40
0.209219853322045
 50
94.3139863071975526
 51
156.0027480513604985
  0
ARC
  5
E7A0
  8
0
 10
5457.0880774677552836
 20
285.3908222507218966
 30
0.0
 40
1.358864730375889
 50
156.0027480513604985
 51
161.7270723651984952
  0
ARC
  5
E7A1
  8
0
 10
5455.7729539389238198
 20
285.8250685178244908
 30
0.0
 40
0.0260972606480622
 50
294.1407733585110122
 51
341.7270723651923277
  0
ARC
  5
E7A2
  8
0
 10
5455.7792503767559538
 20
285.8209536357446723
 30
0.0
 40
0.0197
 50
179.9999999999575948
 51
270.0
  0
ARC
  5
E7A3
  8
0
 10
5455.6377208266585512
 20
285.8230941899821005
 30
0.0
 40
0.0235034031659871
 50
270.0312911486278722
 51
5.2620122751651168
  0
LINE
  5
E7A4
  8
0
 10
5456.7763529148560337
 20
285.8012536357446152
 30
0.0
 11
5456.5489098707812445
 21
285.8012536357446152
 31
0.0
  0
ARC
  5
E7A5
  8
0
 10
5456.7763529148560337
 20
285.8209536357446723
 30
0.0
 40
0.0197
 50
269.9999999999478746
 51
0.0000000000195413
  0
ARC
  5
E7A6
  8
0
 10
5456.2582032637083103
 20
285.7984120003117141
 30
0.0
 40
0.2814354743928032
 50
4.5909832889739413
 51
68.3825517770840747
  0
ARC
  5
E7A7
  8
0
 10
5456.5673049085708044
 20
285.823232770152174
 30
0.0
 40
0.0286611193864283
 50
184.5909832889479105
 51
230.0729639075869954
  0
ARC
  5
E7A8
  8
0
 10
5456.3691438850291888
 20
286.0783669118204102
 30
0.0
 40
0.0197
 50
179.9999999990700985
 51
248.3825517795498001
  0
LINE
  5
E7A9
  8
0
 10
5456.7960529148558635
 20
286.6378678089445771
 30
0.0
 11
5456.3691438850300983
 21
286.6378678089445771
 31
0.0
  0
ARC
  5
E7AA
  8
0
 10
5456.3691438850300983
 20
286.6181678089445768
 30
0.0
 40
0.0197
 50
90.0
 51
180.0
  0
ARC
  5
E7AB
  8
0
 10
5454.0789001033363093
 20
287.2467512382684731
 30
0.0
 40
2.2740471337897139
 50
336.9161224068176921
 51
344.3184436534530164
  0
ARC
  5
E7AC
  8
0
 10
5455.9755834253337525
 20
287.4746252070548849
 30
0.0
 40
1.1718929671811009
 50
288.6038322853603972
 51
314.4368916056736794
  0
LINE
  5
E7AD
  8
0
 10
5456.360112043402296
 20
285.6634583601447162
 30
0.0
 11
5456.1348802355623775
 21
285.6634583601447162
 31
0.0
  0
LINE
  5
E7AE
  8
0
 10
5456.3575910328554528
 20
285.8406237144445754
 30
0.0
 11
5456.1348802355623775
 21
285.8406237144445754
 31
0.0
  0
ARC
  5
E7AF
  8
0
 10
5456.1662001733357101
 20
285.7520410372945889
 30
0.0
 40
0.0939565282118573
 50
109.4719289130193971
 51
250.5280710869805887
  0
ARC
  5
E7B0
  8
0
 10
5456.3256019769860359
 20
285.7515679058823252
 30
0.0
 40
0.094626828828611
 50
291.3889015292617728
 51
70.241592389295505
  0
ARC
  5
E7B1
  8
0
 10
5456.2286394273187398
 20
285.7521469016185733
 30
0.0
 40
0.1083984250809047
 50
305.0977931957992837
 51
54.7080349841385072
  0
ARC
  5
E7B2
  8
0
 10
5456.0740740027849824
 20
285.751985956570195
 30
0.0
 40
0.1861054854620681
 50
331.5960373170019011
 51
28.4425264290977111
  0
LINE
  5
E7B3
  8
0
 10
5444.4733484057223905
 20
312.5616020260325172
 30
0.0
 11
5444.5434615450867568
 21
312.5616020260325172
 31
0.0
  0
LINE
  5
E7B4
  8
0
 10
5441.7196730796149495
 20
312.1166046822065141
 30
0.0
 11
5442.3933074899869098
 21
312.1166046822065141
 31
0.0
  0
LINE
  5
E7B5
  8
0
 10
5441.7196730763816959
 20
311.3166046822065027
 30
0.0
 11
5442.3934158522288271
 21
311.3166046822065027
 31
0.0
  0
LINE
  5
E7B6
  8
0
 10
5444.4730392117153315
 20
310.8716020303584742
 30
0.0
 11
5444.5433032612008901
 21
310.8716020303584742
 31
0.0
  0
ARC
  5
E7B7
  8
0
 10
5442.3260442514556416
 20
311.7166046797065064
 30
0.0
 40
0.7300000000000246
 50
147.1119318003520107
 51
212.8880677271978925
  0
ARC
  5
E7B8
  8
0
 10
5441.7196730796149495
 20
312.1087046822070192
 30
0.0
 40
0.0079
 50
89.9999999989056647
 51
147.1119318030081047
  0
ARC
  5
E7B9
  8
0
 10
5441.7196730763816959
 20
311.3245046822059976
 30
0.0
 40
0.0079
 50
212.8880677243402886
 51
270.0000000009900987
  0
LINE
  5
E7BA
  8
0
 10
5442.3985258691964191
 20
311.3184799227419148
 30
0.0
 11
5442.4960534950687361
 21
311.4011998762620124
 31
0.0
  0
LINE
  5
E7BB
  8
0
 10
5442.4960534950687361
 20
312.0873710048875864
 30
0.0
 11
5442.4960534950687361
 21
311.3458391045253961
 31
0.0
  0
LINE
  5
E7BC
  8
0
 10
5442.49223663284738
 20
312.035889687877102
 30
0.0
 11
5442.3983899091317653
 21
312.1147527410390126
 31
0.0
  0
ARC
  5
E7BD
  8
0
 10
5442.3933074899869098
 20
312.1087046822065076
 30
0.0
 40
0.0079
 50
49.958357838080353
 51
89.9999999998957776
  0
ARC
  5
E7BE
  8
0
 10
5442.3934158522288271
 20
311.3245046822065092
 30
0.0
 40
0.0079
 50
270.0000000000521254
 51
310.3035919272710998
  0
LINE
  5
E7BF
  8
0
 10
5441.7130391859463998
 20
311.3202149855156904
 30
0.0
 11
5441.7130391892151238
 21
312.1129943789520098
 31
0.0
  0
LINE
  5
E7C0
  8
0
 10
5442.3983899091317653
 20
312.1147527410390126
 30
0.0
 11
5442.3985258691964191
 21
311.3184799227419148
 31
0.0
  0
ARC
  5
E7C1
  8
0
 10
5442.1033298950396784
 20
305.3586568635835761
 30
0.0
 40
6.0000325562987138
 50
66.7695656688604373
 51
74.3354640377110485
  0
ARC
  5
E7C2
  8
0
 10
5442.1033499177483463
 20
305.3587282662589928
 30
0.0
 40
5.9999583993645746
 50
74.3354640377110485
 51
83.786201274717385
  0
ARC
  5
E7C3
  8
0
 10
5442.1012750639538353
 20
305.339671658931195
 30
0.0
 40
6.0191276273384311
 50
83.786201274717385
 51
86.2394241138612188
  0
ARC
  5
E7C4
  8
0
 10
5444.4730392117153315
 20
310.8795020303585943
 30
0.0
 40
0.0079
 50
246.769565669084102
 51
269.999999999895806
  0
LINE
  5
E7C5
  8
0
 10
5444.5514082907693592
 20
310.8145692632509736
 30
0.0
 11
5444.5514082907693592
 21
312.6186408461617248
 31
0.0
  0
ARC
  5
E7C6
  8
0
 10
5444.6316001559698634
 20
310.9804556783361136
 30
0.0
 40
0.1888541833749502
 50
246.4527306202251111
 51
267.0980297018585929
  0
ARC
  5
E7C7
  8
0
 10
5444.5593082907698772
 20
310.8145692632513146
 30
0.0
 40
0.0079
 50
180.0000000021528024
 51
246.4501297378010065
  0
ARC
  5
E7C8
  8
0
 10
5442.1033298950396784
 20
318.0745532458295202
 30
0.0
 40
6.0000325562987138
 50
285.6645359622889941
 51
293.2304343311395769
  0
ARC
  5
E7C9
  8
0
 10
5442.1033499177483463
 20
318.0744818431539898
 30
0.0
 40
5.9999583993645746
 50
276.2137987252825724
 51
285.6645359622889941
  0
ARC
  5
E7CA
  8
0
 10
5442.1012750639538353
 20
318.0935384504817875
 30
0.0
 40
6.0191276273384311
 50
273.7605758861387812
 51
276.2137987252825724
  0
ARC
  5
E7CB
  8
0
 10
5444.4730392117153315
 20
312.5537080790543882
 30
0.0
 40
0.0079
 50
87.7569572605527526
 51
113.230434330915898
  0
ARC
  5
E7CC
  8
0
 10
5444.6316001559698634
 20
312.4527544310769258
 30
0.0
 40
0.1888541833749502
 50
92.9019702981413928
 51
113.5472693797749031
  0
ARC
  5
E7CD
  8
0
 10
5444.5593082907698772
 20
312.6186408461617248
 30
0.0
 40
0.0079
 50
113.549870262198894
 51
179.9999999978471976
  0
ARC
  5
E7CE
  8
0
 10
5444.5434694935029256
 20
312.5696558308193858
 30
0.0
 40
0.0080538087131639
 50
269.9434247595013971
 51
350.3054937965633826
  0
ARC
  5
E7CF
  8
0
 10
5444.5435223008898902
 20
310.8636994200783761
 30
0.0
 40
0.0079056452943837
 50
4.041104596299891
 51
91.5876826628948351
  0
ARC
  5
E7D0
  8
0
 10
5441.9645336216590294
 20
312.3761829569916131
 30
0.0
 40
0.832047620386098
 50
309.7030995284749224
 51
341.3258764009150923
  0
ARC
  5
E7D1
  8
0
 10
5442.0047361660826937
 20
311.0768323499157759
 30
0.0
 40
0.7876422344692235
 50
18.2456395592713996
 51
51.4071286488653101
  0
LINE
  5
E7D2
  8
0
 10
5444.4699232140856111
 20
312.5609675941054206
 30
0.0
 11
5444.4699232140856111
 21
310.8722425153076188
 31
0.0
  0
LINE
  5
E7D3
  8
0
 10
5455.9859423899561079
 20
348.8111111161446161
 30
0.0
 11
5455.9859423899561079
 21
349.5591126909445734
 31
0.0
  0
LINE
  5
E7D4
  8
0
 10
5457.3778848726560682
 20
349.5591276515445998
 30
0.0
 11
5457.3778848726560682
 21
348.8110961555447034
 31
0.0
  0
LINE
  5
E7D5
  8
0
 10
5446.2868871708560619
 20
349.5788126909445737
 30
0.0
 11
5446.2868871708560619
 21
346.6969229271447261
 31
0.0
  0
LINE
  5
E7D6
  8
0
 10
5447.4004411569558215
 20
346.6969229271447261
 30
0.0
 11
5447.4004411569558215
 21
349.5788126909445737
 31
0.0
  0
LINE
  5
E7D7
  8
0
 10
5447.6788296534550682
 20
348.7914111161446726
 30
0.0
 11
5447.6788296534550682
 21
348.7835371003445744
 31
0.0
  0
LINE
  5
E7D8
  8
0
 10
5447.7066685031559246
 20
346.6969229271447261
 30
0.0
 11
5447.7066685031559246
 21
348.7441670216447278
 31
0.0
  0
LINE
  5
E7D9
  8
0
 10
5447.9989764244555772
 20
348.7835371003445744
 30
0.0
 11
5447.9989764244555772
 21
348.7441670216447278
 31
0.0
  0
LINE
  5
E7DA
  8
0
 10
5448.0128958493551181
 20
348.7835371003445744
 30
0.0
 11
5448.0128958493551181
 21
348.7441670216447278
 31
0.0
  0
LINE
  5
E7DB
  8
0
 10
5448.1799289472546661
 20
348.7835371003445744
 30
0.0
 11
5448.1799289472546661
 21
348.7441670216447278
 31
0.0
  0
LINE
  5
E7DC
  8
0
 10
5447.7066685031559246
 20
346.6969229271447261
 30
0.0
 11
5446.2868871708560619
 21
346.6969229271447261
 31
0.0
  0
LINE
  5
E7DD
  8
0
 10
5447.6788296534550682
 20
348.7835371003445744
 30
0.0
 11
5447.9989764244555772
 21
348.7835371003445744
 31
0.0
  0
LINE
  5
E7DE
  8
0
 10
5447.9989764244555772
 20
348.7835371003445744
 30
0.0
 11
5448.1799289472546661
 21
348.7835371003445744
 31
0.0
  0
LINE
  5
E7DF
  8
0
 10
5450.749241964956127
 20
348.7914111161446726
 30
0.0
 11
5447.6788296534550682
 21
348.7914111161446726
 31
0.0
  0
LINE
  5
E7E0
  8
0
 10
5458.4771442514556838
 20
348.7914111161446726
 30
0.0
 11
5456.0056423899559377
 21
348.7914111161446726
 31
0.0
  0
ARC
  5
E7E1
  8
0
 10
5456.0056423899559377
 20
348.8111111161446161
 30
0.0
 40
0.0197
 50
180.0
 51
270.0
  0
LINE
  5
E7E2
  8
0
 10
5456.0056423899559377
 20
349.5788126909445737
 30
0.0
 11
5458.4771442514556838
 21
349.5788126909445737
 31
0.0
  0
ARC
  5
E7E3
  8
0
 10
5456.0056423899559377
 20
349.5591126909445734
 30
0.0
 40
0.0197
 50
90.0
 51
180.0
  0
LINE
  5
E7E4
  8
0
 10
5450.749241964956127
 20
349.5788126909445737
 30
0.0
 11
5445.9249821253561095
 21
349.5788126909445737
 31
0.0
  0
ARC
  5
E7E5
  8
0
 10
5457.398248864848938
 20
349.5599626656889996
 30
0.0
 40
0.0203811046472213
 50
112.3501086632892054
 51
182.348066093905004
  0
ARC
  5
E7E6
  8
0
 10
5457.4001980203729545
 20
348.8106288692962949
 30
0.0
 40
0.0223180401798149
 50
178.8002760904965953
 51
239.438744534421005
  0
LINE
  5
E7E7
  8
0
 10
5449.6915784849561533
 20
348.8622922773445794
 30
0.0
 11
5449.6915784849561533
 21
349.5079315297446101
 31
0.0
  0
ARC
  5
E7E8
  8
0
 10
5449.711278484955983
 20
348.8622922773445794
 30
0.0
 40
0.0197
 50
180.0
 51
270.0
  0
LINE
  5
E7E9
  8
0
 10
5449.705497908255893
 20
349.4921725334446023
 30
0.0
 11
5449.705497908255893
 21
348.8780512736445871
 31
0.0
  0
LINE
  5
E7EA
  8
0
 10
5449.7750949923556618
 20
348.9804024547447057
 30
0.0
 11
5449.7750949923556618
 21
349.3898213523447112
 31
0.0
  0
ARC
  5
E7EB
  8
0
 10
5449.7947949923573105
 20
348.9804024547447057
 30
0.0
 40
0.0197
 50
180.0
 51
270.0
  0
LINE
  5
E7EC
  8
0
 10
5450.7076964957559539
 20
348.8780512736445871
 30
0.0
 11
5450.7076964957559539
 21
348.9882615098446195
 31
0.0
  0
ARC
  5
E7ED
  8
0
 10
5450.6997964957563454
 20
348.8780512736445871
 30
0.0
 40
0.0079
 50
270.0
 51
0.0
  0
LINE
  5
E7EE
  8
0
 10
5450.7076964957559539
 20
349.3819622972446268
 30
0.0
 11
5450.7076964957559539
 21
349.4921725334446023
 31
0.0
  0
ARC
  5
E7EF
  8
0
 10
5450.6997964957563454
 20
349.4921725334446023
 30
0.0
 40
0.0079
 50
0.0
 51
90.0
  0
LINE
  5
E7F0
  8
0
 10
5450.7327513787558928
 20
349.5079315297446101
 30
0.0
 11
5450.7327513787558928
 21
349.3819622972446268
 31
0.0
  0
LINE
  5
E7F1
  8
0
 10
5450.7327513787558928
 20
348.9882615098446195
 30
0.0
 11
5450.7327513787558928
 21
348.8622922773445794
 31
0.0
  0
ARC
  5
E7F2
  8
0
 10
5450.7130513787551536
 20
348.8622922773445794
 30
0.0
 40
0.0197
 50
270.0
 51
0.0
  0
LINE
  5
E7F3
  8
0
 10
5450.7130513787551536
 20
348.8425922773445791
 30
0.0
 11
5449.711278484955983
 21
348.8425922773445791
 31
0.0
  0
LINE
  5
E7F4
  8
0
 10
5449.6915784849561533
 20
348.8701512736445807
 30
0.0
 11
5450.6997964957563454
 21
348.8701512736445807
 31
0.0
  0
ARC
  5
E7F5
  8
0
 10
5449.713397908256411
 20
348.8780512736445871
 30
0.0
 40
0.0079
 50
180.0
 51
270.0
  0
LINE
  5
E7F6
  8
0
 10
5450.610047676655995
 20
348.9607024547447054
 30
0.0
 11
5449.7947949923573105
 21
348.9607024547447054
 31
0.0
  0
LINE
  5
E7F7
  8
0
 10
5449.7750949980363657
 20
348.980387494044578
 30
0.0
 11
5450.6079282518549007
 21
348.980387494044578
 31
0.0
  0
LINE
  5
E7F8
  8
0
 10
5450.6079282518549007
 20
349.3898363129446238
 30
0.0
 11
5449.7750949980363657
 21
349.3898363129446238
 31
0.0
  0
LINE
  5
E7F9
  8
0
 10
5449.7947949923573105
 20
349.4095213523447114
 30
0.0
 11
5450.610047676655995
 21
349.4095213523447114
 31
0.0
  0
ARC
  5
E7FA
  8
0
 10
5449.7947949923573105
 20
349.3898213523447112
 30
0.0
 40
0.0197
 50
90.0
 51
180.0
  0
LINE
  5
E7FB
  8
0
 10
5450.6997964957563454
 20
349.5000725334446088
 30
0.0
 11
5449.6915784849561533
 21
349.5000725334446088
 31
0.0
  0
ARC
  5
E7FC
  8
0
 10
5449.713397908256411
 20
349.4921725334446023
 30
0.0
 40
0.0079
 50
90.0
 51
180.0
  0
LINE
  5
E7FD
  8
0
 10
5449.711278484955983
 20
349.527631529744724
 30
0.0
 11
5450.7130513787551536
 21
349.527631529744724
 31
0.0
  0
ARC
  5
E7FE
  8
0
 10
5450.7130513787551536
 20
349.5079315297446101
 30
0.0
 40
0.0197
 50
0.0
 51
90.0
  0
ARC
  5
E7FF
  8
0
 10
5449.711278484955983
 20
349.5079315297446101
 30
0.0
 40
0.0197
 50
90.0
 51
180.0
  0
LINE
  5
E800
  8
0
 10
5450.6297476766558248
 20
349.3898213523447112
 30
0.0
 11
5450.6297476766558248
 21
349.3819622972446268
 31
0.0
  0
LINE
  5
E801
  8
0
 10
5450.6297476766558248
 20
348.9882615098446195
 30
0.0
 11
5450.6297476766558248
 21
348.9804024547447057
 31
0.0
  0
ARC
  5
E802
  8
0
 10
5450.610047676655995
 20
349.3898213523445975
 30
0.0
 40
0.0197
 50
0.0000000000195413
 51
90.0
  0
ARC
  5
E803
  8
0
 10
5450.610047676655995
 20
348.9804024547447057
 30
0.0
 40
0.0197
 50
270.0000000000521254
 51
359.9999999999575948
  0
ARC
  5
E804
  8
0
 10
5450.6079282518549007
 20
348.9882874940445845
 30
0.0
 40
0.0079
 50
270.0
 51
359.8115458635897994
  0
ARC
  5
E805
  8
0
 10
5450.6079282518549007
 20
349.3819363129446174
 30
0.0
 40
0.0079
 50
0.1884548618451245
 51
89.9999999999478888
  0
LINE
  5
E806
  8
0
 10
5450.7689419649550473
 20
348.8111111161446161
 30
0.0
 11
5450.7689419649550473
 21
348.9882615098446195
 31
0.0
  0
LINE
  5
E807
  8
0
 10
5450.7689419649550473
 20
349.3819622972446268
 30
0.0
 11
5450.7689419649550473
 21
349.5591126909445734
 31
0.0
  0
ARC
  5
E808
  8
0
 10
5450.749241964956127
 20
348.8111111161446161
 30
0.0
 40
0.0197
 50
270.0
 51
359.9999999999789111
  0
ARC
  5
E809
  8
0
 10
5450.749241964956127
 20
349.5591126909445734
 30
0.0
 40
0.0197
 50
0.0000000000423395
 51
90.0
  0
LINE
  5
E80A
  8
0
 10
5445.9249821253561095
 20
348.7441670216447278
 30
0.0
 11
5445.9249821253561095
 21
349.5788126909445737
 31
0.0
  0
LINE
  5
E80B
  8
0
 10
5458.3758028849561015
 20
348.9292063917445716
 30
0.0
 11
5457.4935208463548406
 21
348.9292063917445716
 31
0.0
  0
LINE
  5
E80C
  8
0
 10
5458.3702351149559036
 20
348.9370804074446824
 30
0.0
 11
5457.4785337169369086
 21
348.9370804074446255
 31
0.0
  0
LINE
  5
E80D
  8
0
 10
5458.3758028849561015
 20
349.4410174153446178
 30
0.0
 11
5457.4935208463548406
 21
349.4410174153446178
 31
0.0
  0
LINE
  5
E80E
  8
0
 10
5458.3702351149559036
 20
349.4292063917445716
 30
0.0
 11
5457.4764791040579439
 21
349.4292063917445716
 31
0.0
  0
LINE
  5
E80F
  8
0
 10
5457.475320846356226
 20
348.9474063917446074
 30
0.0
 11
5457.475320846356226
 21
349.4228174153445821
 31
0.0
  0
LINE
  5
E810
  8
0
 10
5457.4836725012555689
 20
348.9552804074447181
 30
0.0
 11
5457.4836725012555689
 21
349.4110063917445927
 31
0.0
  0
LINE
  5
E811
  8
0
 10
5458.3940028849547161
 20
349.4228174153445821
 30
0.0
 11
5458.3940028849547161
 21
348.9474063917446074
 31
0.0
  0
LINE
  5
E812
  8
0
 10
5458.3884351149563372
 20
349.4110063917445927
 30
0.0
 11
5458.3884351149563372
 21
348.9552804074447181
 31
0.0
  0
ARC
  5
E813
  8
0
 10
5458.3758028849561015
 20
349.4228174153445821
 30
0.0
 40
0.0182
 50
359.9999999999544116
 51
90.0
  0
ARC
  5
E814
  8
0
 10
5458.3702351149559036
 20
349.4110063917445927
 30
0.0
 40
0.0182
 50
0.0
 51
90.0
  0
ARC
  5
E815
  8
0
 10
5458.3702351149559036
 20
348.9552804074447181
 30
0.0
 40
0.0182
 50
270.0000000000521254
 51
0.000000000043968
  0
ARC
  5
E816
  8
0
 10
5458.3758028849561015
 20
348.9474063917446074
 30
0.0
 40
0.0182
 50
270.0
 51
0.0
  0
ARC
  5
E817
  8
0
 10
5457.4935208463548406
 20
348.9474063917446074
 30
0.0
 40
0.0182
 50
179.9999999999772058
 51
270.0000000000521254
  0
ARC
  5
E818
  8
0
 10
5457.5018725012560026
 20
348.9552804074447181
 30
0.0
 40
0.0182
 50
179.999999999933209
 51
270.000000000104194
  0
ARC
  5
E819
  8
0
 10
5457.5018725012560026
 20
349.4110063917445927
 30
0.0
 40
0.0182
 50
89.9999999998436664
 51
180.0000000000212026
  0
ARC
  5
E81A
  8
0
 10
5457.4935208463548406
 20
349.4228174153445821
 30
0.0
 40
0.0182
 50
90.0
 51
180.0000000000212026
  0
LINE
  5
E81B
  8
0
 10
5458.0195703570543628
 20
349.0847182027446252
 30
0.0
 11
5457.846721590521156
 21
349.0847182027446252
 31
0.0
  0
LINE
  5
E81C
  8
0
 10
5458.0238466729033462
 20
349.281568596444572
 30
0.0
 11
5457.8467215184800807
 21
349.281568596444572
 31
0.0
  0
ARC
  5
E81D
  8
0
 10
5457.8906207629706842
 20
349.1831434156604246
 30
0.0
 40
0.1077713314349972
 50
114.0376550302706988
 51
245.9623869066452073
  0
ARC
  5
E81E
  8
0
 10
5457.9836957012212224
 20
349.1839691779682084
 30
0.0
 40
0.1055355248913964
 50
289.8725890642563741
 51
67.6384515404490543
  0
ARC
  5
E81F
  8
0
 10
5457.8001983678586839
 20
349.1831433825685735
 30
0.0
 40
0.1088665525780581
 50
295.2989785742648792
 51
64.7010633627014755
  0
LINE
  5
E820
  8
0
 10
5458.4968442514564231
 20
348.8111111161446161
 30
0.0
 11
5458.4968442514564231
 21
349.5591126909445734
 31
0.0
  0
ARC
  5
E821
  8
0
 10
5458.4771442514556838
 20
348.8111111161446161
 30
0.0
 40
0.0197
 50
270.0
 51
0.0000000000423395
  0
ARC
  5
E822
  8
0
 10
5458.4771442514556838
 20
349.5591126909445734
 30
0.0
 40
0.0197
 50
359.9999999999789111
 51
90.0000000000521254
  0
ENDSEC
  0
EOF
