  0
SECTION
  2
HEADER
  9
$ACADVER
  1
AC1009
  9
$INSBASE
 10
436.8916034886282773
 20
34.7438096426877792
 30
0.0
  9
$EXTMIN
 10
408.7075328640382281
 20
12.83129022768955
 30
0.0
  9
$EXTMAX
 10
441.5046825369590238
 20
74.7339806234684687
 30
0.0
  9
$LIMMIN
 10
0.0
 20
0.0
  9
$LIMMAX
 10
11.6929133858000007
 20
8.2677165353999982
  9
$ORTHOMODE
 70
     0
  9
$REGENMODE
 70
     1
  9
$FILLMODE
 70
     1
  9
$QTEXTMODE
 70
     0
  9
$MIRRTEXT
 70
     0
  9
$DRAGMODE
 70
     2
  9
$LTSCALE
 40
0.6431102362
  9
$OSMODE
 70
  4095
  9
$ATTMODE
 70
     1
  9
$TEXTSIZE
 40
0.2
  9
$TRACEWID
 40
0.05
  9
$TEXTSTYLE
  7
STANDARD
  9
$CLAYER
  8
0
  9
$CELTYPE
  6
BYLAYER
  9
$CECOLOR
 62
   256
  9
$DIMSCALE
 40
1.0
  9
$DIMASZ
 40
0.1875
  9
$DIMEXO
 40
0.0625
  9
$DIMDLI
 40
0.4443307087
  9
$DIMRND
 40
0.0
  9
$DIMDLE
 40
0.0
  9
$DIMEXE
 40
0.125
  9
$DIMTP
 40
0.01
  9
$DIMTM
 40
0.01
  9
$DIMTXT
 40
1.0
  9
$DIMCEN
 40
0.1052362205
  9
$DIMTSZ
 40
0.0
  9
$DIMTOL
 70
     1
  9
$DIMLIM
 70
     0
  9
$DIMTIH
 70
     0
  9
$DIMTOH
 70
     1
  9
$DIMSE1
 70
     0
  9
$DIMSE2
 70
     0
  9
$DIMTAD
 70
     0
  9
$DIMZIN
 70
     0
  9
$DIMBLK
  1

  9
$DIMASO
 70
     1
  9
$DIMSHO
 70
     1
  9
$DIMPOST
  1
\X
  9
$DIMAPOST
  1

  9
$DIMALT
 70
     1
  9
$DIMALTD
 70
     2
  9
$DIMALTF
 40
25.3999999999999986
  9
$DIMLFAC
 40
1.0
  9
$DIMTOFL
 70
     0
  9
$DIMTVP
 40
0.0
  9
$DIMTIX
 70
     0
  9
$DIMSOXD
 70
     0
  9
$DIMSAH
 70
     0
  9
$DIMBLK1
  1

  9
$DIMBLK2
  1

  9
$DIMSTYLE
  2
STANDARD
  9
$DIMCLRD
 70
     0
  9
$DIMCLRE
 70
     0
  9
$DIMCLRT
 70
     0
  9
$DIMTFAC
 40
1.0
  9
$DIMGAP
 40
0.09
  9
$LUNITS
 70
     2
  9
$LUPREC
 70
     4
  9
$SKETCHINC
 40
0.1
  9
$FILLETRAD
 40
0.0
  9
$AUNITS
 70
     0
  9
$AUPREC
 70
     0
  9
$MENU
  1
.
  9
$ELEVATION
 40
0.0
  9
$PELEVATION
 40
0.0
  9
$THICKNESS
 40
0.0
  9
$LIMCHECK
 70
     0
  9
$BLIPMODE
 70
     0
  9
$CHAMFERA
 40
0.0
  9
$CHAMFERB
 40
0.0
  9
$SKPOLY
 70
     0
  9
$TDCREATE
 40
2458172.5207638889551163
  9
$TDUPDATE
 40
2459118.0253356480970979
  9
$TDINDWG
 40
0.2724393287
  9
$TDUSRTIMER
 40
0.2724393287
  9
$USRTIMER
 70
     1
  9
$ANGBASE
 50
0.0
  9
$ANGDIR
 70
     0
  9
$PDMODE
 70
     0
  9
$PDSIZE
 40
0.3125
  9
$PLINEWID
 40
0.0
  9
$COORDS
 70
     1
  9
$SPLFRAME
 70
     0
  9
$SPLINETYPE
 70
     6
  9
$SPLINESEGS
 70
     8
  9
$ATTDIA
 70
     1
  9
$ATTREQ
 70
     1
  9
$HANDLING
 70
     1
  9
$HANDSEED
  5
E881
  9
$SURFTAB1
 70
     6
  9
$SURFTAB2
 70
     6
  9
$SURFTYPE
 70
     6
  9
$SURFU
 70
     6
  9
$SURFV
 70
     6
  9
$UCSNAME
  2

  9
$UCSORG
 10
0.0
 20
0.0
 30
0.0
  9
$UCSXDIR
 10
1.0
 20
0.0
 30
0.0
  9
$UCSYDIR
 10
0.0
 20
1.0
 30
0.0
  9
$PUCSNAME
  2

  9
$PUCSORG
 10
0.0
 20
0.0
 30
0.0
  9
$PUCSXDIR
 10
1.0
 20
0.0
 30
0.0
  9
$PUCSYDIR
 10
0.0
 20
1.0
 30
0.0
  9
$USERI1
 70
     0
  9
$USERI2
 70
     0
  9
$USERI3
 70
     0
  9
$USERI4
 70
     0
  9
$USERI5
 70
     0
  9
$USERR1
 40
0.0
  9
$USERR2
 40
0.0
  9
$USERR3
 40
0.0
  9
$USERR4
 40
0.0
  9
$USERR5
 40
0.0
  9
$WORLDVIEW
 70
     1
  9
$SHADEDGE
 70
     3
  9
$SHADEDIF
 70
    70
  9
$TILEMODE
 70
     1
  9
$MAXACTVP
 70
    64
  9
$PLIMCHECK
 70
     0
  9
$PEXTMIN
 10
1.0000000000000000E+20
 20
1.0000000000000000E+20
 30
1.0000000000000000E+20
  9
$PEXTMAX
 10
-1.0000000000000000E+20
 20
-1.0000000000000000E+20
 30
-1.0000000000000000E+20
  9
$PLIMMIN
 10
0.0
 20
0.0
  9
$PLIMMAX
 10
12.0
 20
9.0
  9
$UNITMODE
 70
     0
  9
$VISRETAIN
 70
     1
  9
$PLINEGEN
 70
     0
  9
$PSLTSCALE
 70
     1
  0
ENDSEC
  0
SECTION
  2
TABLES
  0
TABLE
  2
VPORT
 70
     1
  0
VPORT
  2
*ACTIVE
 70
     0
 10
0.0
 20
0.0
 11
1.0
 21
1.0
 12
82.4466753501169478
 22
-64.2992698507006253
 13
0.0
 23
0.0
 14
1.0
 24
1.0
 15
0.0
 25
0.0
 16
0.0
 26
0.0
 36
14.6338572656650907
 17
429.6292891080536833
 27
69.7025415122186871
 37
0.0
 40
179.7619280074094945
 41
2.005224660397074
 42
50.0
 43
0.0
 44
0.0
 50
0.0
 51
0.0
 71
     0
 72
   100
 73
     1
 74
     1
 75
     0
 76
     0
 77
     0
 78
     0
  0
ENDTAB
  0
TABLE
  2
LTYPE
 70
     2
  0
LTYPE
  2
CONTINUOUS
 70
     0
  3
Solid line
 72
    65
 73
     0
 40
0.0
  0
LTYPE
  2
PHANTOM2
 70
     0
  3
___ _ _ ___ _ _ ___ _ _ ___ _ _
 72
    65
 73
     6
 40
1.25
 49
0.625
 49
-0.125
 49
0.125
 49
-0.125
 49
0.125
 49
-0.125
  0
ENDTAB
  0
TABLE
  2
LAYER
 70
     2
  0
LAYER
  2
0
 70
     0
 62
   255
  6
CONTINUOUS
  0
LAYER
  2
DEFPOINTS
 70
     0
 62
     7
  6
CONTINUOUS
  0
ENDTAB
  0
TABLE
  2
STYLE
 70
     1
  0
STYLE
  2
STANDARD
 70
     0
 40
0.0
 41
0.8
 50
0.0
 71
     0
 42
0.2
  3
txt
  4

  0
ENDTAB
  0
TABLE
  2
VIEW
 70
     0
  0
ENDTAB
  0
TABLE
  2
UCS
 70
     0
  0
ENDTAB
  0
TABLE
  2
APPID
 70
    10
  0
APPID
  2
ACAD
 70
     0
  0
APPID
  2
ACAD_MLEADERVER
 70
     0
  0
APPID
  2
ACAD_EXEMPT_FROM_CAD_STANDARDS
 70
     0
  0
APPID
  2
ACAD_DSTYLE_DIMJAG
 70
     0
  0
APPID
  2
ACAD_DSTYLE_DIMTALN
 70
     0
  0
APPID
  2
ACAD_NAV_VCDISPLAY
 70
     0
  0
APPID
  2
ACAECLAYERSTANDARD
 70
     0
  0
APPID
  2
ACCMTRANSPARENCY
 70
     0
  0
APPID
  2
DCO15
 70
     0
  0
APPID
  2
ACDBATTR
 70
     0
  0
ENDTAB
  0
TABLE
  2
DIMSTYLE
 70
     1
  0
DIMSTYLE
  2
STANDARD
 70
     0
  3

  4

  5

  6

  7

 40
1.0
 41
0.1875
 42
0.0625
 43
0.38
 44
0.125
 45
0.0
 46
0.0
 47
0.01
 48
0.01
140
0.15625
141
0.09
142
0.0
143
25.3999999999999986
144
1.0
145
0.0
146
1.0
147
0.09
 71
     1
 72
     0
 73
     1
 74
     1
 75
     0
 76
     0
 77
     0
 78
     4
170
     0
171
     2
172
     0
173
     0
174
     0
175
     0
176
     0
177
     0
178
     0
  0
ENDTAB
  0
ENDSEC
  0
SECTION
  2
BLOCKS
  0
BLOCK
  8
0
  2
$MODEL_SPACE
 70
     0
 10
0.0
 20
0.0
 30
0.0
  3
$MODEL_SPACE
  1

  0
ENDBLK
  5
21
  8
0
  0
BLOCK
 67
     1
  8
0
  2
$PAPER_SPACE
 70
     0
 10
0.0
 20
0.0
 30
0.0
  3
$PAPER_SPACE
  1

  0
ENDBLK
  5
1D
 67
     1
  8
0
  0
BLOCK
  8
0
  2
_FILLED
 70
     0
 10
0.0
 20
0.0
 30
0.0
  3
_FILLED
  1

  0
SOLID
  5
87E2
  8
0
  6
BYBLOCK
 62
     0
 10
0.0
 20
0.0
 30
0.0
 11
-1.0
 21
0.1666666667
 31
0.0
 12
-1.0
 22
-0.1666666667
 32
0.0
 13
-1.0
 23
-0.1666666667
 33
0.0
  0
ENDBLK
  5
87E3
  8
0
  6
BYBLOCK
 62
     0
  0
ENDSEC
  0
SECTION
  2
ENTITIES
  0
ATTDEF
  5
C848
  8
DEFPOINTS
 10
436.8940539272228989
 20
34.7481232827396269
 30
0.0
 40
0.001
  1
K-76633T
  3

  2
MODELNUMBER
 70
     0
1001
ACDBATTR
1070
     0
1070
     1
  0
ATTDEF
  5
C849
  8
DEFPOINTS
 10
436.8940539272228989
 20
34.7464566160729618
 30
0.0
 40
0.001
  1
ANGULAR
  3

  2
TRADENAME
 70
     0
1001
ACDBATTR
1070
     0
1070
     1
  0
ATTDEF
  5
C84A
  8
DEFPOINTS
 10
436.8940539272228989
 20
34.7447899494062966
 30
0.0
 40
0.001
  1
BATH AND SHOWER FAUCET
  3

  2
PRODUCT
 70
     0
1001
ACDBATTR
1070
     0
1070
     1
  0
ARC
  5
E2ED
  8
0
 10
438.8982922518234204
 20
49.1555446928065294
 30
0.0
 40
0.0358066933289064
 50
88.2291415456695631
 51
206.2335831975454141
  0
ARC
  5
E2EE
  8
0
 10
438.9003429390583051
 20
49.1554401658588205
 30
0.0
 40
0.0359065351033402
 50
334.0304561247901916
 51
91.5067861291312283
  0
ARC
  5
E2EF
  8
0
 10
438.8987308191116767
 20
49.1562926052205569
 30
0.0
 40
0.0365338032268466
 50
206.981706824473207
 51
239.042093304653207
  0
ARC
  5
E2F0
  8
0
 10
438.9000823877536845
 20
49.1562780993186195
 30
0.0
 40
0.0365132990864793
 50
300.9485179229646974
 51
333.0273390434757061
  0
ARC
  5
E2F1
  8
0
 10
438.8993987641716217
 20
49.1574069426758697
 30
0.0
 40
0.0378329946630911
 50
239.0427461509617046
 51
300.9572536051146017
  0
ARC
  5
E2F2
  8
0
 10
438.8996880587267242
 20
49.1531188505637218
 30
0.0
 40
0.014204651366641
 50
358.4775229574451032
 51
91.1669768893659835
  0
ARC
  5
E2F3
  8
0
 10
438.8992116056775785
 20
49.1529729256845087
 30
0.0
 40
0.014348850677023
 50
89.2526440348323575
 51
171.3659204181450946
  0
ARC
  5
E2F4
  8
0
 10
438.8990176576260183
 20
49.1533444995111921
 30
0.0
 40
0.0141053748099289
 50
172.7400042878969089
 51
271.5482589867729075
  0
ARC
  5
E2F5
  8
0
 10
438.8996167561343782
 20
49.1535356327330888
 30
0.0
 40
0.0142930208502183
 50
269.1261340214539928
 51
356.8147379108557971
  0
ARC
  5
E2F6
  8
0
 10
438.6327108532821057
 20
49.2986902220216407
 30
0.0
 40
0.3394412037216693
 50
332.0735194336252789
 51
336.4631007705215211
  0
ARC
  5
E2F7
  8
0
 10
438.8998631767217944
 20
49.1747195063735489
 30
0.0
 40
0.0532594440199804
 50
290.8967215145434011
 51
349.9141643215353952
  0
ARC
  5
E2F8
  8
0
 10
438.894421893186518
 20
49.1759978059367526
 30
0.0
 40
0.0415807736790131
 50
169.6645264771001962
 51
202.0078634069039936
  0
ARC
  5
E2F9
  8
0
 10
439.5181709450712901
 20
49.4771535382988006
 30
0.0
 40
0.7341415534760241
 50
205.5589310450793903
 51
207.3632089538112098
  0
ARC
  5
E2FA
  8
0
 10
438.8985098921024814
 20
49.1743685081219084
 30
0.0
 40
0.0527808320336663
 50
189.7956904907725004
 51
249.3978358420899042
  0
ARC
  5
E2FB
  8
0
 10
438.9045831990749207
 20
49.1759959950150574
 30
0.0
 40
0.0413769631460464
 50
341.8952868632911191
 51
10.3665477643374206
  0
ARC
  5
E2FC
  8
0
 10
438.8946651102472742
 20
49.1570802325809808
 30
0.0
 40
0.0488778593639866
 50
147.3392112796080085
 51
170.2131891042425025
  0
ARC
  5
E2FD
  8
0
 10
438.8986396294624797
 20
49.1529298943784809
 30
0.0
 40
0.0544804266380232
 50
89.2016082494636606
 51
145.920163432492501
  0
ARC
  5
E2FE
  8
0
 10
438.9000572458289753
 20
49.1527522195173816
 30
0.0
 40
0.0546567789718413
 50
34.1590461820268771
 51
90.690290072603446
  0
ARC
  5
E2FF
  8
0
 10
438.9043176702598998
 20
49.1571318751848025
 30
0.0
 40
0.0486877991217046
 50
9.7683947452362272
 51
32.7092011388182868
  0
ARC
  5
E300
  8
0
 10
438.7905701158535976
 20
49.2764839516898832
 30
0.0
 40
0.0450621011682913
 50
181.0605155196651026
 51
196.9705979014848936
  0
ARC
  5
E301
  8
0
 10
1491.5530246875139255
 20
367.9531629968748803
 30
0.0
 40
1099.9830654771560603
 50
196.8413425884338039
 51
196.8425771034229967
  0
ARC
  5
E302
  8
0
 10
438.3961595306168988
 20
49.567726194559242
 30
0.0
 40
0.5423591623899794
 50
321.285299802110103
 51
323.8214472109323765
  0
ARC
  5
E303
  8
0
 10
438.7962329837889115
 20
49.2706890341397568
 30
0.0
 40
0.0442318316900508
 50
328.4873651880507737
 51
1.4853506907440459
  0
ARC
  5
E304
  8
0
 10
438.7918402544303262
 20
49.2445942699579291
 30
0.0
 40
0.0557224545037328
 50
29.2666633851661189
 51
146.2342559439815943
  0
ARC
  5
E305
  8
0
 10
438.7878313890872164
 20
49.250483081460608
 30
0.0
 40
0.0491891965799048
 50
149.3427168815852042
 51
165.240507424735398
  0
ARC
  5
E306
  8
0
 10
438.7973726083059205
 20
49.2774830421541381
 30
0.0
 40
0.058911672748912
 50
194.2170014759460059
 51
226.1800357199861935
  0
ARC
  5
E307
  8
0
 10
438.7899983773319832
 20
49.2514897927691777
 30
0.0
 40
0.0372731722547318
 50
196.911664392729989
 51
321.9402702134451033
  0
ARC
  5
E308
  8
0
 10
438.8003794544679863
 20
49.2505067878309006
 30
0.0
 40
0.0453934175768482
 50
8.6091773293118994
 51
28.0255583904510814
  0
ARC
  5
E309
  8
0
 10
438.799104385459998
 20
49.2651510439829821
 30
0.0
 40
0.0468196423072168
 50
282.0861235701626129
 51
350.3489932080071867
  0
CIRCLE
  5
E30A
  8
0
 10
438.789530388581511
 20
49.2479158185474191
 30
0.0
 40
0.0139380654420153
  0
ARC
  5
E30B
  8
0
 10
438.789776060365682
 20
49.250298863373132
 30
0.0
 40
0.0367297594269825
 50
323.6171286933351894
 51
195.2348838573659862
  0
CIRCLE
  5
E30C
  8
0
 10
438.6795503705758961
 20
49.1558075951811801
 30
0.0
 40
0.0143903719476049
  0
ARC
  5
E30D
  8
0
 10
438.6799735798567781
 20
49.1576073243440135
 30
0.0
 40
0.0365253359817761
 50
317.3652243259115266
 51
182.854399961469511
  0
ARC
  5
E30E
  8
0
 10
438.6807740177679875
 20
49.1598196933789566
 30
0.0
 40
0.0374977805300558
 50
186.1716040998564949
 51
314.048020187522809
  0
LINE
  5
E30F
  8
0
 10
438.6411698846233094
 20
49.1804602684663834
 30
0.0
 11
438.6434935606283148
 21
49.1557884330127877
 31
0.0
  0
LINE
  5
E310
  8
0
 10
438.6392351665297156
 20
49.1768022823527602
 30
0.0
 11
438.6420875425159807
 21
49.17070639673004
 31
0.0
  0
ARC
  5
E311
  8
0
 10
438.6977179579125732
 20
49.1826451115356207
 30
0.0
 40
0.0417315291872035
 50
314.9778338973744098
 51
344.9564024718861219
  0
ARC
  5
E312
  8
0
 10
438.6931035964387888
 20
49.1808380923077806
 30
0.0
 40
0.049899500385862
 50
285.9844719684294887
 51
341.6124291942061859
  0
ARC
  5
E313
  8
0
 10
438.6873039501351172
 20
49.1496169540018712
 30
0.0
 40
0.0553600354541173
 50
16.2385048400795995
 51
89.6983674731769156
  0
ARC
  5
E314
  8
0
 10
438.6840750671632918
 20
49.15542697736565
 30
0.0
 40
0.0496741416848831
 50
85.9361372672135531
 51
154.5127328275889056
  0
LINE
  5
E315
  8
0
 10
438.7272156376283192
 20
49.1531246330127871
 30
0.0
 11
438.7068447626282932
 21
49.1328678881127772
 31
0.0
  0
CIRCLE
  5
E316
  8
0
 10
439.1234293699944828
 20
49.15582450137385
 30
0.0
 40
0.0143903719476049
  0
ARC
  5
E317
  8
0
 10
439.1230060236209169
 20
49.1576241982935898
 30
0.0
 40
0.0365253359817761
 50
357.1499645319573233
 51
222.6391401675163877
  0
ARC
  5
E318
  8
0
 10
439.1222054171852278
 20
49.1598365063489524
 30
0.0
 40
0.0374977805300558
 50
225.9563443059051906
 51
353.8327603935708225
  0
LINE
  5
E319
  8
0
 10
439.161807977923786
 20
49.1804800982126196
 30
0.0
 11
439.1594861812970976
 21
49.1558080858251074
 31
0.0
  0
LINE
  5
E31A
  8
0
 10
439.1637429746580779
 20
49.1768222594863502
 30
0.0
 11
439.1608910630328069
 21
49.1707261566021927
 31
0.0
  0
ARC
  5
E31B
  8
0
 10
439.1052597383684883
 20
49.1826606337384575
 30
0.0
 40
0.0417315291872035
 50
195.0479620215407124
 51
225.0265305960533055
  0
ARC
  5
E31C
  8
0
 10
439.1098742374783228
 20
49.1808539660138422
 30
0.0
 40
0.049899500385862
 50
198.3919352992215011
 51
254.0198925249981983
  0
ARC
  5
E31D
  8
0
 10
439.1156762620286145
 20
49.14963326958528
 30
0.0
 40
0.0553600354541173
 50
90.3059970202494782
 51
163.7658596533478033
  0
ARC
  5
E31E
  8
0
 10
439.1189047024137153
 20
49.1554435388916673
 30
0.0
 40
0.0496741416848831
 50
25.4916316658373994
 51
94.068227226212997
  0
LINE
  5
E31F
  8
0
 10
439.0757643074543921
 20
49.1531379083220017
 30
0.0
 11
439.0961367254483889
 21
49.1328827152277015
 31
0.0
  0
ARC
  5
E320
  8
0
 10
439.0081629068797042
 20
49.2763994068244386
 30
0.0
 40
0.0450621011682913
 50
343.0337665919416281
 51
358.9438489737618738
  0
ARC
  5
E321
  8
0
 10
-613.7785637364503373
 20
367.872883578631388
 30
0.0
 40
1099.9830654771560603
 50
343.1617873900037807
 51
343.1630219049936272
  0
ARC
  5
E322
  8
0
 10
439.4025513056582781
 20
49.5676716929885401
 30
0.0
 40
0.5423591623899794
 50
216.1829172824955094
 51
218.7190646913178114
  0
ARC
  5
E323
  8
0
 10
439.0025004803874253
 20
49.270604057923407
 30
0.0
 40
0.0442318316900508
 50
178.519013802683105
 51
211.5169993053758901
  0
ARC
  5
E324
  8
0
 10
439.0068951974961919
 20
49.2445096284324819
 30
0.0
 40
0.0557224545037328
 50
33.7701085494445579
 51
150.7377011082598983
  0
ARC
  5
E325
  8
0
 10
439.0109036142487753
 20
49.2503987452925074
 30
0.0
 40
0.0491891965799048
 50
14.7638570686914594
 51
30.6616476118411505
  0
ARC
  5
E326
  8
0
 10
439.0013603383417262
 20
49.2773979791074268
 30
0.0
 40
0.058911672748912
 50
313.8243287734414935
 51
345.7873630174810273
  0
ARC
  5
E327
  8
0
 10
439.0087365493242828
 20
49.2514052915283003
 30
0.0
 40
0.0372731722547318
 50
218.0640942799822142
 51
343.0927001006967885
  0
ARC
  5
E328
  8
0
 10
438.9983555470985266
 20
49.2504214958166102
 30
0.0
 40
0.0453934175768482
 50
151.9788061029761934
 51
171.3951871641151001
  0
ARC
  5
E329
  8
0
 10
438.9996295005798856
 20
49.2650658490543094
 30
0.0
 40
0.0468196423072168
 50
189.6553712854197897
 51
257.9182409232629993
  0
CIRCLE
  5
E32A
  8
0
 10
439.0092048103201137
 20
49.2478313529658607
 30
0.0
 40
0.0139380654420153
  0
ARC
  5
E32B
  8
0
 10
439.0089589570085877
 20
49.2502143790706626
 30
0.0
 40
0.0367297594269825
 50
344.7694806360614166
 51
216.3872358000922134
  0
ARC
  5
E32C
  8
0
 10
438.3921883441121281
 20
49.8064758648321515
 30
0.0
 40
0.0244158863676914
 50
183.2631852622359929
 51
241.3386660238425918
  0
ARC
  5
E32D
  8
0
 10
438.4031875886577154
 20
49.8252239511185735
 30
0.0
 40
0.046147064450318
 50
240.5200127380392132
 51
268.8835813086391227
  0
ARC
  5
E32E
  8
0
 10
439.7159697679854276
 20
49.922071928061662
 30
0.0
 40
1.361784282325085
 50
181.0140133256319075
 51
186.574523784528111
  0
ARC
  5
E32F
  8
0
 10
438.3708842021468968
 20
49.7678645575481582
 30
0.0
 40
0.0079300375429055
 50
192.4581861762127915
 51
236.4002562098029046
  0
ARC
  5
E330
  8
0
 10
438.3951616533288984
 20
49.8096026382826693
 30
0.0
 40
0.0562031577133267
 50
239.3335309114060863
 51
269.5167282598832799
  0
ARC
  5
E331
  8
0
 10
438.3781009539995921
 20
49.8552804875801314
 30
0.0
 40
0.0106308267043691
 50
197.4651140255301982
 51
246.5048391362070106
  0
ARC
  5
E332
  8
0
 10
438.3984284654657131
 20
49.8909404266870808
 30
0.0
 40
0.0516283698142052
 50
241.5873607627474939
 51
271.2885708760393868
  0
ARC
  5
E333
  8
0
 10
439.3543442491769042
 20
49.982312217750632
 30
0.0
 40
0.9949428739561742
 50
179.0283116214243933
 51
187.5206901491744986
  0
ARC
  5
E334
  8
0
 10
439.3631508710133744
 20
49.8974237826236191
 30
0.0
 40
1.008752274770419
 50
174.2102618101149005
 51
179.9688333960999955
  0
ARC
  5
E335
  8
0
 10
439.3731211901044844
 20
49.9817108667689709
 30
0.0
 40
1.0137273520774801
 50
172.4805512774723013
 51
179.0123256198189097
  0
ARC
  5
E336
  8
0
 10
438.3922451721899165
 20
50.1107624821727669
 30
0.0
 40
0.0244019185623475
 50
118.371759081685596
 51
171.4983974286450064
  0
ARC
  5
E337
  8
0
 10
438.4048948738047216
 20
50.0855175079356911
 30
0.0
 40
0.052632682244657
 50
92.8238140437021571
 51
117.4290811608666019
  0
ARC
  5
E338
  8
0
 10
439.5480110918452965
 20
49.952581830035939
 30
0.0
 40
1.1893800038050231
 50
177.7544287657599114
 51
187.1236252858822979
  0
ARC
  5
E339
  8
0
 10
439.7643195966414851
 20
46.4486790220857628
 30
0.0
 40
1.4067605583516289
 50
182.930565587967493
 51
187.205879719161004
  0
ARC
  5
E33A
  8
0
 10
438.3880965928238993
 20
46.3472709085864167
 30
0.0
 40
0.0250068292762815
 50
183.6643343103743007
 51
244.8496526116144878
  0
ARC
  5
E33B
  8
0
 10
438.4000847906791023
 20
46.3729004356466774
 30
0.0
 40
0.0533015066176793
 50
244.8934627250343965
 51
267.0765594208979223
  0
ARC
  5
E33C
  8
0
 10
438.3861755012003982
 20
46.3251665030682531
 30
0.0
 40
0.0087399488029608
 50
183.3955664204785023
 51
201.7219511436381936
  0
ARC
  5
E33D
  8
0
 10
438.3940041325744801
 20
46.3335286695712796
 30
0.0
 40
0.0197186299453515
 50
216.0234396527847878
 51
256.3998881584153082
  0
ARC
  5
E33E
  8
0
 10
438.4141819804277134
 20
46.3928654715233293
 30
0.0
 40
0.082331101204262
 50
252.458310890224908
 51
266.6685774074866799
  0
ARC
  5
E33F
  8
0
 10
438.8621814010043067
 20
46.4215171786192684
 30
0.0
 40
0.5047710567968825
 50
185.0872975626465973
 51
188.6417169917166063
  0
ARC
  5
E340
  8
0
 10
439.3660972135772909
 20
46.4772166193217799
 30
0.0
 40
1.0116984864592771
 50
180.0109174029034023
 51
185.6987252778507127
  0
LINE
  5
E341
  8
0
 10
438.3731358059811782
 20
46.3272330352586224
 30
0.0
 11
438.3776031631284127
 21
46.2858753534180494
 31
0.0
  0
ARC
  5
E342
  8
0
 10
438.387232755635182
 20
46.2886240160832685
 30
0.0
 40
0.0100141998330528
 50
195.9308202798513889
 51
247.1290965227416905
  0
ARC
  5
E343
  8
0
 10
438.4122038947372744
 20
46.3415430494497826
 30
0.0
 40
0.068521558543396
 50
245.0878411509980026
 51
267.6523911333554793
  0
ARC
  5
E344
  8
0
 10
438.3723259766969136
 20
46.2729825641982231
 30
0.0
 40
0.0037343913553401
 50
191.7521441528708976
 51
233.3292689422682997
  0
ARC
  5
E345
  8
0
 10
438.3845524960547095
 20
46.2931921638832122
 30
0.0
 40
0.0273397951670599
 50
238.0768921482307121
 51
269.5879345911168912
  0
ARC
  5
E346
  8
0
 10
439.3630910559227232
 20
41.9451069391362026
 30
0.0
 40
1.00373565562067
 50
179.4674090079120958
 51
187.8116603774820987
  0
ARC
  5
E347
  8
0
 10
438.3748437542520833
 20
41.8111335515042484
 30
0.0
 40
0.0066428153240098
 50
201.6572249280318943
 51
253.2708843775529886
  0
ARC
  5
E348
  8
0
 10
438.3866092497569866
 20
41.8405530899208529
 30
0.0
 40
0.0383062882749559
 50
249.0803011406987935
 51
266.6266835123693113
  0
LINE
  5
E349
  8
0
 10
438.3593987642282741
 20
41.9544369958127774
 30
0.0
 11
438.3593987642283878
 21
46.37675737593176
 31
0.0
  0
LINE
  5
E34A
  8
0
 10
438.3543987454839908
 20
46.4770238456127771
 30
0.0
 11
438.3543987642282787
 21
49.8979725033373782
 31
0.0
  0
ARC
  5
E34B
  8
0
 10
439.4066691170503987
 20
49.8062424293971304
 30
0.0
 40
0.0242011786603494
 50
298.3142974481013994
 51
354.5708749851045241
  0
ARC
  5
E34C
  8
0
 10
439.3941100717711947
 20
49.8308902086990102
 30
0.0
 40
0.0518608055773861
 50
272.6364138038816805
 51
297.6136519114759835
  0
ARC
  5
E34D
  8
0
 10
438.4385261578261179
 20
49.8991066084279495
 30
0.0
 40
1.005940384233436
 50
352.3838699950576938
 51
359.9042793416772952
  0
ARC
  5
E34E
  8
0
 10
439.4264241291753024
 20
49.7688745730693611
 30
0.0
 40
0.0096752148017042
 50
298.6575842298220778
 51
341.3705634048754973
  0
ARC
  5
E34F
  8
0
 10
439.401781241306594
 20
49.8177731904292571
 30
0.0
 40
0.0644278010756389
 50
272.0713546961218867
 51
297.033201189748695
  0
ARC
  5
E350
  8
0
 10
439.4191085351687889
 20
49.8566763709603507
 30
0.0
 40
0.012677415479434
 50
290.0347130018046755
 51
336.9067053239784855
  0
ARC
  5
E351
  8
0
 10
439.3962711475522269
 20
49.908930928314831
 30
0.0
 40
0.0696843120046649
 50
272.415492082105402
 51
292.9577622678476132
  0
ARC
  5
E352
  8
0
 10
438.4486152354027126
 20
49.9821818812602814
 30
0.0
 40
0.9907838469902527
 50
352.4326423631189869
 51
0.9854655871736412
  0
ARC
  5
E353
  8
0
 10
438.4078328621980063
 20
49.895375442716869
 30
0.0
 40
1.036634304236087
 50
0.1133388052390042
 51
5.7493512519538923
  0
ARC
  5
E354
  8
0
 10
438.426561222927603
 20
49.981759055906771
 30
0.0
 40
1.012841870469775
 50
0.9879241300496721
 51
7.5232967068801333
  0
ARC
  5
E355
  8
0
 10
439.4064408615445814
 20
50.1106919129906103
 30
0.0
 40
0.0245207764488231
 50
8.6262429686587776
 51
62.7316813742736983
  0
ARC
  5
E356
  8
0
 10
439.3940508622479797
 20
50.0859619559979734
 30
0.0
 40
0.0521800532975509
 50
63.079897671974841
 51
87.3768768076371316
  0
ARC
  5
E357
  8
0
 10
438.1874487952662207
 20
49.9558343579466424
 30
0.0
 40
1.252555429840486
 50
353.0353194568847925
 51
1.9850894200414191
  0
ARC
  5
E358
  8
0
 10
438.0344141218816958
 20
46.4479458454752105
 30
0.0
 40
1.4067605583516289
 50
352.8242249699267177
 51
357.0995391011201718
  0
ARC
  5
E359
  8
0
 10
439.4106902181820828
 20
46.3472608492127094
 30
0.0
 40
0.0250068292762815
 50
295.1804520774737739
 51
356.3657703787130799
  0
ARC
  5
E35A
  8
0
 10
439.3987910846599902
 20
46.3725959933821201
 30
0.0
 40
0.0529971642484541
 50
272.7907614006413155
 51
295.1685899125191099
  0
ARC
  5
E35B
  8
0
 10
439.4126229237680832
 20
46.3251574561370916
 30
0.0
 40
0.0087399488029608
 50
338.3081535454487039
 51
356.634538268608992
  0
ARC
  5
E35C
  8
0
 10
439.4047898997754942
 20
46.3335155081200014
 30
0.0
 40
0.0197186299453515
 50
283.6302165306710776
 51
324.0066650363031044
  0
ARC
  5
E35D
  8
0
 10
439.3845808776138142
 20
46.3928416999171276
 30
0.0
 40
0.082331101204262
 50
273.3615272816002744
 51
287.57179379886162
  0
ARC
  5
E35E
  8
0
 10
438.9365664645278002
 20
46.4212580125500693
 30
0.0
 40
0.5047710567968825
 50
351.388387697370888
 51
354.9428071264406981
  0
ARC
  5
E35F
  8
0
 10
438.3701470832837117
 20
46.4813317104033388
 30
0.0
 40
1.0743266918983061
 50
354.4142859757291717
 51
359.7702531878711056
  0
LINE
  5
E360
  8
0
 10
439.4256615313777274
 20
46.3272308394360692
 30
0.0
 11
439.4212159052452193
 21
46.2858708160391075
 31
0.0
  0
ARC
  5
E361
  8
0
 10
439.4115848698489231
 20
46.2886144186874233
 30
0.0
 40
0.0100141998330528
 50
292.9010081663442975
 51
344.099284409236077
  0
ARC
  5
E362
  8
0
 10
439.3868334354021954
 20
46.3408136019148671
 30
0.0
 40
0.0677764153348856
 50
272.170146420233209
 51
295.0044875059983838
  0
ARC
  5
E363
  8
0
 10
439.4264998651539145
 20
46.2729808013695134
 30
0.0
 40
0.0037343913553401
 50
306.7008357468209852
 51
348.2779605362165967
  0
ARC
  5
E364
  8
0
 10
439.4143528889778736
 20
46.2929821898216431
 30
0.0
 40
0.0271208868758538
 50
270.1875293951816275
 51
302.0172044704950736
  0
ARC
  5
E365
  8
0
 10
438.4352460428038967
 20
41.9451365856433398
 30
0.0
 40
1.004195842575351
 50
352.1902344019733277
 51
0.5309763115204432
  0
ARC
  5
E366
  8
0
 10
439.424629049790326
 20
41.8105825538941502
 30
0.0
 40
0.0058178037730367
 50
289.5627753023541118
 51
340.9326828532255718
  0
ARC
  5
E367
  8
0
 10
439.4126809481413147
 20
41.8378954168392525
 30
0.0
 40
0.0356174632999039
 50
272.8335044416302253
 51
292.9637957024648927
  0
LINE
  5
E368
  8
0
 10
439.439398764228315
 20
41.9544426213922392
 30
0.0
 11
439.4393725498620142
 21
46.3767623910708622
 31
0.0
  0
LINE
  5
E369
  8
0
 10
439.444465138249825
 20
46.4770238456127771
 30
0.0
 11
439.444465138249825
 21
49.897426044312418
 31
0.0
  0
ARC
  5
E36A
  8
0
 10
438.8994142826485927
 20
53.2110045995712611
 30
0.0
 40
6.9095997120261021
 50
265.8332463951080058
 51
274.1659988092450249
  0
ARC
  5
E36B
  8
0
 10
438.8995534997357026
 20
53.2516073244917791
 30
0.0
 40
6.9582192507647438
 50
265.9605838918138829
 51
274.0369317883809117
  0
ARC
  5
E36C
  8
0
 10
438.8993504096461038
 20
53.2110105360587724
 30
0.0
 40
6.9552101493556346
 50
265.9605065858258968
 51
274.0402880921278097
  0
ARC
  5
E36D
  8
0
 10
438.8993424417611209
 20
53.1953639387412167
 30
0.0
 40
6.9486208679396597
 50
265.7497125288263078
 51
274.2512188612295745
  0
ARC
  5
E36E
  8
0
 10
438.8993777385401813
 20
43.2452640875964178
 30
0.0
 40
6.910722259424305
 50
85.8753772472878438
 51
94.1247441561261269
  0
ARC
  5
E36F
  8
0
 10
438.8995137823796995
 20
56.7738032352838928
 30
0.0
 40
6.9524751806838454
 50
265.8765341988432738
 51
274.1215651407819109
  0
ARC
  5
E370
  8
0
 10
438.8993949320043839
 20
56.4832060696892668
 30
0.0
 40
6.722526146580444
 50
265.7594289114877029
 51
274.2406362454473765
  0
ARC
  5
E371
  8
0
 10
438.8994948846678881
 20
56.687484989848457
 30
0.0
 40
6.9524344308769912
 50
265.8361633538428919
 51
274.1622481758683989
  0
ARC
  5
E372
  8
0
 10
438.8993424436771988
 20
48.7318304518502217
 30
0.0
 40
6.948627311927396
 50
265.7497113242886257
 51
274.2512148956587907
  0
ARC
  5
E373
  8
0
 10
438.8847145438184043
 20
42.082289690866503
 30
0.0
 40
0.4996916660413428
 50
270.7326528747944963
 51
306.8981834267398199
  0
ARC
  5
E374
  8
0
 10
438.9365810682423898
 20
42.1482670300819819
 30
0.0
 40
0.5674534063493895
 50
220.2322837008730119
 51
265.4032530202313183
  0
LINE
  5
E375
  8
0
 10
439.3494749989263255
 20
41.7977733887116472
 30
0.0
 11
439.3432251204206977
 21
41.6571822451072507
 31
0.0
  0
LINE
  5
E376
  8
0
 10
439.1847268571282825
 20
41.6826844194127801
 30
0.0
 11
439.356187196888925
 21
41.6550966630536266
 31
0.0
  0
ARC
  5
E377
  8
0
 10
438.6179787710075857
 20
41.9848855514830674
 30
0.0
 40
0.2332319974788243
 50
234.1747174608383943
 51
240.5674398763005115
  0
ARC
  5
E378
  8
0
 10
438.7932900967679757
 20
42.3574949432957624
 30
0.0
 40
0.6446161564606986
 50
243.2718445530447013
 51
262.6739627366421246
  0
ARC
  5
E379
  8
0
 10
438.8986885805945803
 20
42.9787489002554608
 30
0.0
 40
1.274490003110387
 50
261.535666055808008
 51
279.8304151561736717
  0
ARC
  5
E37A
  8
0
 10
439.0388126819196941
 20
42.2508499668284188
 30
0.0
 40
0.5335330254793457
 50
278.3492800601914041
 51
301.4688240802104247
  0
LINE
  5
E37B
  8
0
 10
439.3569891051283207
 20
40.4138587036127817
 30
0.0
 11
439.3569193534953001
 21
41.6463305468200318
 31
0.0
  0
ARC
  5
E37C
  8
0
 10
439.246479017088916
 20
41.6415200700662282
 30
0.0
 40
0.1105450523187279
 50
2.4940698061090352
 51
7.0545934783269253
  0
ARC
  5
E37D
  8
0
 10
418.6331313325512156
 20
41.1787084217027228
 30
0.0
 40
20.7379670187139915
 50
357.8863597457140031
 51
1.71290801791422
  0
LINE
  5
E37E
  8
0
 10
438.3593987642282741
 20
41.9544369958127774
 30
0.0
 11
437.7616034886282819
 21
41.9544274897127778
 31
0.0
  0
LINE
  5
E37F
  8
0
 10
437.7616034886282819
 20
41.9544274897127778
 30
0.0
 11
437.7616034886282819
 21
40.3796433523127831
 31
0.0
  0
LINE
  5
E380
  8
0
 10
437.7616034886282819
 20
40.3796433523127831
 30
0.0
 11
438.6282887592283259
 21
40.3796338462127835
 31
0.0
  0
ARC
  5
E381
  8
0
 10
438.8808483038077952
 20
37.1755962332671999
 30
0.0
 40
3.213976252047964
 50
86.043642917918234
 51
94.5070433684218756
  0
ARC
  5
E382
  8
0
 10
439.3312304041630227
 20
40.4123240660351897
 30
0.0
 40
0.0258043753638103
 50
283.7048644215204831
 51
3.409505954320629
  0
ARC
  5
E383
  8
0
 10
438.8142503723352092
 20
60.0360888417128891
 30
0.0
 40
19.6562907223000494
 50
270.8405404891973944
 51
271.1611695994531033
  0
ARC
  5
E384
  8
0
 10
438.814250372422805
 20
60.0360888378746722
 30
0.0
 40
19.6562907184608484
 50
271.1611695994237721
 51
271.4017228598066822
  0
ARC
  5
E385
  8
0
 10
439.2830324881272759
 20
41.2772158597401813
 30
0.0
 40
0.8916171815629118
 50
270.7746687313425014
 51
273.4922472008489081
  0
LINE
  5
E386
  8
0
 10
438.6080601815284012
 20
40.3796338462127835
 30
0.0
 11
438.6080601815284012
 21
30.6469918869127902
 31
0.0
  0
LINE
  5
E387
  8
0
 10
439.1907378499283823
 20
30.6469918869127902
 30
0.0
 11
439.1907373468284277
 21
40.3834039737968595
 31
0.0
  0
ARC
  5
E388
  8
0
 10
461.9242626650508896
 20
30.6460951706553395
 30
0.0
 40
23.3162025007659786
 50
179.9977964654844129
 51
188.7769749189212121
  0
ARC
  5
E389
  8
0
 10
462.0525094286505237
 20
30.65431251639815
 30
0.0
 40
22.8617727508013289
 50
180.0183468353320109
 51
189.0302091822281909
  0
ARC
  5
E38A
  8
0
 10
461.9601037936487842
 20
30.6470105002508717
 30
0.0
 40
22.7693674950520695
 50
189.0485585137467979
 51
200.3805783336007096
  0
ARC
  5
E38B
  8
0
 10
461.9338736705985866
 20
30.6386968810958287
 30
0.0
 40
23.3245737158460891
 50
188.7554116974646945
 51
200.3835643497369858
  0
ARC
  5
E38C
  8
0
 10
427.2935795134196724
 20
17.7713094409125816
 30
0.0
 40
13.6283647580138201
 50
358.6764036565519973
 51
20.3681452891351
  0
ARC
  5
E38D
  8
0
 10
427.291220289412081
 20
17.7707457171523693
 30
0.0
 40
14.2134622568497608
 50
0.0020729806234225
 51
20.3669674137591201
  0
ARC
  5
E38E
  8
0
 10
427.2291690871082892
 20
17.782835548154889
 30
0.0
 40
13.6930279178991903
 50
348.9862066958286846
 51
358.6344132855800808
  0
ARC
  5
E38F
  8
0
 10
427.2442129320397726
 20
17.7803908367555117
 30
0.0
 40
14.2604725281332705
 50
348.9824543382549109
 51
359.9633139470636252
  0
ARC
  5
E390
  8
0
 10
438.9422630635392011
 20
15.5036845549263393
 30
0.0
 40
1.759321005017332
 50
179.9932506590255912
 51
241.1522849391556917
  0
ARC
  5
E391
  8
0
 10
438.9427581692502827
 20
15.5039884254740894
 30
0.0
 40
1.759826070443552
 50
241.1429391651298033
 51
348.9551901883270943
  0
ARC
  5
E392
  8
0
 10
438.9454023531073972
 20
15.5047137006812097
 30
0.0
 40
2.3451375912196388
 50
180.0200814872347905
 51
213.5782520206122115
  0
ARC
  5
E393
  8
0
 10
438.942433295957926
 20
15.5038840495247001
 30
0.0
 40
2.3422053103937359
 50
213.6015133417512004
 51
251.258390186689212
  0
ARC
  5
E394
  8
0
 10
438.9429450038774121
 20
15.50227367531898
 30
0.0
 40
2.34084494936535
 50
251.2338649340389054
 51
301.6296606718472049
  0
ARC
  5
E395
  8
0
 10
438.9423490507637098
 20
15.5044257992058991
 30
0.0
 40
2.3429900033333171
 50
301.6144696750906178
 51
348.9430847317739222
  0
LINE
  5
E396
  8
0
 10
436.6002649059283272
 20
15.5038917579475903
 30
0.0
 11
436.6002649059283272
 21
17.1630984131127811
 31
0.0
  0
LINE
  5
E397
  8
0
 10
437.1829420712284104
 20
17.1630984131127811
 30
0.0
 11
437.1829420707284157
 21
15.5038917998127808
 31
0.0
  0
LINE
  5
E398
  8
0
 10
436.448690102728392
 20
17.2733346336127802
 30
0.0
 11
436.448690102728392
 21
17.1926259722127917
 31
0.0
  0
LINE
  5
E399
  8
0
 10
436.4782176618284097
 20
17.1630984131127811
 30
0.0
 11
437.3049646793282932
 21
17.1630984131127811
 31
0.0
  0
LINE
  5
E39A
  8
0
 10
437.3345168744282887
 20
17.1926259722127917
 30
0.0
 11
437.3345168744282887
 21
17.2733346336127802
 31
0.0
  0
LINE
  5
E39B
  8
0
 10
437.3476406820283842
 20
17.2733346336127802
 30
0.0
 11
436.4355662951282966
 21
17.2733346336127802
 31
0.0
  0
LINE
  5
E39C
  8
0
 10
436.4355662951282966
 20
17.2733346336127802
 30
0.0
 11
436.4355662951282966
 21
17.5686102242127902
 31
0.0
  0
LINE
  5
E39D
  8
0
 10
436.4355662951282966
 20
17.5686102242127902
 30
0.0
 11
437.3476406820283842
 21
17.5686102242127902
 31
0.0
  0
LINE
  5
E39E
  8
0
 10
437.3476406820283842
 20
17.5686102242127902
 30
0.0
 11
437.3476406820283842
 21
17.2733346336127802
 31
0.0
  0
LINE
  5
E39F
  8
0
 10
437.3465755860283934
 20
17.2733346336127802
 30
0.0
 11
437.3465755860283934
 21
17.5686102242127902
 31
0.0
  0
LINE
  5
E3A0
  8
0
 10
437.3412625382284205
 20
17.5686102242127902
 30
0.0
 11
437.3412625382284205
 21
17.2733346336127802
 31
0.0
  0
LINE
  5
E3A1
  8
0
 10
437.3317511449283188
 20
17.2733346336127802
 30
0.0
 11
437.3317511449283188
 21
17.5686102242127902
 31
0.0
  0
LINE
  5
E3A2
  8
0
 10
437.3181302115282847
 20
17.5686102242127902
 30
0.0
 11
437.3181302115282847
 21
17.2733346336127802
 31
0.0
  0
LINE
  5
E3A3
  8
0
 10
437.3005269131284081
 20
17.2733346336127802
 30
0.0
 11
437.3005269131284081
 21
17.5686102242127902
 31
0.0
  0
LINE
  5
E3A4
  8
0
 10
437.2791056068284092
 20
17.5686102242127902
 30
0.0
 11
437.2791056068284092
 21
17.2733346336127802
 31
0.0
  0
LINE
  5
E3A5
  8
0
 10
437.256114059128322
 20
17.2733346336127802
 30
0.0
 11
437.256114059128322
 21
17.5686102242127902
 31
0.0
  0
LINE
  5
E3A6
  8
0
 10
437.2540662977284001
 20
17.5686102242127902
 30
0.0
 11
437.2540662977284001
 21
17.2733346336127802
 31
0.0
  0
LINE
  5
E3A7
  8
0
 10
437.2301291522283009
 20
17.2733346336127802
 30
0.0
 11
437.2301291522283009
 21
17.5686102242127902
 31
0.0
  0
LINE
  5
E3A8
  8
0
 10
437.2256427709284026
 20
17.5686102242127902
 30
0.0
 11
437.2256427709284026
 21
17.2733346336127802
 31
0.0
  0
LINE
  5
E3A9
  8
0
 10
437.2009835224283165
 20
17.2733346336127802
 30
0.0
 11
437.2009835224283165
 21
17.5686102242127902
 31
0.0
  0
LINE
  5
E3AA
  8
0
 10
437.1941004094284153
 20
17.5686102242127902
 30
0.0
 11
437.1941004094284153
 21
17.2733346336127802
 31
0.0
  0
LINE
  5
E3AB
  8
0
 10
437.168949294628419
 20
17.2733346336127802
 30
0.0
 11
437.168949294628419
 21
17.5686102242127902
 31
0.0
  0
LINE
  5
E3AC
  8
0
 10
437.1597337156284198
 20
17.5686102242127902
 30
0.0
 11
437.1597337156284198
 21
17.2733346336127802
 31
0.0
  0
LINE
  5
E3AD
  8
0
 10
437.134325563728396
 20
17.5686102242127902
 30
0.0
 11
437.134325563728396
 21
17.2733346336127802
 31
0.0
  0
LINE
  5
E3AE
  8
0
 10
437.1228635622284173
 20
17.2733346336127802
 30
0.0
 11
437.1228635622284173
 21
17.5686102242127902
 31
0.0
  0
LINE
  5
E3AF
  8
0
 10
437.0974356022284155
 20
17.2733346336127802
 30
0.0
 11
437.0974356022284155
 21
17.5686102242127902
 31
0.0
  0
LINE
  5
E3B0
  8
0
 10
437.0838341957282864
 20
17.2733346336127802
 30
0.0
 11
437.0838341957282864
 21
17.5686102242127902
 31
0.0
  0
LINE
  5
E3B1
  8
0
 10
437.0586238417283198
 20
17.2733346336127909
 30
0.0
 11
437.0586238417283198
 21
17.5686102242127902
 31
0.0
  0
LINE
  5
E3B2
  8
0
 10
437.043010023028387
 20
17.2733346336127802
 30
0.0
 11
437.043010023028387
 21
17.5686102242127902
 31
0.0
  0
LINE
  5
E3B3
  8
0
 10
437.0182526571284143
 20
17.2733346336127802
 30
0.0
 11
437.0182526571284143
 21
17.5686102242127902
 31
0.0
  0
LINE
  5
E3B4
  8
0
 10
437.0007722082282839
 20
17.2733346336127909
 30
0.0
 11
437.0007722082282839
 21
17.5686102242127902
 31
0.0
  0
LINE
  5
E3B5
  8
0
 10
436.9766989835284221
 20
17.2733346336127909
 30
0.0
 11
436.9766989835284221
 21
17.5686102242127902
 31
0.0
  0
LINE
  5
E3B6
  8
0
 10
436.9575151145284053
 20
17.2733346336127802
 30
0.0
 11
436.9575151145284053
 21
17.5686102242127902
 31
0.0
  0
LINE
  5
E3B7
  8
0
 10
436.934350796128399
 20
17.2733346336127909
 30
0.0
 11
436.934350796128399
 21
17.5686102242127902
 31
0.0
  0
LINE
  5
E3B8
  8
0
 10
436.913642621728286
 20
17.2733346336127802
 30
0.0
 11
436.913642621728286
 21
17.5686102242127902
 31
0.0
  0
LINE
  5
E3B9
  8
0
 10
436.8916034886282773
 20
17.2733346336127802
 30
0.0
 11
436.8916034886282773
 21
17.5686102242127902
 31
0.0
  0
LINE
  5
E3BA
  8
0
 10
436.8695643554283947
 20
17.2733346336127909
 30
0.0
 11
436.8695643554283947
 21
17.5686102242127902
 31
0.0
  0
LINE
  5
E3BB
  8
0
 10
436.8488561811283262
 20
17.2733346336127802
 30
0.0
 11
436.8488561811283262
 21
17.5686102242127902
 31
0.0
  0
LINE
  5
E3BC
  8
0
 10
436.8256918626283891
 20
17.2733346336127802
 30
0.0
 11
436.8256918626283891
 21
17.5686102242127902
 31
0.0
  0
LINE
  5
E3BD
  8
0
 10
436.8065079937283031
 20
17.2733346336127802
 30
0.0
 11
436.8065079937283031
 21
17.5686102242127902
 31
0.0
  0
LINE
  5
E3BE
  8
0
 10
436.7824347689283968
 20
17.2733346336127802
 30
0.0
 11
436.7824347689283968
 21
17.5686102242127902
 31
0.0
  0
LINE
  5
E3BF
  8
0
 10
436.7649543200283233
 20
17.2733346336127802
 30
0.0
 11
436.7649543200283233
 21
17.5686102242127902
 31
0.0
  0
LINE
  5
E3C0
  8
0
 10
436.7401969542282814
 20
17.2733346336127802
 30
0.0
 11
436.7401969542282814
 21
17.5686102242127902
 31
0.0
  0
LINE
  5
E3C1
  8
0
 10
436.7245831355282917
 20
17.2733346336127802
 30
0.0
 11
436.7245831355282917
 21
17.5686102242127902
 31
0.0
  0
LINE
  5
E3C2
  8
0
 10
436.6993727814283943
 20
17.2733346336127802
 30
0.0
 11
436.6993727814283943
 21
17.5686102242127902
 31
0.0
  0
LINE
  5
E3C3
  8
0
 10
436.6857713750284233
 20
17.2733346336127802
 30
0.0
 11
436.6857713750284233
 21
17.5686102242127902
 31
0.0
  0
LINE
  5
E3C4
  8
0
 10
436.6603434149283771
 20
17.2733346336127909
 30
0.0
 11
436.6603434149283771
 21
17.5686102242127902
 31
0.0
  0
LINE
  5
E3C5
  8
0
 10
436.648881413528386
 20
17.2733346336127909
 30
0.0
 11
436.648881413528386
 21
17.5686102242127902
 31
0.0
  0
LINE
  5
E3C6
  8
0
 10
436.6142576826284198
 20
17.2733346336127802
 30
0.0
 11
436.6142576826284198
 21
17.5686102242127902
 31
0.0
  0
LINE
  5
E3C7
  8
0
 10
436.6234732615283178
 20
17.2733346336127802
 30
0.0
 11
436.6234732615283178
 21
17.5686102242127902
 31
0.0
  0
LINE
  5
E3C8
  8
0
 10
436.5891065677283223
 20
17.2733346336127909
 30
0.0
 11
436.5891065677283223
 21
17.5686102242127902
 31
0.0
  0
LINE
  5
E3C9
  8
0
 10
436.5822234547284211
 20
17.2733346336127909
 30
0.0
 11
436.5822234547284211
 21
17.5686102242127902
 31
0.0
  0
LINE
  5
E3CA
  8
0
 10
436.5575642062282782
 20
17.2733346336127909
 30
0.0
 11
436.5575642062282782
 21
17.5686102242127902
 31
0.0
  0
LINE
  5
E3CB
  8
0
 10
436.5530778249283799
 20
17.2733346336127909
 30
0.0
 11
436.5530778249283799
 21
17.5686102242127902
 31
0.0
  0
LINE
  5
E3CC
  8
0
 10
436.5291406795283251
 20
17.2733346336127909
 30
0.0
 11
436.5291406795283251
 21
17.5686102242127902
 31
0.0
  0
LINE
  5
E3CD
  8
0
 10
436.5270929180284156
 20
17.2733346336127909
 30
0.0
 11
436.5270929180284156
 21
17.5686102242127902
 31
0.0
  0
LINE
  5
E3CE
  8
0
 10
436.5041013703283284
 20
17.2733346336127802
 30
0.0
 11
436.5041013703283284
 21
17.5686102242127902
 31
0.0
  0
LINE
  5
E3CF
  8
0
 10
436.4826800640282727
 20
17.2733346336127909
 30
0.0
 11
436.4826800640282727
 21
17.5686102242127902
 31
0.0
  0
LINE
  5
E3D0
  8
0
 10
436.4650767656283961
 20
17.2733346336127909
 30
0.0
 11
436.4650767656283961
 21
17.5686102242127902
 31
0.0
  0
LINE
  5
E3D1
  8
0
 10
436.4514558322284188
 20
17.2733346336127909
 30
0.0
 11
436.4514558322284188
 21
17.5686102242127902
 31
0.0
  0
LINE
  5
E3D2
  8
0
 10
436.4419444390284184
 20
17.2733346336127909
 30
0.0
 11
436.4419444390284184
 21
17.5686102242127902
 31
0.0
  0
LINE
  5
E3D3
  8
0
 10
436.436631391128401
 20
17.2733346336127802
 30
0.0
 11
436.436631391128401
 21
17.5686102242127902
 31
0.0
  0
LINE
  5
E3D4
  8
0
 10
436.448690102728392
 20
17.5686102242127902
 30
0.0
 11
436.4486901028283796
 21
17.793019673012779
 31
0.0
  0
LINE
  5
E3D5
  8
0
 10
436.3994784481283773
 20
17.8638858147127806
 30
0.0
 11
436.3994775043282743
 21
17.8048306966127896
 31
0.0
  0
LINE
  5
E3D6
  8
0
 10
436.3994775043282743
 20
17.8048306966127896
 30
0.0
 11
437.383728529128291
 21
17.8048306966127896
 31
0.0
  0
LINE
  5
E3D7
  8
0
 10
437.383728529128291
 20
17.8048306966127896
 30
0.0
 11
437.3837294728284064
 21
17.8638858147127806
 31
0.0
  0
LINE
  5
E3D8
  8
0
 10
437.3837294728284064
 20
17.8638858147127806
 30
0.0
 11
436.3994784481283773
 21
17.8638858147127806
 31
0.0
  0
LINE
  5
E3D9
  8
0
 10
436.3994775043282743
 20
17.8835708541127794
 30
0.0
 11
437.3837294728284064
 21
17.8835708541127794
 31
0.0
  0
LINE
  5
E3DA
  8
0
 10
437.3837285107845787
 20
17.9229357964627809
 30
0.0
 11
436.3994775043282743
 21
17.9229357964627809
 31
0.0
  0
LINE
  5
E3DB
  8
0
 10
436.3994775043282743
 20
18.5528570563627788
 30
0.0
 11
437.3837285378281194
 21
18.5528570563627788
 31
0.0
  0
LINE
  5
E3DC
  8
0
 10
437.3837285090946807
 20
17.8835708541127794
 30
0.0
 11
437.3837294728367056
 21
40.3319152673850709
 31
0.0
  0
LINE
  5
E3DD
  8
0
 10
436.3994775043282743
 20
40.3320078978630789
 30
0.0
 11
436.3994775043282743
 21
17.8835708541127794
 31
0.0
  0
ARC
  5
E3DE
  8
0
 10
436.4782176618284097
 20
17.1926259722127917
 30
0.0
 40
0.0295275591000026
 50
180.0000000000034106
 51
269.9999999999935199
  0
ARC
  5
E3DF
  8
0
 10
437.3049892978086177
 20
17.1926259794696605
 30
0.0
 40
0.0295275766196515
 50
269.9522299034675825
 51
359.9999859186386857
  0
ARC
  5
E3E0
  8
0
 10
437.3227058508284131
 20
17.793019673012779
 30
0.0
 40
0.0118110236000017
 50
0.0000000000085493
 51
88.3867418418295188
  0
ARC
  5
E3E1
  8
0
 10
436.4605011264284258
 20
17.793019673012779
 30
0.0
 40
0.0118110236000035
 50
90.0000000000162856
 51
179.999998085115493
  0
LINE
  5
E3E2
  8
0
 10
437.3345168744282887
 20
17.793019673012779
 30
0.0
 11
437.3345168744282887
 21
17.5686102242127902
 31
0.0
  0
LINE
  5
E3E3
  8
0
 10
436.5766428586284178
 20
17.8835708541127794
 30
0.0
 11
436.5766428586284178
 21
17.8638858147127806
 31
0.0
  0
LINE
  5
E3E4
  8
0
 10
437.2065641185283198
 20
17.8835708541127794
 30
0.0
 11
437.2065641185283198
 21
17.8638858147127806
 31
0.0
  0
ARC
  5
E3E5
  8
0
 10
436.5184835144473823
 20
17.7825045501695698
 30
0.0
 40
0.1011077330795141
 50
91.6402619627492356
 51
111.5108166542399033
  0
ARC
  5
E3E6
  8
0
 10
436.491477556715779
 20
17.8505537362017286
 30
0.0
 40
0.0278963600578402
 50
111.1557273476961001
 51
151.4216325100879885
  0
ARC
  5
E3E7
  8
0
 10
437.2647269237655792
 20
17.7825624658967207
 30
0.0
 40
0.101107733079491
 50
68.498076762259771
 51
87.4598830135840046
  0
ARC
  5
E3E8
  8
0
 10
437.2917223186179854
 20
17.8506158429576303
 30
0.0
 40
0.0278963600578402
 50
28.5872609064132313
 51
68.8531660688048817
  0
ARC
  5
E3E9
  8
0
 10
436.822697088051882
 20
18.5430233026736708
 30
0.0
 40
0.0098337575933313
 50
90.0510557857479483
 51
180.0211479947826945
  0
ARC
  5
E3EA
  8
0
 10
436.9605011264990253
 20
18.5430196731834904
 30
0.0
 40
0.0098425195292933
 50
359.9999990062768802
 51
88.1488965895074017
  0
ARC
  5
E3EB
  8
0
 10
436.8227146246517805
 20
17.932787086749439
 30
0.0
 40
0.0098512941937609
 50
180.0211369615547881
 51
269.9489708547857276
  0
ARC
  5
E3EC
  8
0
 10
436.9604923526050015
 20
17.9327870867494283
 30
0.0
 40
0.0098512941937587
 50
270.0510291453804257
 51
359.9788630384658745
  0
LINE
  5
E3ED
  8
0
 10
436.8128633311283124
 20
17.9229357964627809
 30
0.0
 11
436.8128633311283124
 21
18.5528570563627788
 31
0.0
  0
LINE
  5
E3EE
  8
0
 10
436.9703436461284127
 20
18.5528621927127908
 30
0.0
 11
436.9703436461284127
 21
17.9229357964627809
 31
0.0
  0
ARC
  5
E3EF
  8
0
 10
436.8916034886282773
 20
19.3107362084127807
 30
0.0
 40
1.2401574802999991
 50
113.3798681184314034
 51
246.6201318815685113
  0
ARC
  5
E3F0
  8
0
 10
436.8916034886282773
 20
19.3107362084127807
 30
0.0
 40
1.2401574802999991
 50
293.379868113399823
 51
66.6201318866002197
  0
ARC
  5
E3F1
  8
0
 10
436.8849999436990856
 20
19.3107200550867404
 30
0.0
 40
0.4953649543757775
 50
168.5593747835596048
 51
191.4406252164405089
  0
ARC
  5
E3F2
  8
0
 10
436.8982293988054266
 20
19.3107546017558818
 30
0.0
 40
0.4953425891024839
 50
348.5585868966335283
 51
11.4408843970591008
  0
LINE
  5
E3F3
  8
0
  6
CONTINUOUS
 62
     7
 10
435.0412097878282793
 20
41.9347513903127833
 30
0.0
 11
435.0412097878282793
 21
40.3993194517127776
 31
0.0
  0
LINE
  5
E3F4
  8
0
  6
CONTINUOUS
 62
     7
 10
435.6238794552282911
 20
42.1206185774127775
 30
0.0
 11
435.579292898819574
 21
41.9417916674194089
 31
0.0
  0
LINE
  5
E3F5
  8
0
  6
CONTINUOUS
 62
     7
 10
436.1712565641702781
 20
41.9477198886031886
 30
0.0
 11
436.2119892999284048
 21
42.1110899684127773
 31
0.0
  0
LINE
  5
E3F6
  8
0
  6
CONTINUOUS
 62
     7
 10
436.3089263232283201
 20
41.9938070745127732
 30
0.0
 11
436.3089263232283201
 21
41.9544369958127774
 31
0.0
  0
LINE
  5
E3F7
  8
0
  6
CONTINUOUS
 62
     7
 10
436.3089263232283201
 20
40.3796338462127835
 30
0.0
 11
436.3089262373305814
 21
40.3402637673485174
 31
0.0
  0
LINE
  5
E3F8
  8
0
  6
CONTINUOUS
 62
     7
 10
437.4742807589340146
 20
40.3402637673403035
 30
0.0
 11
437.4742806539284175
 21
40.3796338462127835
 31
0.0
  0
LINE
  5
E3F9
  8
0
  6
CONTINUOUS
 62
     7
 10
437.4742806539284175
 20
41.9544369958127774
 30
0.0
 11
437.4742806539284175
 21
41.9938070745127732
 31
0.0
  0
LINE
  5
E3FA
  8
0
  6
CONTINUOUS
 62
     7
 10
437.7183751421283091
 20
40.3796338462127835
 30
0.0
 11
437.7183751421283091
 21
41.9544369958127774
 31
0.0
  0
LINE
  5
E3FB
  8
0
  6
CONTINUOUS
 62
     7
 10
437.7616034886282819
 20
41.9544369958127774
 30
0.0
 11
437.7616034886282819
 21
40.3796338462127835
 31
0.0
  0
LINE
  5
E3FC
  8
0
  6
CONTINUOUS
 62
     7
 10
437.4545953225282915
 20
40.3205787281127925
 30
0.0
 11
437.407349767628375
 21
40.3205787281127925
 31
0.0
  0
LINE
  5
E3FD
  8
0
  6
CONTINUOUS
 62
     7
 10
436.3758572104284212
 20
40.3205787281127925
 30
0.0
 11
436.3286116547283768
 21
40.3205787281127925
 31
0.0
  0
LINE
  5
E3FE
  8
0
  6
CONTINUOUS
 62
     7
 10
437.7183751421283091
 20
40.3796338462127835
 30
0.0
 11
437.4742806539284175
 21
40.3796338462127835
 31
0.0
  0
LINE
  5
E3FF
  8
0
  6
CONTINUOUS
 62
     7
 10
436.3089263232283201
 20
40.3796338462127835
 30
0.0
 11
435.0608948272284238
 21
40.3796338462127835
 31
0.0
  0
LINE
  5
E400
  8
0
  6
CONTINUOUS
 62
     7
 10
437.7183751421283091
 20
40.485933058812769
 30
0.0
 11
437.7577452199079175
 21
40.4859330589127779
 31
0.0
  0
LINE
  5
E401
  8
0
  6
CONTINUOUS
 62
     7
 10
436.3878000697283142
 20
42.0095580429128006
 30
0.0
 11
436.3862632510283106
 21
42.0105151161127708
 31
0.0
  0
LINE
  5
E402
  8
0
  6
CONTINUOUS
 62
     7
 10
437.7183751421283091
 20
41.8481377832127919
 30
0.0
 11
437.7577452199079175
 21
41.8481377831127901
 31
0.0
  0
LINE
  5
E403
  8
0
  6
CONTINUOUS
 62
     7
 10
437.7183751421283091
 20
41.9544369958127774
 30
0.0
 11
437.4742806539284175
 21
41.9544369958127774
 31
0.0
  0
LINE
  5
E404
  8
0
  6
CONTINUOUS
 62
     7
 10
436.3089263232283201
 20
41.9544369958127774
 30
0.0
 11
436.1868790791284027
 21
41.9544369958127774
 31
0.0
  0
LINE
  5
E405
  8
0
  6
CONTINUOUS
 62
     7
 10
435.5490539880283904
 20
41.9544369958127774
 30
0.0
 11
435.0608948272284238
 21
41.9544369958127774
 31
0.0
  0
LINE
  5
E406
  8
0
  6
CONTINUOUS
 62
     7
 10
437.4545953224283039
 20
42.0134921139127684
 30
0.0
 11
437.4073497667283164
 21
42.0134921139127684
 31
0.0
  0
LINE
  5
E407
  8
0
  6
CONTINUOUS
 62
     7
 10
436.3758572095284194
 20
42.0134921139127684
 30
0.0
 11
436.3286116547283768
 21
42.0134921139127684
 31
0.0
  0
LINE
  5
E408
  8
0
  6
CONTINUOUS
 62
     7
 10
436.192888814628418
 20
42.1355393580127782
 30
0.0
 11
435.642979963228413
 21
42.1355393580127782
 31
0.0
  0
ARC
  5
E409
  8
0
  6
CONTINUOUS
 62
     7
 10
437.7577452209283138
 20
41.8087677044127872
 30
0.0
 40
0.0393700787
 50
84.3731095003020215
 51
90.0
  0
ARC
  5
E40A
  8
0
  6
CONTINUOUS
 62
     7
 10
437.4547658468299005
 20
41.9939773093424478
 30
0.0
 40
0.0195155495948701
 50
359.5002005493963111
 51
90.5006496380470935
  0
ARC
  5
E40B
  8
0
  6
CONTINUOUS
 62
     7
 10
436.3286191412065023
 20
40.3402716321360728
 30
0.0
 40
0.019692905446315
 50
180.0228823088854142
 51
269.9782183683474841
  0
ARC
  5
E40C
  8
0
  6
CONTINUOUS
 62
     7
 10
436.3286190079301718
 20
41.993799429099731
 30
0.0
 40
0.019692686185875
 50
90.0213941071201731
 51
179.9777557055022896
  0
ARC
  5
E40D
  8
0
  6
CONTINUOUS
 62
     7
 10
437.4545889718193052
 20
40.3402705153595704
 30
0.0
 40
0.0196917882708542
 50
270.0184782015119254
 51
359.9803657734727267
  0
ARC
  5
E40E
  8
0
  6
CONTINUOUS
 62
     7
 10
435.0608948272341081
 20
40.3993188855266681
 30
0.0
 40
0.0196850394138788
 50
179.9983520442083034
 51
269.9999999832693902
  0
ARC
  5
E40F
  8
0
  6
CONTINUOUS
 62
     7
 10
435.0608948272341081
 20
41.9347519563989124
 30
0.0
 40
0.0196850394138792
 50
90.000000016730624
 51
180.001647664744695
  0
ARC
  5
E410
  8
0
 10
435.8679665335783966
 20
42.6746316586041416
 30
0.0
 40
0.7876455827479462
 50
246.1155490068514098
 51
293.8844509931453217
  0
ARC
  5
E411
  8
0
 10
435.6430774187722932
 20
42.11572866525443
 30
0.0
 40
0.0198109324654052
 50
90.2818551770025834
 51
165.7100537213322866
  0
ARC
  5
E412
  8
0
 10
436.1928019259925122
 20
42.1157858910236982
 30
0.0
 40
0.0197536580846036
 50
346.2477402285218204
 51
89.7479774046691432
  0
ARC
  5
E413
  8
0
 10
437.4076135193873256
 20
40.34117623081994
 30
0.0
 40
0.0205991913133042
 50
238.8037209814035862
 51
269.2663655898693946
  0
ARC
  5
E414
  8
0
 10
436.3755934538839938
 20
40.3411762436807919
 30
0.0
 40
0.0205992042343559
 50
270.7336472616494234
 51
301.1962650128829182
  0
ARC
  5
E415
  8
0
 10
437.1076526558669002
 20
39.2102803831204483
 30
0.0
 40
1.326568755318531
 50
108.2166994898336014
 51
122.9427657169947992
  0
ARC
  5
E416
  8
0
 10
436.6057225682528724
 20
39.0874654968234623
 30
0.0
 40
1.4676341420909
 50
57.3766989269797207
 51
67.1705387683754225
  0
ARC
  5
E417
  8
0
 10
436.8945927820004158
 20
39.8259024167801101
 30
0.0
 40
0.6752690961265977
 50
65.4508533771880252
 51
107.3740509861221
  0
ARC
  5
E418
  8
0
 10
437.3701604794104014
 20
38.8706794863301184
 30
0.0
 40
1.8447658915039069
 50
115.5191617869073042
 51
125.1183786874064054
  0
ARC
  5
E419
  8
0
 10
436.3796431112028245
 20
38.8198139753080227
 30
0.0
 40
1.905588984963335
 50
54.9399058828437106
 51
63.2204543824638421
  0
ARC
  5
E41A
  8
0
 10
436.8934253750655898
 20
39.913970467793348
 30
0.0
 40
0.6981385291704829
 50
60.403974327107008
 51
117.0981970409169008
  0
ARC
  5
E41B
  8
0
 10
437.4703734800302755
 20
43.6239828065809832
 30
0.0
 40
2.0338000669428711
 50
235.1749561781321916
 51
242.6833034878110027
  0
ARC
  5
E41C
  8
0
 10
436.3835273061495741
 20
43.507605887302617
 30
0.0
 40
1.8979137154207419
 50
296.8023904372980155
 51
305.0794496637819861
  0
ARC
  5
E41D
  8
0
 10
436.9610398716837949
 20
42.635991458691187
 30
0.0
 40
0.9222489051167313
 50
242.6296832467702984
 51
257.4595015863168896
  0
ARC
  5
E41E
  8
0
 10
436.7959882436138059
 20
42.6967456537597627
 30
0.0
 40
0.9881851047418559
 50
286.411546361790613
 51
296.6562693098475734
  0
ARC
  5
E41F
  8
0
 10
436.892277861023274
 20
42.3603993478734182
 30
0.0
 40
0.6383429267478848
 50
258.1131558279711271
 51
286.6505730029451229
  0
ARC
  5
E420
  8
0
 10
436.3755934576579989
 20
41.9928946110498202
 30
0.0
 40
0.0205991914705302
 50
58.8037205589432972
 51
89.2663652856706449
  0
ARC
  5
E421
  8
0
 10
437.4076120540398733
 20
41.9928997349719282
 30
0.0
 40
0.0205940492637517
 50
90.7297429506414232
 51
121.2001706330006954
  0
ARC
  5
E422
  8
0
 10
437.3273564683562995
 20
43.5128982043676089
 30
0.0
 40
1.7727938027998831
 50
237.9954719486883903
 51
243.6489972728820135
  0
ARC
  5
E423
  8
0
 10
436.4232092814547741
 20
43.5656628832736317
 30
0.0
 40
1.834841504673234
 50
298.2235835426931203
 51
302.0521759363344927
  0
ARC
  5
E424
  8
0
 10
436.9646445035857028
 20
42.7718757273269432
 30
0.0
 40
0.947781122984039
 50
243.4136087229786085
 51
256.4232709796443146
  0
ARC
  5
E425
  8
0
 10
436.7722528328275189
 20
42.8943517413905724
 30
0.0
 40
1.078321594820411
 50
285.7932177040698889
 51
298.7510394338186757
  0
ARC
  5
E426
  8
0
 10
436.8920582755737883
 20
42.4783354661729504
 30
0.0
 40
0.6454061127108643
 50
256.5697599588355047
 51
285.6105913023147878
  0
ARC
  5
E427
  8
0
 10
437.3020129928963797
 20
43.4632146874510923
 30
0.0
 40
1.7735218821582019
 50
235.9475394648752058
 51
246.1611218083660049
  0
ARC
  5
E428
  8
0
 10
436.9295253859704076
 20
42.6261534215542213
 30
0.0
 40
0.8573304767496781
 50
246.3213356492551043
 51
259.2091899155146848
  0
ARC
  5
E429
  8
0
 10
436.4812576139602811
 20
43.4632146874510923
 30
0.0
 40
1.7735218821582019
 50
293.8388781916340236
 51
304.049979494541617
  0
ARC
  5
E42A
  8
0
 10
436.8537452208861964
 20
42.6261534215542213
 30
0.0
 40
0.8573304767496781
 50
280.7908100844820183
 51
293.6786643507448957
  0
ARC
  5
E42B
  8
0
 10
436.8916353034284157
 20
42.4331527953054817
 30
0.0
 40
0.6606495925927091
 50
259.3033558307558906
 51
280.6966441692439957
  0
ARC
  5
E42C
  8
0
 10
437.3020129928963797
 20
38.8708561545744615
 30
0.0
 40
1.7735218821582019
 50
113.8388781916339951
 51
124.0524638835801028
  0
ARC
  5
E42D
  8
0
 10
436.9295253859704076
 20
39.7079174204713468
 30
0.0
 40
0.8573304767496781
 50
100.7908100844852015
 51
113.6786643507448957
  0
ARC
  5
E42E
  8
0
 10
436.4812576139602811
 20
38.8708561545744615
 30
0.0
 40
1.7735218821582019
 50
55.9500164156172914
 51
66.1611218083659622
  0
ARC
  5
E42F
  8
0
 10
436.8537452208861964
 20
39.7079174204713468
 30
0.0
 40
0.8573304767496781
 50
66.3213356492550901
 51
79.2091899155147416
  0
ARC
  5
E430
  8
0
 10
436.8916353034284157
 20
39.9009180467200792
 30
0.0
 40
0.6606495925927091
 50
79.3033558307559758
 51
100.6966441692439957
  0
ARC
  5
E431
  8
0
 10
437.7577452209284274
 20
40.5253031376129584
 30
0.0
 40
0.0393700787001734
 50
269.9999999999902229
 51
275.6268904997666027
  0
LINE
  5
E432
  8
0
 10
436.2616971893784239
 20
49.5567992006127724
 30
0.0
 11
437.5215097877783137
 21
49.5567992006127724
 31
0.0
  0
LINE
  5
E433
  8
0
 10
436.2419971893784236
 20
50.7772566809127923
 30
0.0
 11
436.2419971893784236
 21
49.5764992006127727
 31
0.0
  0
LINE
  5
E434
  8
0
 10
436.2616971893784239
 20
51.3325432229127827
 30
0.0
 11
437.5215097877783137
 21
51.3325432229127827
 31
0.0
  0
LINE
  5
E435
  8
0
 10
436.2616971893784239
 20
50.8601022779779584
 30
0.0
 11
437.5215097877783137
 21
50.8601022779779584
 31
0.0
  0
LINE
  5
E436
  8
0
 10
436.2616971893784239
 20
50.7969566809127926
 30
0.0
 11
437.5215097877783137
 21
50.7969566809127926
 31
0.0
  0
LINE
  5
E437
  8
0
 10
436.3404223862784193
 20
50.8601022781127909
 30
0.0
 11
436.3404223862783056
 21
50.7969566809127713
 31
0.0
  0
LINE
  5
E438
  8
0
 10
437.4427845909783059
 20
50.7969566809127713
 30
0.0
 11
437.4427845909783059
 21
50.8601022781127909
 31
0.0
  0
ARC
  5
E439
  8
0
 10
436.2616971893784239
 20
50.7772566809127923
 30
0.0
 40
0.0197
 50
90.0000000000390656
 51
180.0000000000094929
  0
ARC
  5
E43A
  8
0
 10
437.5215097877783137
 20
50.7772566809127497
 30
0.0
 40
0.0197
 50
0.0000000000097707
 51
90.0
  0
LINE
  5
E43B
  8
0
 10
436.2419971893784236
 20
50.8798022779779586
 30
0.0
 11
436.2419971893784236
 21
51.3128432228779587
 31
0.0
  0
LINE
  5
E43C
  8
0
 10
437.541209787778314
 20
51.3128432228779587
 30
0.0
 11
437.541209787778314
 21
50.8798022779779586
 31
0.0
  0
ARC
  5
E43D
  8
0
 10
436.2616971893784239
 20
50.8798022779779586
 30
0.0
 40
0.0197
 50
180.0000000000094929
 51
269.9999999999575948
  0
ARC
  5
E43E
  8
0
 10
436.2616971894378821
 20
51.3128432228533313
 30
0.0
 40
0.0197000000594514
 50
90.000000172950493
 51
179.9999999283988927
  0
ARC
  5
E43F
  8
0
 10
437.5215097877189123
 20
51.3128432228533313
 30
0.0
 40
0.0197000000594514
 50
0.0000000716370834
 51
89.9999998270918269
  0
ARC
  5
E440
  8
0
 10
437.5215097877783137
 20
50.8798022779779586
 30
0.0
 40
0.0197
 50
269.9999999999772058
 51
359.9999999999902229
  0
ARC
  5
E441
  8
0
 10
436.2616971893784239
 20
49.5764992006128011
 30
0.0
 40
0.0197
 50
180.0000000000210036
 51
269.9999999999575948
  0
ARC
  5
E442
  8
0
 10
437.5215097877783137
 20
49.5764992006128011
 30
0.0
 40
0.0197
 50
270.0000000000391083
 51
359.9999999999690772
  0
LINE
  5
E443
  8
0
 10
437.541209787828393
 20
49.5764992006128011
 30
0.0
 11
437.541209787778314
 21
50.7772566809127497
 31
0.0
  0
ARC
  5
E444
  8
0
 10
436.4886562722899725
 20
51.312555128225469
 30
0.0
 40
0.0219519898575066
 50
114.4203615036554993
 51
179.2089853189627888
  0
ARC
  5
E445
  8
0
 10
436.4878005091231898
 20
50.879532265592772
 30
0.0
 40
0.0210966247008404
 50
179.3072944578254919
 51
247.0726887290969103
  0
LINE
  5
E446
  8
0
 10
436.4667063744283837
 20
50.8797873174127915
 30
0.0
 11
436.4667063744283837
 21
51.3128581836127893
 31
0.0
  0
ARC
  5
E447
  8
0
 10
436.8916034886282773
 20
50.1768779407127781
 30
0.0
 40
1.2401574802999991
 50
121.5881355049441055
 51
246.6201318815685113
  0
ARC
  5
E448
  8
0
 10
436.8916034886282773
 20
50.1768779407127781
 30
0.0
 40
1.2401574802999991
 50
293.379868113399823
 51
58.4118644950558803
  0
ARC
  5
E449
  8
0
 10
436.8916034886279931
 20
50.1768779407142418
 30
0.0
 40
1.240157480298486
 50
108.5112378936017024
 51
111.2421499054073024
  0
ARC
  5
E44A
  8
0
 10
436.8916034886267994
 20
50.176877940708529
 30
0.0
 40
1.240157480304521
 50
68.7595115966043835
 51
71.4885812784959143
  0
LINE
  5
E44B
  8
0
 10
436.3994775043282743
 20
49.5567992005127778
 30
0.0
 11
436.3994775043282743
 21
42.0023226533407197
 31
0.0
  0
LINE
  5
E44C
  8
0
 10
437.3837294728284064
 20
42.0023189322394188
 30
0.0
 11
437.3837294728284064
 21
49.5567992005127778
 31
0.0
  0
LINE
  5
E44D
  8
0
 10
436.4979027012283268
 20
51.3325432229127827
 30
0.0
 11
436.4979027012283268
 21
56.0819763659127801
 31
0.0
  0
LINE
  5
E44E
  8
0
 10
437.2853042760283984
 20
56.0819763659127801
 30
0.0
 11
437.2853042760283984
 21
51.3325432229127827
 31
0.0
  0
LINE
  5
E44F
  8
0
 10
433.0136507327283084
 20
56.0819763659127801
 30
0.0
 11
440.7695562445284168
 21
56.0819763659127801
 31
0.0
  0
LINE
  5
E450
  8
0
 10
440.8286113627282816
 20
56.1410314840127782
 30
0.0
 11
440.8286113627282816
 21
56.5741023502127902
 31
0.0
  0
LINE
  5
E451
  8
0
 10
440.8089263232283201
 20
56.5937873896127925
 30
0.0
 11
432.9742806539284175
 21
56.5937873896127925
 31
0.0
  0
ARC
  5
E452
  8
0
 10
432.9738703779171942
 20
56.5745126262239069
 30
0.0
 40
0.0192791293917096
 50
88.7806058018435067
 51
181.219394198159506
  0
ARC
  5
E453
  8
0
 10
433.0136507327990216
 20
56.1410314841834932
 30
0.0
 40
0.0590551182707029
 50
180.0000001656223105
 51
269.9999999314034085
  0
ARC
  5
E454
  8
0
 10
440.7695562444577035
 20
56.1410314841834932
 30
0.0
 40
0.0590551182707095
 50
270.0000000686030717
 51
359.9999998343776042
  0
ARC
  5
E455
  8
0
 10
440.8089263233284214
 20
56.5741023501128026
 30
0.0
 40
0.0196850393999935
 50
0.0000002910471138
 51
90.0000002910843335
  0
LINE
  5
E456
  8
0
 10
432.9545956145283867
 20
56.5741023502127831
 30
0.0
 11
432.9545956145283867
 21
56.1410314840129914
 31
0.0
  0
ARC
  5
E457
  8
0
 10
433.6484482662195887
 20
56.0386692794166308
 30
0.0
 40
0.0078740159038459
 50
188.0000005545664976
 51
269.9999986083187196
  0
ARC
  5
E458
  8
0
 10
433.7410579236665171
 20
56.0386692794784267
 30
0.0
 40
0.0078740158656393
 50
269.9999786952984095
 51
351.9999989218628116
  0
LINE
  5
E459
  8
0
 10
433.6344104537283783
 20
56.0819763659127801
 30
0.0
 11
433.6406508797161905
 21
56.0375734281987121
 31
0.0
  0
LINE
  5
E45A
  8
0
 10
433.7550957360284087
 20
56.0819763659127801
 30
0.0
 11
433.748855310151896
 21
56.0375734282805666
 31
0.0
  0
LINE
  5
E45B
  8
0
 10
433.6484482662195887
 20
56.0307952635127933
 30
0.0
 11
433.7410579207386263
 21
56.0307952636127879
 31
0.0
  0
ARC
  5
E45C
  8
0
 10
434.447660864669615
 20
56.0386692794166308
 30
0.0
 40
0.0078740159038459
 50
188.0000005545664976
 51
269.9999986083187196
  0
ARC
  5
E45D
  8
0
 10
434.5402705221164865
 20
56.0386692794784267
 30
0.0
 40
0.0078740158656393
 50
269.9999786952984095
 51
351.9999989218628116
  0
LINE
  5
E45E
  8
0
 10
434.4336230521784046
 20
56.0819763659127801
 30
0.0
 11
434.4398634781662736
 21
56.0375734281987121
 31
0.0
  0
LINE
  5
E45F
  8
0
 10
434.5543083344783213
 20
56.0819763659127801
 30
0.0
 11
434.5480679086019222
 21
56.0375734282805666
 31
0.0
  0
LINE
  5
E460
  8
0
 10
434.447660864669615
 20
56.0307952635127933
 30
0.0
 11
434.5402705191885957
 21
56.0307952636127879
 31
0.0
  0
ARC
  5
E461
  8
0
 10
435.2468734631195844
 20
56.0386692794166308
 30
0.0
 40
0.0078740159038459
 50
188.0000005545664976
 51
269.9999986083187196
  0
ARC
  5
E462
  8
0
 10
435.3394831205663991
 20
56.0386692794784267
 30
0.0
 40
0.0078740158656393
 50
269.9999786952984095
 51
351.9999989218628116
  0
LINE
  5
E463
  8
0
 10
435.232835650628374
 20
56.0819763659127801
 30
0.0
 11
435.2390760766161861
 21
56.0375734281987121
 31
0.0
  0
LINE
  5
E464
  8
0
 10
435.3535209329284044
 20
56.0819763659127801
 30
0.0
 11
435.3472805070520053
 21
56.0375734282805666
 31
0.0
  0
LINE
  5
E465
  8
0
 10
435.2468734631195844
 20
56.0307952635127933
 30
0.0
 11
435.3394831176386219
 21
56.0307952636127879
 31
0.0
  0
ARC
  5
E466
  8
0
 10
436.0460860615195884
 20
56.0386692794166308
 30
0.0
 40
0.0078740159038459
 50
188.0000005545664976
 51
269.9999986083187196
  0
ARC
  5
E467
  8
0
 10
436.1386957189664031
 20
56.0386692794784267
 30
0.0
 40
0.0078740158656393
 50
269.9999786952984095
 51
351.9999989218628116
  0
LINE
  5
E468
  8
0
 10
436.0320482490283212
 20
56.0819763659127801
 30
0.0
 11
436.0382886750163038
 21
56.0375734281987121
 31
0.0
  0
LINE
  5
E469
  8
0
 10
436.1527335313284084
 20
56.0819763659127801
 30
0.0
 11
436.1464931054520093
 21
56.0375734282805666
 31
0.0
  0
LINE
  5
E46A
  8
0
 10
436.0460860615195884
 20
56.0307952635127933
 30
0.0
 11
436.138695716038626
 21
56.0307952636127879
 31
0.0
  0
ARC
  5
E46B
  8
0
 10
436.8452986599195924
 20
56.0386692794166308
 30
0.0
 40
0.0078740159038459
 50
188.0000005545664976
 51
269.9999986083187196
  0
ARC
  5
E46C
  8
0
 10
436.9379083173664071
 20
56.0386692794784267
 30
0.0
 40
0.0078740158656393
 50
269.9999786952984095
 51
351.9999989218628116
  0
LINE
  5
E46D
  8
0
 10
436.8312608474283252
 20
56.0819763659127801
 30
0.0
 11
436.8375012734163079
 21
56.0375734281987121
 31
0.0
  0
LINE
  5
E46E
  8
0
 10
436.9519461297284124
 20
56.0819763659127801
 30
0.0
 11
436.9457057038520134
 21
56.0375734282805666
 31
0.0
  0
LINE
  5
E46F
  8
0
 10
436.8452986599195924
 20
56.0307952635127933
 30
0.0
 11
436.9379083144385731
 21
56.0307952636127879
 31
0.0
  0
ARC
  5
E470
  8
0
 10
437.6445112583696186
 20
56.0386692794166308
 30
0.0
 40
0.0078740159038459
 50
188.0000005545664976
 51
269.9999986083187196
  0
ARC
  5
E471
  8
0
 10
437.7371209158163765
 20
56.0386692794784267
 30
0.0
 40
0.0078740158656393
 50
269.9999786952984095
 51
351.9999989218628116
  0
LINE
  5
E472
  8
0
 10
437.6304734458782946
 20
56.0819763659127801
 30
0.0
 11
437.6367138718662773
 21
56.0375734281987121
 31
0.0
  0
LINE
  5
E473
  8
0
 10
437.7511587281783818
 20
56.0819763659127801
 30
0.0
 11
437.7449183023019827
 21
56.0375734282805666
 31
0.0
  0
LINE
  5
E474
  8
0
 10
437.6445112583696186
 20
56.0307952635127933
 30
0.0
 11
437.7371209128884857
 21
56.0307952636127879
 31
0.0
  0
ARC
  5
E475
  8
0
 10
439.2429364552195921
 20
56.0386692794166308
 30
0.0
 40
0.0078740159038459
 50
188.0000005545664976
 51
269.9999986083187196
  0
ARC
  5
E476
  8
0
 10
439.3355461126664068
 20
56.0386692794784267
 30
0.0
 40
0.0078740158656393
 50
269.9999786952984095
 51
351.9999989218628116
  0
LINE
  5
E477
  8
0
 10
439.2288986427283248
 20
56.0819763659127801
 30
0.0
 11
439.2351390687163075
 21
56.0375734281987121
 31
0.0
  0
LINE
  5
E478
  8
0
 10
439.3495839250284121
 20
56.0819763659127801
 30
0.0
 11
439.343343499152013
 21
56.0375734282805666
 31
0.0
  0
LINE
  5
E479
  8
0
 10
439.2429364552195921
 20
56.0307952635127933
 30
0.0
 11
439.3355461097385728
 21
56.0307952636127879
 31
0.0
  0
ARC
  5
E47A
  8
0
 10
440.0421490536195961
 20
56.0386692794166308
 30
0.0
 40
0.0078740159038459
 50
188.0000005545664976
 51
269.9999986083187196
  0
ARC
  5
E47B
  8
0
 10
440.1347587110664108
 20
56.0386692794784267
 30
0.0
 40
0.0078740158656393
 50
269.9999786952984095
 51
351.9999989218628116
  0
LINE
  5
E47C
  8
0
 10
440.0281112411283857
 20
56.0819763659127801
 30
0.0
 11
440.0343516671163115
 21
56.0375734281987121
 31
0.0
  0
LINE
  5
E47D
  8
0
 10
440.1487965234283024
 20
56.0819763659127801
 30
0.0
 11
440.1425560975519033
 21
56.0375734282805666
 31
0.0
  0
LINE
  5
E47E
  8
0
 10
440.0421490536195961
 20
56.0307952635127933
 30
0.0
 11
440.1347587081385768
 21
56.0307952636127879
 31
0.0
  0
LINE
  5
E47F
  8
0
 10
436.1042019138283763
 20
56.5937873895127908
 30
0.0
 11
436.1042019138283763
 21
56.6134724289127789
 31
0.0
  0
LINE
  5
E480
  8
0
 10
436.1042019138283763
 20
56.6134724289127789
 30
0.0
 11
437.6790050634284057
 21
56.6134724289127789
 31
0.0
  0
LINE
  5
E481
  8
0
 10
437.6790050634284057
 20
56.6134724289127789
 30
0.0
 11
437.6790050634284057
 21
56.5937873896127925
 31
0.0
  0
ARC
  5
E482
  8
0
 10
436.8916034886282773
 20
61.3875078620127894
 30
0.0
 40
0.3937007873999985
 50
90.0
 51
180.0
  0
ARC
  5
E483
  8
0
 10
436.4388475830784273
 20
57.7355196730127602
 30
0.0
 40
0.0196850394000023
 50
180.0000000000100897
 51
249.9999994548923041
  0
ARC
  5
E484
  8
0
 10
436.5175877404820994
 20
57.6649638366823964
 30
0.0
 40
0.0196850394962499
 50
0.0000000883296522
 51
69.9999997944163539
  0
ARC
  5
E485
  8
0
 10
436.8938402690359908
 20
58.9742011648760069
 30
0.0
 40
1.2667956891919401
 50
262.9357882727613855
 51
269.8988328207909717
  0
ARC
  5
E486
  8
0
 10
436.745212794054396
 20
57.7939051581467282
 30
0.0
 40
0.0772165240647753
 50
244.161690402553802
 51
264.6757251487347276
  0
ARC
  5
E487
  8
0
 10
436.717374563130079
 20
57.73801215825452
 30
0.0
 40
0.0147948053861248
 50
189.6988907319098132
 51
246.8548452166913876
  0
ARC
  5
E488
  8
0
 10
436.5175877405783922
 20
57.5374172892127476
 30
0.0
 40
0.0196850393999891
 50
316.484725947190725
 51
0.0000000000103813
  0
ARC
  5
E489
  8
0
 10
436.8916034843545049
 20
57.1823000552047773
 30
0.0
 40
0.4960629867701899
 50
136.4847256995271039
 51
151.2913569660686903
  0
ARC
  5
E48A
  8
0
 10
433.6661939005737736
 20
57.6011905652137486
 30
0.0
 40
2.8717870676497839
 50
358.7275379892869864
 51
1.272461920869935
  0
ARC
  5
E48B
  8
0
 10
436.2374667187924047
 20
57.3536299093045585
 30
0.0
 40
0.0590551180082231
 50
89.9999993829988369
 51
175.5518357766088968
  0
ARC
  5
E48C
  8
0
 10
448.3033779695226144
 20
56.4150436029861808
 30
0.0
 40
12.1614168116983699
 50
175.5520169845044052
 51
179.065105545813708
  0
LINE
  5
E48D
  8
0
 10
436.4321149031026152
 20
57.7170217868039472
 30
0.0
 11
436.5243204205111169
 21
57.6834617230372402
 31
0.0
  0
LINE
  5
E48E
  8
0
 10
436.4979027011783046
 20
57.6930769865300803
 30
0.0
 11
436.4979027011783046
 21
57.4840916722931468
 31
0.0
  0
LINE
  5
E48F
  8
0
 10
436.4191625436783966
 20
57.7355196730127602
 30
0.0
 11
436.7027912238784211
 21
57.7355196730127318
 31
0.0
  0
LINE
  5
E490
  8
0
 10
436.7027912238784211
 20
57.7355196730127318
 30
0.0
 11
436.7027912238784211
 21
58.2079606179127396
 31
0.0
  0
LINE
  5
E491
  8
0
 10
436.4979027012283268
 20
61.3875078620199517
 30
0.0
 11
436.4979027011762014
 21
58.522921247812782
 31
0.0
  0
LINE
  5
E492
  8
0
 10
436.4191625436783966
 20
58.5229212478127465
 30
0.0
 11
436.4191625436782829
 21
57.7355196730127602
 31
0.0
  0
ARC
  5
E493
  8
0
 10
436.8916034886282773
 20
61.3875078620127894
 30
0.0
 40
0.3937007873999985
 50
0.0
 51
90.0
  0
ARC
  5
E494
  8
0
 10
437.344359394078424
 20
57.7355196730127602
 30
0.0
 40
0.0196850394000023
 50
290.0000005451076959
 51
359.999999999989484
  0
ARC
  5
E495
  8
0
 10
437.2656192366745813
 20
57.6649638366823964
 30
0.0
 40
0.0196850394962499
 50
110.0000002055836035
 51
179.9999999116703009
  0
ARC
  5
E496
  8
0
 10
436.88936670812069
 20
58.9742011648760069
 30
0.0
 40
1.2667956891919401
 50
270.1011671792090283
 51
277.0642117272353744
  0
ARC
  5
E497
  8
0
 10
437.0379941831023984
 20
57.7939051581467282
 30
0.0
 40
0.0772165240647753
 50
275.3242748512652724
 51
295.8383095974460844
  0
ARC
  5
E498
  8
0
 10
437.0658324140266018
 20
57.73801215825452
 30
0.0
 40
0.0147948053861248
 50
293.1451547833086124
 51
350.3011092680898173
  0
ARC
  5
E499
  8
0
 10
437.2656192365782886
 20
57.5374172892127476
 30
0.0
 40
0.0196850393999891
 50
179.9999999999895977
 51
223.5152740528091044
  0
ARC
  5
E49A
  8
0
 10
436.891603488578312
 20
57.1823000519126978
 30
0.0
 40
0.4960629921000873
 50
28.704988902600661
 51
43.5152742402997106
  0
ARC
  5
E49B
  8
0
 10
440.1170130765829072
 20
57.6011905652137486
 30
0.0
 40
2.8717870676497839
 50
178.7275380791301131
 51
181.2724620107128999
  0
ARC
  5
E49C
  8
0
 10
437.5457564214643185
 20
57.3536299093045585
 30
0.0
 40
0.0590551180082231
 50
4.448164223391033
 51
90.0000006170011488
  0
ARC
  5
E49D
  8
0
 10
425.4798451707341087
 20
56.4150436029861808
 30
0.0
 40
12.1614168116983699
 50
0.9348944541863261
 51
4.447983015495562
  0
LINE
  5
E49E
  8
0
 10
437.3510920740541792
 20
57.7170217868039472
 30
0.0
 11
437.2588865566456775
 21
57.6834617230372402
 31
0.0
  0
LINE
  5
E49F
  8
0
 10
437.2853042759783762
 20
57.6930769865300803
 30
0.0
 11
437.2853042759783762
 21
57.4840916722931468
 31
0.0
  0
LINE
  5
E4A0
  8
0
 10
437.3640444334783979
 20
57.7355196730127602
 30
0.0
 11
437.0804157532783734
 21
57.7355196730127318
 31
0.0
  0
LINE
  5
E4A1
  8
0
 10
437.0804157532783734
 20
57.7355196730127318
 30
0.0
 11
437.0804157532783165
 21
58.2079606179127396
 31
0.0
  0
LINE
  5
E4A2
  8
0
 10
437.2853042760283984
 20
61.387507862137781
 30
0.0
 11
437.2853042759762161
 21
58.522921247812782
 31
0.0
  0
LINE
  5
E4A3
  8
0
 10
437.3640444334783979
 20
58.5229212478127465
 30
0.0
 11
437.3640444334783979
 21
57.7355196730127602
 31
0.0
  0
LINE
  5
E4A4
  8
0
 10
436.2374667194284257
 20
57.4126850273127829
 30
0.0
 11
437.5457564214643185
 21
57.4126850273127829
 31
0.0
  0
LINE
  5
E4A5
  8
0
 10
436.4191625436783966
 20
58.5229212478127465
 30
0.0
 11
437.3640444334783979
 21
58.5229212478128176
 31
0.0
  0
LINE
  5
E4A6
  8
0
 10
436.7027912238784211
 20
58.2079606179127396
 30
0.0
 11
437.0804157532783165
 21
58.2079606179127396
 31
0.0
  0
LINE
  5
E4A7
  8
0
 10
436.5243204205754068
 20
57.6834617229768014
 30
0.0
 11
437.2588865566456775
 21
57.6834617230372402
 31
0.0
  0
LINE
  5
E4A8
  8
0
 10
436.5372727798783217
 20
57.5374172892127476
 30
0.0
 11
437.2459341971783147
 21
57.5374172892127476
 31
0.0
  0
LINE
  5
E4A9
  8
0
 10
436.3640444334283757
 20
57.4126850273127829
 30
0.0
 11
436.3640444334283757
 21
57.4205590431127817
 31
0.0
  0
LINE
  5
E4AA
  8
0
 10
436.3640444334283757
 20
57.4205590431127817
 30
0.0
 11
437.4191625437283051
 21
57.4205590431127817
 31
0.0
  0
LINE
  5
E4AB
  8
0
 10
437.4191625437283051
 20
57.4205590431127817
 30
0.0
 11
437.4191625437283051
 21
57.4126850273127829
 31
0.0
  0
LINE
  5
E4AC
  8
0
 10
436.4979037448284203
 20
58.6316023502127877
 30
0.0
 11
437.2853032324284186
 21
58.6316023502127877
 31
0.0
  0
LINE
  5
E4AD
  8
0
 10
436.5274302602283001
 20
58.6316023502127877
 30
0.0
 11
436.5274302602283001
 21
58.522921247812782
 31
0.0
  0
LINE
  5
E4AE
  8
0
 10
437.2557767169283807
 20
58.6316023502127877
 30
0.0
 11
437.2557767169283807
 21
58.522921247812782
 31
0.0
  0
ARC
  5
E4B0
  8
0
 10
439.0078619085563219
 20
49.0889916708527423
 30
0.0
 40
0.0450621011682913
 50
343.0337665919416281
 51
358.9438489737618738
  0
ARC
  5
E4B1
  8
0
 10
-613.7788647347737196
 20
367.6854758426596845
 30
0.0
 40
1099.9830654771560603
 50
343.1617873900037807
 51
343.1630219049936272
  0
ARC
  5
E4B2
  8
0
 10
439.4022503073347821
 20
49.3802639570168296
 30
0.0
 40
0.5423591623899794
 50
216.1829172824955094
 51
218.7190646913178114
  0
ARC
  5
E4B3
  8
0
 10
439.0021994820639861
 20
49.0831963219516965
 30
0.0
 40
0.0442318316900508
 50
178.519013802683105
 51
211.5169993053758901
  0
ARC
  5
E4B4
  8
0
 10
439.0065941991728096
 20
49.0571018924607927
 30
0.0
 40
0.0557224545037328
 50
33.7701085494445579
 51
150.7377011082598983
  0
ARC
  5
E4B5
  8
0
 10
439.0106026159253929
 20
49.062991009320811
 30
0.0
 40
0.0491891965799048
 50
14.7638570686914594
 51
30.6616476118411505
  0
ARC
  5
E4B6
  8
0
 10
439.001059340018287
 20
49.0899902431357305
 30
0.0
 40
0.058911672748912
 50
313.8243287734414935
 51
345.7873630174810273
  0
ARC
  5
E4B7
  8
0
 10
439.0084355510007867
 20
49.063997555556611
 30
0.0
 40
0.0372731722547318
 50
218.0640942799822142
 51
343.0927001006967885
  0
ARC
  5
E4B8
  8
0
 10
438.9980545487750874
 20
49.0630137598448997
 30
0.0
 40
0.0453934175768482
 50
151.9788061029761934
 51
171.3951871641151001
  0
ARC
  5
E4B9
  8
0
 10
438.9993285022565033
 20
49.0776581130825988
 30
0.0
 40
0.0468196423072168
 50
189.6553712854197897
 51
257.9182409232629993
  0
CIRCLE
  5
E4BA
  8
0
 10
439.0089038119966176
 20
49.0604236169941572
 30
0.0
 40
0.0139380654420153
  0
ARC
  5
E4BB
  8
0
 10
439.0086579586852054
 20
49.0628066430989591
 30
0.0
 40
0.0367297594269825
 50
344.7694806360614166
 51
216.3872358000922134
  0
ARC
  5
E4BC
  8
0
 10
438.7899194192385721
 20
49.0875843652504713
 30
0.0
 40
0.0450621011682913
 50
181.0605155196651026
 51
196.9705979014848936
  0
ARC
  5
E4BD
  8
0
 10
1491.5523739908981042
 20
367.7642634104354897
 30
0.0
 40
1099.9830654771560603
 50
196.8413425884338039
 51
196.8425771034229967
  0
ARC
  5
E4BE
  8
0
 10
438.3955088340018733
 20
49.3788266081198302
 30
0.0
 40
0.5423591623899794
 50
321.285299802110103
 51
323.8214472109323765
  0
ARC
  5
E4BF
  8
0
 10
438.795582287173886
 20
49.081789447700352
 30
0.0
 40
0.0442318316900508
 50
328.4873651880507737
 51
1.4853506907440459
  0
ARC
  5
E4C0
  8
0
 10
438.7911895578151871
 20
49.0556946835185315
 30
0.0
 40
0.0557224545037328
 50
29.2666633851661189
 51
146.2342559439815943
  0
ARC
  5
E4C1
  8
0
 10
438.7871806924720772
 20
49.0615834950212104
 30
0.0
 40
0.0491891965799048
 50
149.3427168815852042
 51
165.240507424735398
  0
ARC
  5
E4C2
  8
0
 10
438.7967219116907813
 20
49.0885834557147405
 30
0.0
 40
0.058911672748912
 50
194.2170014759460059
 51
226.1800357199861935
  0
ARC
  5
E4C3
  8
0
 10
438.7893476807170146
 20
49.062590206329773
 30
0.0
 40
0.0372731722547318
 50
196.911664392729989
 51
321.9402702134451033
  0
ARC
  5
E4C4
  8
0
 10
438.7997287578530177
 20
49.0616072013914888
 30
0.0
 40
0.0453934175768482
 50
8.6091773293118994
 51
28.0255583904510814
  0
ARC
  5
E4C5
  8
0
 10
438.7984536888449156
 20
49.0762514575435773
 30
0.0
 40
0.0468196423072168
 50
282.0861235701626129
 51
350.3489932080071867
  0
CIRCLE
  5
E4C6
  8
0
 10
438.7888796919663719
 20
49.0590162321080214
 30
0.0
 40
0.0139380654420153
  0
ARC
  5
E4C7
  8
0
 10
438.7891253637508271
 20
49.0613992769337273
 30
0.0
 40
0.0367297594269825
 50
323.6171286933351894
 51
195.2348838573659862
  0
CIRCLE
  5
E4C8
  8
0
 10
438.6788996739609843
 20
48.9669080087417683
 30
0.0
 40
0.0143903719476049
  0
ARC
  5
E4C9
  8
0
 10
438.6793228832416958
 20
48.9687077379046016
 30
0.0
 40
0.0365253359817761
 50
317.3652243259115266
 51
182.854399961469511
  0
ARC
  5
E4CA
  8
0
 10
438.6801233211530189
 20
48.970920106939559
 30
0.0
 40
0.0374977805300558
 50
186.1716040998564949
 51
314.048020187522809
  0
LINE
  5
E4CB
  8
0
 10
438.6405191880082839
 20
48.9915606820269716
 30
0.0
 11
438.642842864013403
 21
48.9668888465733829
 31
0.0
  0
LINE
  5
E4CC
  8
0
 10
438.6385844699145764
 20
48.9879026959133625
 30
0.0
 11
438.6414368459011257
 21
48.9818068102906423
 31
0.0
  0
ARC
  5
E4CD
  8
0
 10
438.6970672612976045
 20
48.993745525096223
 30
0.0
 40
0.0417315291872035
 50
314.9778338973744098
 51
344.9564024718861219
  0
ARC
  5
E4CE
  8
0
 10
438.6924528998238202
 20
48.9919385058683687
 30
0.0
 40
0.049899500385862
 50
285.9844719684294887
 51
341.6124291942061859
  0
ARC
  5
E4CF
  8
0
 10
438.6866532535199781
 20
48.9607173675624665
 30
0.0
 40
0.0553600354541173
 50
16.2385048400795995
 51
89.6983674731769156
  0
ARC
  5
E4D0
  8
0
 10
438.6834243705483232
 20
48.9665273909262382
 30
0.0
 40
0.0496741416848831
 50
85.9361372672135531
 51
154.5127328275889056
  0
LINE
  5
E4D1
  8
0
 10
438.7265649410132937
 20
48.9642250465733824
 30
0.0
 11
438.7061940660133246
 21
48.9439683016733724
 31
0.0
  0
ARC
  5
E4D2
  8
0
 10
438.789356631269186
 20
48.8999933770872772
 30
0.0
 40
0.0450621011682913
 50
181.0605155196651026
 51
196.9705979014848936
  0
ARC
  5
E4D3
  8
0
 10
1491.5518112029290023
 20
367.5766724222722814
 30
0.0
 40
1099.9830654771560603
 50
196.8413425884338039
 51
196.8425771034229967
  0
ARC
  5
E4D4
  8
0
 10
438.3949460460326009
 20
49.1912356199566503
 30
0.0
 40
0.5423591623899794
 50
321.285299802110103
 51
323.8214472109323765
  0
ARC
  5
E4D5
  8
0
 10
438.7950194992046136
 20
48.8941984595371721
 30
0.0
 40
0.0442318316900508
 50
328.4873651880507737
 51
1.4853506907440459
  0
ARC
  5
E4D6
  8
0
 10
438.7906267698459146
 20
48.8681036953553374
 30
0.0
 40
0.0557224545037328
 50
29.2666633851661189
 51
146.2342559439815943
  0
ARC
  5
E4D7
  8
0
 10
438.7866179045028048
 20
48.8739925068580234
 30
0.0
 40
0.0491891965799048
 50
149.3427168815852042
 51
165.240507424735398
  0
ARC
  5
E4D8
  8
0
 10
438.7961591237215089
 20
48.9009924675515535
 30
0.0
 40
0.058911672748912
 50
194.2170014759460059
 51
226.1800357199861935
  0
ARC
  5
E4D9
  8
0
 10
438.7887848927476284
 20
48.8749992181665789
 30
0.0
 40
0.0372731722547318
 50
196.911664392729989
 51
321.9402702134451033
  0
ARC
  5
E4DA
  8
0
 10
438.7991659698836884
 20
48.8740162132283018
 30
0.0
 40
0.0453934175768482
 50
8.6091773293118994
 51
28.0255583904510814
  0
ARC
  5
E4DB
  8
0
 10
438.7978909008755863
 20
48.8886604693803832
 30
0.0
 40
0.0468196423072168
 50
282.0861235701626129
 51
350.3489932080071867
  0
CIRCLE
  5
E4DC
  8
0
 10
438.7883169039970994
 20
48.8714252439448273
 30
0.0
 40
0.0139380654420153
  0
ARC
  5
E4DD
  8
0
 10
438.7885625757813841
 20
48.8738082887705332
 30
0.0
 40
0.0367297594269825
 50
323.6171286933351894
 51
195.2348838573659862
  0
CIRCLE
  5
E4DE
  8
0
 10
438.6783368859915981
 20
48.7793170205785671
 30
0.0
 40
0.0143903719476049
  0
ARC
  5
E4DF
  8
0
 10
438.6787600952724233
 20
48.7811167497414075
 30
0.0
 40
0.0365253359817761
 50
317.3652243259115266
 51
182.854399961469511
  0
ARC
  5
E4E0
  8
0
 10
438.6795605331836896
 20
48.7833291187763578
 30
0.0
 40
0.0374977805300558
 50
186.1716040998564949
 51
314.048020187522809
  0
LINE
  5
E4E1
  8
0
 10
438.6399564000388978
 20
48.8039696938637775
 30
0.0
 11
438.6422800760440168
 21
48.7792978584101817
 31
0.0
  0
LINE
  5
E4E2
  8
0
 10
438.638021681945304
 20
48.8003117077501685
 30
0.0
 11
438.6408740579316827
 21
48.7942158221274411
 31
0.0
  0
ARC
  5
E4E3
  8
0
 10
438.6965044733282753
 20
48.806154536933029
 30
0.0
 40
0.0417315291872035
 50
314.9778338973744098
 51
344.9564024718861219
  0
ARC
  5
E4E4
  8
0
 10
438.6918901118543772
 20
48.8043475177051818
 30
0.0
 40
0.049899500385862
 50
285.9844719684294887
 51
341.6124291942061859
  0
ARC
  5
E4E5
  8
0
 10
438.6860904655507056
 20
48.7731263793992724
 30
0.0
 40
0.0553600354541173
 50
16.2385048400795995
 51
89.6983674731769156
  0
ARC
  5
E4E6
  8
0
 10
438.6828615825788802
 20
48.7789364027630512
 30
0.0
 40
0.0496741416848831
 50
85.9361372672135531
 51
154.5127328275889056
  0
LINE
  5
E4E7
  8
0
 10
438.7260021530440213
 20
48.7766340584101883
 30
0.0
 11
438.7056312780439953
 21
48.7563773135101926
 31
0.0
  0
ARC
  5
E4E8
  8
0
 10
438.7913825723279047
 20
48.7130418043456288
 30
0.0
 40
0.0450621011682913
 50
181.0605155196651026
 51
196.9705979014848936
  0
ARC
  5
E4E9
  8
0
 10
1491.5538371439879484
 20
367.3897208495307041
 30
0.0
 40
1099.9830654771560603
 50
196.8413425884338039
 51
196.8425771034229967
  0
ARC
  5
E4EA
  8
0
 10
438.3969719870910922
 20
49.0042840472149877
 30
0.0
 40
0.5423591623899794
 50
321.285299802110103
 51
323.8214472109323765
  0
ARC
  5
E4EB
  8
0
 10
438.7970454402632186
 20
48.7072468867955095
 30
0.0
 40
0.0442318316900508
 50
328.4873651880507737
 51
1.4853506907440459
  0
ARC
  5
E4EC
  8
0
 10
438.7926527109045196
 20
48.6811521226136819
 30
0.0
 40
0.0557224545037328
 50
29.2666633851661189
 51
146.2342559439815943
  0
ARC
  5
E4ED
  8
0
 10
438.7886438455612961
 20
48.6870409341163608
 30
0.0
 40
0.0491891965799048
 50
149.3427168815852042
 51
165.240507424735398
  0
ARC
  5
E4EE
  8
0
 10
438.7981850647800002
 20
48.7140408948098909
 30
0.0
 40
0.058911672748912
 50
194.2170014759460059
 51
226.1800357199861935
  0
ARC
  5
E4EF
  8
0
 10
438.7908108338062902
 20
48.6880476454249305
 30
0.0
 40
0.0372731722547318
 50
196.911664392729989
 51
321.9402702134451033
  0
ARC
  5
E4F0
  8
0
 10
438.8011919109421797
 20
48.6870646404866534
 30
0.0
 40
0.0453934175768482
 50
8.6091773293118994
 51
28.0255583904510814
  0
ARC
  5
E4F1
  8
0
 10
438.7999168419341913
 20
48.7017088966387419
 30
0.0
 40
0.0468196423072168
 50
282.0861235701626129
 51
350.3489932080071867
  0
CIRCLE
  5
E4F2
  8
0
 10
438.7903428450557044
 20
48.6844736712031718
 30
0.0
 40
0.0139380654420153
  0
ARC
  5
E4F3
  8
0
 10
438.7905885168399891
 20
48.6868567160288919
 30
0.0
 40
0.0367297594269825
 50
323.6171286933351894
 51
195.2348838573659862
  0
CIRCLE
  5
E4F4
  8
0
 10
438.6803628270502031
 20
48.5923654478369187
 30
0.0
 40
0.0143903719476049
  0
ARC
  5
E4F5
  8
0
 10
438.6807860363310851
 20
48.5941651769997591
 30
0.0
 40
0.0365253359817761
 50
317.3652243259115266
 51
182.854399961469511
  0
ARC
  5
E4F6
  8
0
 10
438.6815864742421809
 20
48.5963775460347165
 30
0.0
 40
0.0374977805300558
 50
186.1716040998564949
 51
314.048020187522809
  0
LINE
  5
E4F7
  8
0
 10
438.6419823410975027
 20
48.6170181211221291
 30
0.0
 11
438.6443060171026787
 21
48.5923462856685404
 31
0.0
  0
LINE
  5
E4F8
  8
0
 10
438.6400476230039089
 20
48.61336013500852
 30
0.0
 11
438.6428999989902877
 21
48.6072642493857927
 31
0.0
  0
ARC
  5
E4F9
  8
0
 10
438.6985304143868802
 20
48.6192029641913805
 30
0.0
 40
0.0417315291872035
 50
314.9778338973744098
 51
344.9564024718861219
  0
ARC
  5
E4FA
  8
0
 10
438.6939160529130959
 20
48.6173959449635333
 30
0.0
 40
0.049899500385862
 50
285.9844719684294887
 51
341.6124291942061859
  0
ARC
  5
E4FB
  8
0
 10
438.6881164066091969
 20
48.5861748066576169
 30
0.0
 40
0.0553600354541173
 50
16.2385048400795995
 51
89.6983674731769156
  0
ARC
  5
E4FC
  8
0
 10
438.6848875236375989
 20
48.5919848300214028
 30
0.0
 40
0.0496741416848831
 50
85.9361372672135531
 51
154.5127328275889056
  0
LINE
  5
E4FD
  8
0
 10
438.7280280941026263
 20
48.5896824856685399
 30
0.0
 11
438.7076572191026003
 21
48.5694257407685299
 31
0.0
  0
ARC
  5
E4FE
  8
0
 10
438.7902223301804838
 20
48.5258939836487571
 30
0.0
 40
0.0450621011682913
 50
181.0605155196651026
 51
196.9705979014848936
  0
ARC
  5
E4FF
  8
0
 10
1491.5526769018399591
 20
367.2025730288336831
 30
0.0
 40
1099.9830654771560603
 50
196.8413425884338039
 51
196.8425771034229967
  0
ARC
  5
E500
  8
0
 10
438.3958117449437282
 20
48.817136226518123
 30
0.0
 40
0.5423591623899794
 50
321.285299802110103
 51
323.8214472109323765
  0
ARC
  5
E501
  8
0
 10
438.795885198115684
 20
48.5200990660986378
 30
0.0
 40
0.0442318316900508
 50
328.4873651880507737
 51
1.4853506907440459
  0
ARC
  5
E502
  8
0
 10
438.7914924687570988
 20
48.4940043019168101
 30
0.0
 40
0.0557224545037328
 50
29.2666633851661189
 51
146.2342559439815943
  0
ARC
  5
E503
  8
0
 10
438.7874836034138752
 20
48.4998931134194891
 30
0.0
 40
0.0491891965799048
 50
149.3427168815852042
 51
165.240507424735398
  0
ARC
  5
E504
  8
0
 10
438.7970248226325793
 20
48.5268930741130191
 30
0.0
 40
0.058911672748912
 50
194.2170014759460059
 51
226.1800357199861935
  0
ARC
  5
E505
  8
0
 10
438.7896505916589263
 20
48.5008998247280516
 30
0.0
 40
0.0372731722547318
 50
196.911664392729989
 51
321.9402702134451033
  0
ARC
  5
E506
  8
0
 10
438.8000316687948157
 20
48.4999168197897674
 30
0.0
 40
0.0453934175768482
 50
8.6091773293118994
 51
28.0255583904510814
  0
ARC
  5
E507
  8
0
 10
438.7987565997867137
 20
48.5145610759418489
 30
0.0
 40
0.0468196423072168
 50
282.0861235701626129
 51
350.3489932080071867
  0
CIRCLE
  5
E508
  8
0
 10
438.7891826029082836
 20
48.4973258505063001
 30
0.0
 40
0.0139380654420153
  0
ARC
  5
E509
  8
0
 10
438.7894282746926251
 20
48.4997088953319988
 30
0.0
 40
0.0367297594269825
 50
323.6171286933351894
 51
195.2348838573659862
  0
CIRCLE
  5
E50A
  8
0
 10
438.6792025849027823
 20
48.4052176271400398
 30
0.0
 40
0.0143903719476049
  0
ARC
  5
E50B
  8
0
 10
438.6796257941837212
 20
48.4070173563028874
 30
0.0
 40
0.0365253359817761
 50
317.3652243259115266
 51
182.854399961469511
  0
ARC
  5
E50C
  8
0
 10
438.6804262320948169
 20
48.4092297253378376
 30
0.0
 40
0.0374977805300558
 50
186.1716040998564949
 51
314.048020187522809
  0
LINE
  5
E50D
  8
0
 10
438.6408220989500819
 20
48.4298703004252502
 30
0.0
 11
438.643145774955201
 21
48.4051984649716616
 31
0.0
  0
LINE
  5
E50E
  8
0
 10
438.6388873808564881
 20
48.4262123143116412
 30
0.0
 11
438.6417397568429237
 21
48.4201164286889068
 31
0.0
  0
ARC
  5
E50F
  8
0
 10
438.6973701722395163
 20
48.4320551434945017
 30
0.0
 40
0.0417315291872035
 50
314.9778338973744098
 51
344.9564024718861219
  0
ARC
  5
E510
  8
0
 10
438.6927558107656182
 20
48.4302481242666616
 30
0.0
 40
0.049899500385862
 50
285.9844719684294887
 51
341.6124291942061859
  0
ARC
  5
E511
  8
0
 10
438.6869561644617761
 20
48.399026985960738
 30
0.0
 40
0.0553600354541173
 50
16.2385048400795995
 51
89.6983674731769156
  0
ARC
  5
E512
  8
0
 10
438.683727281490178
 20
48.4048370093245168
 30
0.0
 40
0.0496741416848831
 50
85.9361372672135531
 51
154.5127328275889056
  0
LINE
  5
E513
  8
0
 10
438.7268678519553191
 20
48.402534664971661
 30
0.0
 11
438.7064969769551794
 21
48.3822779200716582
 31
0.0
  0
ARC
  5
E514
  8
0
 10
438.7902223301804838
 20
48.3353138505977
 30
0.0
 40
0.0450621011682913
 50
181.0605155196651026
 51
196.9705979014848936
  0
ARC
  5
E515
  8
0
 10
1491.5526769018399591
 20
367.0119928957827256
 30
0.0
 40
1099.9830654771560603
 50
196.8413425884338039
 51
196.8425771034229967
  0
ARC
  5
E516
  8
0
 10
438.3958117449437282
 20
48.6265560934670589
 30
0.0
 40
0.5423591623899794
 50
321.285299802110103
 51
323.8214472109323765
  0
ARC
  5
E517
  8
0
 10
438.795885198115684
 20
48.3295189330475807
 30
0.0
 40
0.0442318316900508
 50
328.4873651880507737
 51
1.4853506907440459
  0
ARC
  5
E518
  8
0
 10
438.7914924687570988
 20
48.3034241688657531
 30
0.0
 40
0.0557224545037328
 50
29.2666633851661189
 51
146.2342559439815943
  0
ARC
  5
E519
  8
0
 10
438.7874836034138752
 20
48.309312980368432
 30
0.0
 40
0.0491891965799048
 50
149.3427168815852042
 51
165.240507424735398
  0
ARC
  5
E51A
  8
0
 10
438.7970248226325793
 20
48.3363129410619621
 30
0.0
 40
0.058911672748912
 50
194.2170014759460059
 51
226.1800357199861935
  0
ARC
  5
E51B
  8
0
 10
438.7896505916589263
 20
48.3103196916770017
 30
0.0
 40
0.0372731722547318
 50
196.911664392729989
 51
321.9402702134451033
  0
ARC
  5
E51C
  8
0
 10
438.8000316687948157
 20
48.3093366867387104
 30
0.0
 40
0.0453934175768482
 50
8.6091773293118994
 51
28.0255583904510814
  0
ARC
  5
E51D
  8
0
 10
438.7987565997867137
 20
48.3239809428907989
 30
0.0
 40
0.0468196423072168
 50
282.0861235701626129
 51
350.3489932080071867
  0
CIRCLE
  5
E51E
  8
0
 10
438.7891826029082836
 20
48.306745717455243
 30
0.0
 40
0.0139380654420153
  0
ARC
  5
E51F
  8
0
 10
438.7894282746926251
 20
48.3091287622809489
 30
0.0
 40
0.0367297594269825
 50
323.6171286933351894
 51
195.2348838573659862
  0
CIRCLE
  5
E520
  8
0
 10
438.6792025849027823
 20
48.2146374940889828
 30
0.0
 40
0.0143903719476049
  0
ARC
  5
E521
  8
0
 10
438.6796257941837212
 20
48.2164372232518303
 30
0.0
 40
0.0365253359817761
 50
317.3652243259115266
 51
182.854399961469511
  0
ARC
  5
E522
  8
0
 10
438.6804262320948169
 20
48.2186495922867806
 30
0.0
 40
0.0374977805300558
 50
186.1716040998564949
 51
314.048020187522809
  0
LINE
  5
E523
  8
0
 10
438.6408220989500819
 20
48.2392901673742003
 30
0.0
 11
438.643145774955201
 21
48.2146183319205974
 31
0.0
  0
LINE
  5
E524
  8
0
 10
438.6388873808564881
 20
48.2356321812605771
 30
0.0
 11
438.6417397568429237
 21
48.2295362956378568
 31
0.0
  0
ARC
  5
E525
  8
0
 10
438.6973701722395163
 20
48.2414750104434376
 30
0.0
 40
0.0417315291872035
 50
314.9778338973744098
 51
344.9564024718861219
  0
ARC
  5
E526
  8
0
 10
438.6927558107656182
 20
48.2396679912155975
 30
0.0
 40
0.049899500385862
 50
285.9844719684294887
 51
341.6124291942061859
  0
ARC
  5
E527
  8
0
 10
438.6869561644617761
 20
48.208446852909681
 30
0.0
 40
0.0553600354541173
 50
16.2385048400795995
 51
89.6983674731769156
  0
ARC
  5
E528
  8
0
 10
438.683727281490178
 20
48.2142568762734598
 30
0.0
 40
0.0496741416848831
 50
85.9361372672135531
 51
154.5127328275889056
  0
LINE
  5
E529
  8
0
 10
438.7268678519553191
 20
48.2119545319206111
 30
0.0
 11
438.7064969769551794
 21
48.1916977870206011
 31
0.0
  0
ARC
  5
E52A
  8
0
 10
438.792081352605976
 20
48.1486209263214988
 30
0.0
 40
0.0450621011682913
 50
181.0605155196651026
 51
196.9705979014848936
  0
ARC
  5
E52B
  8
0
 10
1491.5545359242660197
 20
366.8252999715065243
 30
0.0
 40
1099.9830654771560603
 50
196.8413425884338039
 51
196.8425771034229967
  0
ARC
  5
E52C
  8
0
 10
438.3976707673692772
 20
48.4398631691908506
 30
0.0
 40
0.5423591623899794
 50
321.285299802110103
 51
323.8214472109323765
  0
ARC
  5
E52D
  8
0
 10
438.7977442205412899
 20
48.1428260087713724
 30
0.0
 40
0.0442318316900508
 50
328.4873651880507737
 51
1.4853506907440459
  0
ARC
  5
E52E
  8
0
 10
438.7933514911828183
 20
48.1167312445895519
 30
0.0
 40
0.0557224545037328
 50
29.2666633851661189
 51
146.2342559439815943
  0
ARC
  5
E52F
  8
0
 10
438.7893426258394811
 20
48.1226200560922166
 30
0.0
 40
0.0491891965799048
 50
149.3427168815852042
 51
165.240507424735398
  0
ARC
  5
E530
  8
0
 10
438.7988838450581852
 20
48.1496200167857467
 30
0.0
 40
0.058911672748912
 50
194.2170014759460059
 51
226.1800357199861935
  0
ARC
  5
E531
  8
0
 10
438.7915096140844184
 20
48.1236267674007934
 30
0.0
 40
0.0372731722547318
 50
196.911664392729989
 51
321.9402702134451033
  0
ARC
  5
E532
  8
0
 10
438.8018906912204216
 20
48.1226437624625092
 30
0.0
 40
0.0453934175768482
 50
8.6091773293118994
 51
28.0255583904510814
  0
ARC
  5
E533
  8
0
 10
438.8006156222123195
 20
48.1372880186145977
 30
0.0
 40
0.0468196423072168
 50
282.0861235701626129
 51
350.3489932080071867
  0
CIRCLE
  5
E534
  8
0
 10
438.7910416253338894
 20
48.1200527931790418
 30
0.0
 40
0.0139380654420153
  0
ARC
  5
E535
  8
0
 10
438.7912872971181173
 20
48.1224358380047477
 30
0.0
 40
0.0367297594269825
 50
323.6171286933351894
 51
195.2348838573659862
  0
CIRCLE
  5
E536
  8
0
 10
438.6810616073282745
 20
48.0279445698127887
 30
0.0
 40
0.0143903719476049
  0
ARC
  5
E537
  8
0
 10
438.6814848166092133
 20
48.029744298975622
 30
0.0
 40
0.0365253359817761
 50
317.3652243259115266
 51
182.854399961469511
  0
ARC
  5
E538
  8
0
 10
438.6822852545204228
 20
48.0319566680105794
 30
0.0
 40
0.0374977805300558
 50
186.1716040998564949
 51
314.048020187522809
  0
LINE
  5
E539
  8
0
 10
438.6426811213755741
 20
48.052597243097992
 30
0.0
 11
438.6450047973806932
 21
48.0279254076444033
 31
0.0
  0
LINE
  5
E53A
  8
0
 10
438.640746403282094
 20
48.0489392569843687
 30
0.0
 11
438.6435987792684159
 21
48.0428433713616627
 31
0.0
  0
ARC
  5
E53B
  8
0
 10
438.6992291946651221
 20
48.0547820861672292
 30
0.0
 40
0.0417315291872035
 50
314.9778338973744098
 51
344.9564024718861219
  0
ARC
  5
E53C
  8
0
 10
438.6946148331912241
 20
48.0529750669393891
 30
0.0
 40
0.049899500385862
 50
285.9844719684294887
 51
341.6124291942061859
  0
ARC
  5
E53D
  8
0
 10
438.688815186887382
 20
48.0217539286334869
 30
0.0
 40
0.0553600354541173
 50
16.2385048400795995
 51
89.6983674731769156
  0
ARC
  5
E53E
  8
0
 10
438.6855863039157839
 20
48.0275639519972586
 30
0.0
 40
0.0496741416848831
 50
85.9361372672135531
 51
154.5127328275889056
  0
LINE
  5
E53F
  8
0
 10
438.7287268743808113
 20
48.0252616076444028
 30
0.0
 11
438.7083559993807853
 21
48.0050048627443928
 31
0.0
  0
ARC
  5
E540
  8
0
 10
438.7900607139242197
 20
47.9610340664202681
 30
0.0
 40
0.0450621011682913
 50
181.0605155196651026
 51
196.9705979014848936
  0
ARC
  5
E541
  8
0
 10
1491.5525152855839224
 20
366.6377131116053079
 30
0.0
 40
1099.9830654771560603
 50
196.8413425884338039
 51
196.8425771034229967
  0
ARC
  5
E542
  8
0
 10
438.3956501286875209
 20
48.252276309289627
 30
0.0
 40
0.5423591623899794
 50
321.285299802110103
 51
323.8214472109323765
  0
ARC
  5
E543
  8
0
 10
438.7957235818594768
 20
47.9552391488701488
 30
0.0
 40
0.0442318316900508
 50
328.4873651880507737
 51
1.4853506907440459
  0
ARC
  5
E544
  8
0
 10
438.7913308525008915
 20
47.9291443846883212
 30
0.0
 40
0.0557224545037328
 50
29.2666633851661189
 51
146.2342559439815943
  0
ARC
  5
E545
  8
0
 10
438.7873219871577248
 20
47.9350331961910001
 30
0.0
 40
0.0491891965799048
 50
149.3427168815852042
 51
165.240507424735398
  0
ARC
  5
E546
  8
0
 10
438.7968632063763721
 20
47.9620331568845302
 30
0.0
 40
0.058911672748912
 50
194.2170014759460059
 51
226.1800357199861935
  0
ARC
  5
E547
  8
0
 10
438.7894889754026053
 20
47.9360399074995627
 30
0.0
 40
0.0372731722547318
 50
196.911664392729989
 51
321.9402702134451033
  0
ARC
  5
E548
  8
0
 10
438.7998700525384947
 20
47.9350569025612785
 30
0.0
 40
0.0453934175768482
 50
8.6091773293118994
 51
28.0255583904510814
  0
ARC
  5
E549
  8
0
 10
438.7985949835305064
 20
47.9497011587133599
 30
0.0
 40
0.0468196423072168
 50
282.0861235701626129
 51
350.3489932080071867
  0
CIRCLE
  5
E54A
  8
0
 10
438.7890209866520763
 20
47.9324659332778111
 30
0.0
 40
0.0139380654420153
  0
ARC
  5
E54B
  8
0
 10
438.7892666584363042
 20
47.9348489781035099
 30
0.0
 40
0.0367297594269825
 50
323.6171286933351894
 51
195.2348838573659862
  0
CIRCLE
  5
E54C
  8
0
 10
438.6790409686465182
 20
47.8403577099115509
 30
0.0
 40
0.0143903719476049
  0
ARC
  5
E54D
  8
0
 10
438.6794641779274002
 20
47.8421574390743984
 30
0.0
 40
0.0365253359817761
 50
317.3652243259115266
 51
182.854399961469511
  0
ARC
  5
E54E
  8
0
 10
438.680264615838496
 20
47.8443698081093487
 30
0.0
 40
0.0374977805300558
 50
186.1716040998564949
 51
314.048020187522809
  0
LINE
  5
E54F
  8
0
 10
438.6406604826938178
 20
47.8650103831967613
 30
0.0
 11
438.6429841586989937
 21
47.8403385477431726
 31
0.0
  0
LINE
  5
E550
  8
0
 10
438.6387257646002809
 20
47.8613523970831523
 30
0.0
 11
438.6415781405866028
 21
47.8552565114604178
 31
0.0
  0
ARC
  5
E551
  8
0
 10
438.6972085559831953
 20
47.8671952262660128
 30
0.0
 40
0.0417315291872035
 50
314.9778338973744098
 51
344.9564024718861219
  0
ARC
  5
E552
  8
0
 10
438.692594194509411
 20
47.8653882070381727
 30
0.0
 40
0.049899500385862
 50
285.9844719684294887
 51
341.6124291942061859
  0
ARC
  5
E553
  8
0
 10
438.6867945482056257
 20
47.8341670687322491
 30
0.0
 40
0.0553600354541173
 50
16.2385048400795995
 51
89.6983674731769156
  0
ARC
  5
E554
  8
0
 10
438.6835656652339139
 20
47.8399770920960279
 30
0.0
 40
0.0496741416848831
 50
85.9361372672135531
 51
154.5127328275889056
  0
LINE
  5
E555
  8
0
 10
438.7267062356989982
 20
47.8376747477431721
 30
0.0
 11
438.7063353606989153
 21
47.8174180028431692
 31
0.0
  0
ARC
  5
E556
  8
0
 10
438.7888959947060243
 20
47.7736851241214993
 30
0.0
 40
0.0450621011682913
 50
181.0605155196651026
 51
196.9705979014848936
  0
ARC
  5
E557
  8
0
 10
1491.5513505663659544
 20
366.4503641693066243
 30
0.0
 40
1099.9830654771560603
 50
196.8413425884338039
 51
196.8425771034229967
  0
ARC
  5
E558
  8
0
 10
438.3944854094693255
 20
48.0649273669908581
 30
0.0
 40
0.5423591623899794
 50
321.285299802110103
 51
323.8214472109323765
  0
ARC
  5
E559
  8
0
 10
438.7945588626412814
 20
47.7678902065713729
 30
0.0
 40
0.0442318316900508
 50
328.4873651880507737
 51
1.4853506907440459
  0
ARC
  5
E55A
  8
0
 10
438.7901661332826961
 20
47.7417954423895381
 30
0.0
 40
0.0557224545037328
 50
29.2666633851661189
 51
146.2342559439815943
  0
ARC
  5
E55B
  8
0
 10
438.7861572679394726
 20
47.747684253892217
 30
0.0
 40
0.0491891965799048
 50
149.3427168815852042
 51
165.240507424735398
  0
ARC
  5
E55C
  8
0
 10
438.7956984871581767
 20
47.7746842145857471
 30
0.0
 40
0.058911672748912
 50
194.2170014759460059
 51
226.1800357199861935
  0
ARC
  5
E55D
  8
0
 10
438.7883242561842962
 20
47.7486909652007867
 30
0.0
 40
0.0372731722547318
 50
196.911664392729989
 51
321.9402702134451033
  0
ARC
  5
E55E
  8
0
 10
438.798705333320413
 20
47.7477079602625167
 30
0.0
 40
0.0453934175768482
 50
8.6091773293118994
 51
28.0255583904510814
  0
ARC
  5
E55F
  8
0
 10
438.797430264312311
 20
47.7623522164145911
 30
0.0
 40
0.0468196423072168
 50
282.0861235701626129
 51
350.3489932080071867
  0
CIRCLE
  5
E560
  8
0
 10
438.7878562674338809
 20
47.7451169909790423
 30
0.0
 40
0.0139380654420153
  0
ARC
  5
E561
  8
0
 10
438.7881019392181088
 20
47.747500035804741
 30
0.0
 40
0.0367297594269825
 50
323.6171286933351894
 51
195.2348838573659862
  0
CIRCLE
  5
E562
  8
0
 10
438.6778762494283797
 20
47.6530087676127891
 30
0.0
 40
0.0143903719476049
  0
ARC
  5
E563
  8
0
 10
438.6782994587090911
 20
47.6548084967756225
 30
0.0
 40
0.0365253359817761
 50
317.3652243259115266
 51
182.854399961469511
  0
ARC
  5
E564
  8
0
 10
438.6790998966204143
 20
47.6570208658105727
 30
0.0
 40
0.0374977805300558
 50
186.1716040998564949
 51
314.048020187522809
  0
LINE
  5
E565
  8
0
 10
438.6394957634756224
 20
47.6776614408979924
 30
0.0
 11
438.6418194394806847
 21
47.6529896054443967
 31
0.0
  0
LINE
  5
E566
  8
0
 10
438.6375610453819718
 20
47.6740034547843834
 30
0.0
 11
438.6404134213684074
 21
47.667907569161649
 31
0.0
  0
ARC
  5
E567
  8
0
 10
438.6960438367649999
 20
47.6798462839672368
 30
0.0
 40
0.0417315291872035
 50
314.9778338973744098
 51
344.9564024718861219
  0
ARC
  5
E568
  8
0
 10
438.6914294752911019
 20
47.6780392647393896
 30
0.0
 40
0.049899500385862
 50
285.9844719684294887
 51
341.6124291942061859
  0
ARC
  5
E569
  8
0
 10
438.6856298289873735
 20
47.6468181264334802
 30
0.0
 40
0.0553600354541173
 50
16.2385048400795995
 51
89.6983674731769156
  0
ARC
  5
E56A
  8
0
 10
438.6824009460157185
 20
47.6526281497972732
 30
0.0
 40
0.0496741416848831
 50
85.9361372672135531
 51
154.5127328275889056
  0
LINE
  5
E56B
  8
0
 10
438.7255415164806891
 20
47.650325805444389
 30
0.0
 11
438.7051706414807768
 21
47.6300690605443933
 31
0.0
  0
ARC
  5
E56C
  8
0
 10
438.7914220200826776
 20
47.5848610736881383
 30
0.0
 40
0.0450621011682913
 50
181.0605155196651026
 51
196.9705979014848936
  0
ARC
  5
E56D
  8
0
 10
1491.5538765917428918
 20
366.2615401188731994
 30
0.0
 40
1099.9830654771560603
 50
196.8413425884338039
 51
196.8425771034229967
  0
ARC
  5
E56E
  8
0
 10
438.3970114348459788
 20
47.8761033165574972
 30
0.0
 40
0.5423591623899794
 50
321.285299802110103
 51
323.8214472109323765
  0
ARC
  5
E56F
  8
0
 10
438.7970848880179915
 20
47.579066156138019
 30
0.0
 40
0.0442318316900508
 50
328.4873651880507737
 51
1.4853506907440459
  0
ARC
  5
E570
  8
0
 10
438.7926921586592925
 20
47.5529713919561985
 30
0.0
 40
0.0557224545037328
 50
29.2666633851661189
 51
146.2342559439815943
  0
ARC
  5
E571
  8
0
 10
438.7886832933161827
 20
47.5588602034588703
 30
0.0
 40
0.0491891965799048
 50
149.3427168815852042
 51
165.240507424735398
  0
ARC
  5
E572
  8
0
 10
438.7982245125348868
 20
47.5858601641524004
 30
0.0
 40
0.058911672748912
 50
194.2170014759460059
 51
226.1800357199861935
  0
ARC
  5
E573
  8
0
 10
438.79085028156112
 20
47.55986691476744
 30
0.0
 40
0.0372731722547318
 50
196.911664392729989
 51
321.9402702134451033
  0
ARC
  5
E574
  8
0
 10
438.8012313586971231
 20
47.5588839098291629
 30
0.0
 40
0.0453934175768482
 50
8.6091773293118994
 51
28.0255583904510814
  0
ARC
  5
E575
  8
0
 10
438.7999562896890211
 20
47.5735281659812372
 30
0.0
 40
0.0468196423072168
 50
282.0861235701626129
 51
350.3489932080071867
  0
CIRCLE
  5
E576
  8
0
 10
438.7903822928104773
 20
47.5562929405456885
 30
0.0
 40
0.0139380654420153
  0
ARC
  5
E577
  8
0
 10
438.7906279645948757
 20
47.5586759853713872
 30
0.0
 40
0.0367297594269825
 50
323.6171286933351894
 51
195.2348838573659862
  0
CIRCLE
  5
E578
  8
0
 10
438.6804022748050897
 20
47.4641847171794424
 30
0.0
 40
0.0143903719476049
  0
ARC
  5
E579
  8
0
 10
438.6808254840858012
 20
47.4659844463422687
 30
0.0
 40
0.0365253359817761
 50
317.3652243259115266
 51
182.854399961469511
  0
ARC
  5
E57A
  8
0
 10
438.6816259219971244
 20
47.4681968153772189
 30
0.0
 40
0.0374977805300558
 50
186.1716040998564949
 51
314.048020187522809
  0
LINE
  5
E57B
  8
0
 10
438.6420217888523894
 20
47.4888373904646386
 30
0.0
 11
438.6443454648575084
 21
47.4641655550110499
 31
0.0
  0
LINE
  5
E57C
  8
0
 10
438.6400870707586819
 20
47.4851794043510225
 30
0.0
 11
438.6429394467451743
 21
47.4790835187283022
 31
0.0
  0
ARC
  5
E57D
  8
0
 10
438.69856986214171
 20
47.491022233533883
 30
0.0
 40
0.0417315291872035
 50
314.9778338973744098
 51
344.9564024718861219
  0
ARC
  5
E57E
  8
0
 10
438.6939555006679257
 20
47.4892152143060429
 30
0.0
 40
0.049899500385862
 50
285.9844719684294887
 51
341.6124291942061859
  0
ARC
  5
E57F
  8
0
 10
438.6881558543640836
 20
47.4579940760001335
 30
0.0
 40
0.0553600354541173
 50
16.2385048400795995
 51
89.6983674731769156
  0
ARC
  5
E580
  8
0
 10
438.6849269713923718
 20
47.4638040993639123
 30
0.0
 40
0.0496741416848831
 50
85.9361372672135531
 51
154.5127328275889056
  0
LINE
  5
E581
  8
0
 10
438.7280675418573992
 20
47.4615017550110494
 30
0.0
 11
438.7076966668573732
 21
47.4412450101110394
 31
0.0
  0
ARC
  5
E582
  8
0
 10
438.7893700195983229
 20
47.3966541578598992
 30
0.0
 40
0.0450621011682913
 50
181.0605155196651026
 51
196.9705979014848936
  0
ARC
  5
E583
  8
0
 10
1491.5518245912580824
 20
366.0733332030450242
 30
0.0
 40
1099.9830654771560603
 50
196.8413425884338039
 51
196.8425771034229967
  0
ARC
  5
E584
  8
0
 10
438.3949594343615104
 20
47.6878964007292581
 30
0.0
 40
0.5423591623899794
 50
321.285299802110103
 51
323.8214472109323765
  0
ARC
  5
E585
  8
0
 10
438.7950328875335231
 20
47.3908592403097799
 30
0.0
 40
0.0442318316900508
 50
328.4873651880507737
 51
1.4853506907440459
  0
ARC
  5
E586
  8
0
 10
438.790640158174881
 20
47.3647644761279523
 30
0.0
 40
0.0557224545037328
 50
29.2666633851661189
 51
146.2342559439815943
  0
ARC
  5
E587
  8
0
 10
438.7866312928317143
 20
47.3706532876306312
 30
0.0
 40
0.0491891965799048
 50
149.3427168815852042
 51
165.240507424735398
  0
ARC
  5
E588
  8
0
 10
438.7961725120504184
 20
47.3976532483241613
 30
0.0
 40
0.058911672748912
 50
194.2170014759460059
 51
226.1800357199861935
  0
ARC
  5
E589
  8
0
 10
438.7887982810765948
 20
47.3716599989391867
 30
0.0
 40
0.0372731722547318
 50
196.911664392729989
 51
321.9402702134451033
  0
ARC
  5
E58A
  8
0
 10
438.7991793582125979
 20
47.3706769940009167
 30
0.0
 40
0.0453934175768482
 50
8.6091773293118994
 51
28.0255583904510814
  0
ARC
  5
E58B
  8
0
 10
438.7979042892044959
 20
47.385321250152991
 30
0.0
 40
0.0468196423072168
 50
282.0861235701626129
 51
350.3489932080071867
  0
CIRCLE
  5
E58C
  8
0
 10
438.7883302923261226
 20
47.3680860247174422
 30
0.0
 40
0.0139380654420153
  0
ARC
  5
E58D
  8
0
 10
438.7885759641104073
 20
47.370469069543141
 30
0.0
 40
0.0367297594269825
 50
323.6171286933351894
 51
195.2348838573659862
  0
CIRCLE
  5
E58E
  8
0
 10
438.6783502743206213
 20
47.2759778013511891
 30
0.0
 40
0.0143903719476049
  0
ARC
  5
E58F
  8
0
 10
438.6787734836013897
 20
47.2777775305140295
 30
0.0
 40
0.0365253359817761
 50
317.3652243259115266
 51
182.854399961469511
  0
ARC
  5
E590
  8
0
 10
438.6795739215125991
 20
47.2799898995489727
 30
0.0
 40
0.0374977805300558
 50
186.1716040998564949
 51
314.048020187522809
  0
LINE
  5
E591
  8
0
 10
438.639969788367921
 20
47.3006304746363924
 30
0.0
 11
438.6422934643729832
 21
47.2759586391827966
 31
0.0
  0
LINE
  5
E592
  8
0
 10
438.6380350702743272
 20
47.2969724885227834
 30
0.0
 11
438.6408874462607059
 21
47.2908766029000489
 31
0.0
  0
ARC
  5
E593
  8
0
 10
438.6965178616572985
 20
47.3028153177056367
 30
0.0
 40
0.0417315291872035
 50
314.9778338973744098
 51
344.9564024718861219
  0
ARC
  5
E594
  8
0
 10
438.6919035001834004
 20
47.3010082984777966
 30
0.0
 40
0.049899500385862
 50
285.9844719684294887
 51
341.6124291942061859
  0
ARC
  5
E595
  8
0
 10
438.6861038538796151
 20
47.2697871601718802
 30
0.0
 40
0.0553600354541173
 50
16.2385048400795995
 51
89.6983674731769156
  0
ARC
  5
E596
  8
0
 10
438.6828749709080171
 20
47.2755971835356732
 30
0.0
 40
0.0496741416848831
 50
85.9361372672135531
 51
154.5127328275889056
  0
LINE
  5
E597
  8
0
 10
438.7260155413729876
 20
47.2732948391828032
 30
0.0
 11
438.7056446663730185
 21
47.2530380942828003
 31
0.0
  0
ARC
  5
E598
  8
0
 10
438.790050911754804
 20
47.2111464263927019
 30
0.0
 40
0.0450621011682913
 50
181.0605155196651026
 51
196.9705979014848936
  0
ARC
  5
E599
  8
0
 10
1491.5525054834149614
 20
365.8878254715776848
 30
0.0
 40
1099.9830654771560603
 50
196.8413425884338039
 51
196.8425771034229967
  0
ARC
  5
E59A
  8
0
 10
438.3956403265179915
 20
47.5023886692620465
 30
0.0
 40
0.5423591623899794
 50
321.285299802110103
 51
323.8214472109323765
  0
ARC
  5
E59B
  8
0
 10
438.7957137796901179
 20
47.2053515088425826
 30
0.0
 40
0.0442318316900508
 50
328.4873651880507737
 51
1.4853506907440459
  0
ARC
  5
E59C
  8
0
 10
438.791321050331419
 20
47.179256744660762
 30
0.0
 40
0.0557224545037328
 50
29.2666633851661189
 51
146.2342559439815943
  0
ARC
  5
E59D
  8
0
 10
438.7873121849881954
 20
47.1851455561634268
 30
0.0
 40
0.0491891965799048
 50
149.3427168815852042
 51
165.240507424735398
  0
ARC
  5
E59E
  8
0
 10
438.7968534042068995
 20
47.2121455168569568
 30
0.0
 40
0.058911672748912
 50
194.2170014759460059
 51
226.1800357199861935
  0
ARC
  5
E59F
  8
0
 10
438.7894791732331896
 20
47.1861522674719893
 30
0.0
 40
0.0372731722547318
 50
196.911664392729989
 51
321.9402702134451033
  0
ARC
  5
E5A0
  8
0
 10
438.799860250369079
 20
47.1851692625337122
 30
0.0
 40
0.0453934175768482
 50
8.6091773293118994
 51
28.0255583904510814
  0
ARC
  5
E5A1
  8
0
 10
438.7985851813610907
 20
47.1998135186858008
 30
0.0
 40
0.0468196423072168
 50
282.0861235701626129
 51
350.3489932080071867
  0
CIRCLE
  5
E5A2
  8
0
 10
438.7890111844826038
 20
47.182578293250252
 30
0.0
 40
0.0139380654420153
  0
ARC
  5
E5A3
  8
0
 10
438.7892568562668885
 20
47.1849613380759507
 30
0.0
 40
0.0367297594269825
 50
323.6171286933351894
 51
195.2348838573659862
  0
CIRCLE
  5
E5A4
  8
0
 10
438.6790311664771025
 20
47.0904700698839918
 30
0.0
 40
0.0143903719476049
  0
ARC
  5
E5A5
  8
0
 10
438.6794543757579845
 20
47.0922697990468322
 30
0.0
 40
0.0365253359817761
 50
317.3652243259115266
 51
182.854399961469511
  0
ARC
  5
E5A6
  8
0
 10
438.6802548136690802
 20
47.0944821680817824
 30
0.0
 40
0.0374977805300558
 50
186.1716040998564949
 51
314.048020187522809
  0
LINE
  5
E5A7
  8
0
 10
438.6406506805244021
 20
47.1151227431691879
 30
0.0
 11
438.642974356529578
 21
47.0904509077155993
 31
0.0
  0
LINE
  5
E5A8
  8
0
 10
438.6387159624308083
 20
47.1114647570555789
 30
0.0
 11
438.6415683384171871
 21
47.1053688714328587
 31
0.0
  0
ARC
  5
E5A9
  8
0
 10
438.6971987538137796
 20
47.1173075862384394
 30
0.0
 40
0.0417315291872035
 50
314.9778338973744098
 51
344.9564024718861219
  0
ARC
  5
E5AA
  8
0
 10
438.6925843923399952
 20
47.1155005670105922
 30
0.0
 40
0.049899500385862
 50
285.9844719684294887
 51
341.6124291942061859
  0
ARC
  5
E5AB
  8
0
 10
438.6867847460360963
 20
47.08427942870469
 30
0.0
 40
0.0553600354541173
 50
16.2385048400795995
 51
89.6983674731769156
  0
ARC
  5
E5AC
  8
0
 10
438.6835558630644982
 20
47.0900894520684616
 30
0.0
 40
0.0496741416848831
 50
85.9361372672135531
 51
154.5127328275889056
  0
LINE
  5
E5AD
  8
0
 10
438.7266964335295256
 20
47.0877871077155987
 30
0.0
 11
438.7063255585294996
 21
47.067530362815603
 31
0.0
  0
ARC
  5
E5AE
  8
0
 10
438.7893709759073886
 20
47.0229982895692586
 30
0.0
 40
0.0450621011682913
 50
181.0605155196651026
 51
196.9705979014848936
  0
ARC
  5
E5AF
  8
0
 10
1491.5518255475669775
 20
365.6996773347543126
 30
0.0
 40
1099.9830654771560603
 50
196.8413425884338039
 51
196.8425771034229967
  0
ARC
  5
E5B0
  8
0
 10
438.3949603906706898
 20
47.3142405324386175
 30
0.0
 40
0.5423591623899794
 50
321.285299802110103
 51
323.8214472109323765
  0
ARC
  5
E5B1
  8
0
 10
438.7950338438427025
 20
47.0172033720191394
 30
0.0
 40
0.0442318316900508
 50
328.4873651880507737
 51
1.4853506907440459
  0
ARC
  5
E5B2
  8
0
 10
438.7906411144840035
 20
46.9911086078373117
 30
0.0
 40
0.0557224545037328
 50
29.2666633851661189
 51
146.2342559439815943
  0
ARC
  5
E5B3
  8
0
 10
438.7866322491408937
 20
46.9969974193399906
 30
0.0
 40
0.0491891965799048
 50
149.3427168815852042
 51
165.240507424735398
  0
ARC
  5
E5B4
  8
0
 10
438.7961734683595978
 20
47.0239973800335207
 30
0.0
 40
0.058911672748912
 50
194.2170014759460059
 51
226.1800357199861935
  0
ARC
  5
E5B5
  8
0
 10
438.7887992373857742
 20
46.9980041306485532
 30
0.0
 40
0.0372731722547318
 50
196.911664392729989
 51
321.9402702134451033
  0
ARC
  5
E5B6
  8
0
 10
438.7991803145217773
 20
46.997021125710269
 30
0.0
 40
0.0453934175768482
 50
8.6091773293118994
 51
28.0255583904510814
  0
ARC
  5
E5B7
  8
0
 10
438.7979052455136753
 20
47.0116653818623504
 30
0.0
 40
0.0468196423072168
 50
282.0861235701626129
 51
350.3489932080071867
  0
CIRCLE
  5
E5B8
  8
0
 10
438.788331248635302
 20
46.9944301564268017
 30
0.0
 40
0.0139380654420153
  0
ARC
  5
E5B9
  8
0
 10
438.7885769204195867
 20
46.9968132012525004
 30
0.0
 40
0.0367297594269825
 50
323.6171286933351894
 51
195.2348838573659862
  0
CIRCLE
  5
E5BA
  8
0
 10
438.6783512306298007
 20
46.9023219330605414
 30
0.0
 40
0.0143903719476049
  0
ARC
  5
E5BB
  8
0
 10
438.6787744399106259
 20
46.904121662223389
 30
0.0
 40
0.0365253359817761
 50
317.3652243259115266
 51
182.854399961469511
  0
ARC
  5
E5BC
  8
0
 10
438.6795748778217785
 20
46.9063340312583392
 30
0.0
 40
0.0374977805300558
 50
186.1716040998564949
 51
314.048020187522809
  0
LINE
  5
E5BD
  8
0
 10
438.6399707446771004
 20
46.9269746063457518
 30
0.0
 11
438.6422944206822194
 21
46.9023027708921632
 31
0.0
  0
LINE
  5
E5BE
  8
0
 10
438.6380360265833929
 20
46.9233166202321428
 30
0.0
 11
438.6408884025698853
 21
46.9172207346094083
 31
0.0
  0
ARC
  5
E5BF
  8
0
 10
438.696518817966421
 20
46.9291594494150033
 30
0.0
 40
0.0417315291872035
 50
314.9778338973744098
 51
344.9564024718861219
  0
ARC
  5
E5C0
  8
0
 10
438.6919044564925798
 20
46.9273524301871632
 30
0.0
 40
0.049899500385862
 50
285.9844719684294887
 51
341.6124291942061859
  0
ARC
  5
E5C1
  8
0
 10
438.6861048101887945
 20
46.8961312918812396
 30
0.0
 40
0.0553600354541173
 50
16.2385048400795995
 51
89.6983674731769156
  0
ARC
  5
E5C2
  8
0
 10
438.6828759272170828
 20
46.9019413152450184
 30
0.0
 40
0.0496741416848831
 50
85.9361372672135531
 51
154.5127328275889056
  0
LINE
  5
E5C3
  8
0
 10
438.7260164976821102
 20
46.8996389708921626
 30
0.0
 11
438.7056456226820842
 21
46.8793822259921598
 31
0.0
  0
ARC
  5
E5C4
  8
0
 10
438.7890981887056228
 20
46.8356493326023511
 30
0.0
 40
0.0450621011682913
 50
181.0605155196651026
 51
196.9705979014848936
  0
ARC
  5
E5C5
  8
0
 10
1491.5515527603649844
 20
365.5123283777874121
 30
0.0
 40
1099.9830654771560603
 50
196.8413425884338039
 51
196.8425771034229967
  0
ARC
  5
E5C6
  8
0
 10
438.394687603468924
 20
47.1268915754717099
 30
0.0
 40
0.5423591623899794
 50
321.285299802110103
 51
323.8214472109323765
  0
ARC
  5
E5C7
  8
0
 10
438.7947610566409935
 20
46.8298544150522318
 30
0.0
 40
0.0442318316900508
 50
328.4873651880507737
 51
1.4853506907440459
  0
ARC
  5
E5C8
  8
0
 10
438.7903683272822946
 20
46.8037596508704112
 30
0.0
 40
0.0557224545037328
 50
29.2666633851661189
 51
146.2342559439815943
  0
ARC
  5
E5C9
  8
0
 10
438.7863594619391847
 20
46.8096484623730902
 30
0.0
 40
0.0491891965799048
 50
149.3427168815852042
 51
165.240507424735398
  0
ARC
  5
E5CA
  8
0
 10
438.7959006811577751
 20
46.8366484230666202
 30
0.0
 40
0.058911672748912
 50
194.2170014759460059
 51
226.1800357199861935
  0
ARC
  5
E5CB
  8
0
 10
438.7885264501840084
 20
46.8106551736816527
 30
0.0
 40
0.0372731722547318
 50
196.911664392729989
 51
321.9402702134451033
  0
ARC
  5
E5CC
  8
0
 10
438.7989075273200115
 20
46.8096721687433686
 30
0.0
 40
0.0453934175768482
 50
8.6091773293118994
 51
28.0255583904510814
  0
ARC
  5
E5CD
  8
0
 10
438.7976324583120231
 20
46.8243164248954571
 30
0.0
 40
0.0468196423072168
 50
282.0861235701626129
 51
350.3489932080071867
  0
CIRCLE
  5
E5CE
  8
0
 10
438.7880584614334794
 20
46.8070811994599012
 30
0.0
 40
0.0139380654420153
  0
ARC
  5
E5CF
  8
0
 10
438.7883041332178209
 20
46.809464244285607
 30
0.0
 40
0.0367297594269825
 50
323.6171286933351894
 51
195.2348838573659862
  0
ARC
  5
E5D0
  8
0
 10
438.899491365355118
 20
48.9666251435251567
 30
0.0
 40
0.0358066933289064
 50
88.2291415456695631
 51
206.2335831975454141
  0
ARC
  5
E5D1
  8
0
 10
438.9015420525900026
 20
48.966520616577462
 30
0.0
 40
0.0359065351033402
 50
334.0304561247901916
 51
91.5067861291312283
  0
ARC
  5
E5D2
  8
0
 10
438.8999299326433743
 20
48.9673730559391913
 30
0.0
 40
0.0365338032268466
 50
206.981706824473207
 51
239.042093304653207
  0
ARC
  5
E5D3
  8
0
 10
438.9012815012853821
 20
48.967358550037261
 30
0.0
 40
0.0365132990864793
 50
300.9485179229646974
 51
333.0273390434757061
  0
ARC
  5
E5D4
  8
0
 10
438.9005978777033192
 20
48.9684873933944971
 30
0.0
 40
0.0378329946630911
 50
239.0427461509617046
 51
300.9572536051146017
  0
ARC
  5
E5D5
  8
0
 10
438.9008871722584786
 20
48.9641993012823491
 30
0.0
 40
0.014204651366641
 50
358.4775229574451032
 51
91.1669768893659835
  0
ARC
  5
E5D6
  8
0
 10
438.9004107192092761
 20
48.9640533764031289
 30
0.0
 40
0.014348850677023
 50
89.2526440348323575
 51
171.3659204181450946
  0
ARC
  5
E5D7
  8
0
 10
438.9002167711576021
 20
48.9644249502298265
 30
0.0
 40
0.0141053748099289
 50
172.7400042878969089
 51
271.5482589867729075
  0
ARC
  5
E5D8
  8
0
 10
438.9008158696660189
 20
48.964616083451709
 30
0.0
 40
0.0142930208502183
 50
269.1261340214539928
 51
356.8147379108557971
  0
ARC
  5
E5D9
  8
0
 10
438.633909966813917
 20
49.1097706727402681
 30
0.0
 40
0.3394412037216693
 50
332.0735194336252789
 51
336.4631007705215211
  0
ARC
  5
E5DA
  8
0
 10
438.9010622902536056
 20
48.9857999570921692
 30
0.0
 40
0.0532594440199804
 50
290.8967215145434011
 51
349.9141643215353952
  0
ARC
  5
E5DB
  8
0
 10
438.8956210067182155
 20
48.9870782566553586
 30
0.0
 40
0.0415807736790131
 50
169.6645264771001962
 51
202.0078634069039936
  0
ARC
  5
E5DC
  8
0
 10
439.5193700586029877
 20
49.2882339890174279
 30
0.0
 40
0.7341415534760241
 50
205.5589310450793903
 51
207.3632089538112098
  0
ARC
  5
E5DD
  8
0
 10
438.899709005634179
 20
48.9854489588405428
 30
0.0
 40
0.0527808320336663
 50
189.7956904907725004
 51
249.3978358420899042
  0
ARC
  5
E5DE
  8
0
 10
438.9057823126066182
 20
48.9870764457336705
 30
0.0
 40
0.0413769631460464
 50
341.8952868632911191
 51
10.3665477643374206
  0
ARC
  5
E5DF
  8
0
 10
438.8958642237789718
 20
48.9681606832996081
 30
0.0
 40
0.0488778593639866
 50
147.3392112796080085
 51
170.2131891042425025
  0
ARC
  5
E5E0
  8
0
 10
438.8998387429942909
 20
48.9640103450971012
 30
0.0
 40
0.0544804266380232
 50
89.2016082494636606
 51
145.920163432492501
  0
ARC
  5
E5E1
  8
0
 10
438.9012563593607865
 20
48.9638326702360018
 30
0.0
 40
0.0546567789718413
 50
34.1590461820268771
 51
90.690290072603446
  0
ARC
  5
E5E2
  8
0
 10
438.9055167837915974
 20
48.968212325903437
 30
0.0
 40
0.0486877991217046
 50
9.7683947452362272
 51
32.7092011388182868
  0
CIRCLE
  5
E5E3
  8
0
 10
439.1246284835261235
 20
48.9669049520924773
 30
0.0
 40
0.0143903719476049
  0
ARC
  5
E5E4
  8
0
 10
439.1242051371526145
 20
48.9687046490122171
 30
0.0
 40
0.0365253359817761
 50
357.1499645319573233
 51
222.6391401675163877
  0
ARC
  5
E5E5
  8
0
 10
439.1234045307169822
 20
48.9709169570675726
 30
0.0
 40
0.0374977805300558
 50
225.9563443059051906
 51
353.8327603935708225
  0
LINE
  5
E5E6
  8
0
 10
439.1630070914555972
 20
48.9915605489312469
 30
0.0
 11
439.1606852948287951
 21
48.9668885365437418
 31
0.0
  0
LINE
  5
E5E7
  8
0
 10
439.1649420881897754
 20
48.9879027102049776
 30
0.0
 11
439.1620901765643907
 21
48.98180660732082
 31
0.0
  0
ARC
  5
E5E8
  8
0
 10
439.1064588519002996
 20
48.993741084457092
 30
0.0
 40
0.0417315291872035
 50
195.0479620215407124
 51
225.0265305960533055
  0
ARC
  5
E5E9
  8
0
 10
439.1110733510100204
 20
48.9919344167324624
 30
0.0
 40
0.049899500385862
 50
198.3919352992215011
 51
254.0198925249981983
  0
ARC
  5
E5EA
  8
0
 10
439.1168753755604257
 20
48.9607137203039073
 30
0.0
 40
0.0553600354541173
 50
90.3059970202494782
 51
163.7658596533478033
  0
ARC
  5
E5EB
  8
0
 10
439.1201038159454129
 20
48.9665239896102875
 30
0.0
 40
0.0496741416848831
 50
25.4916316658373994
 51
94.068227226212997
  0
LINE
  5
E5EC
  8
0
 10
439.0769634209860897
 20
48.964218359040629
 30
0.0
 11
439.0973358389800865
 21
48.9439631659463217
 31
0.0
  0
ARC
  5
E5ED
  8
0
 10
439.0090610220879057
 20
48.9000721215713625
 30
0.0
 40
0.0450621011682913
 50
343.0337665919416281
 51
358.9438489737618738
  0
ARC
  5
E5EE
  8
0
 10
-613.7776656212419084
 20
367.4965562933783758
 30
0.0
 40
1099.9830654771560603
 50
343.1617873900037807
 51
343.1630219049936272
  0
ARC
  5
E5EF
  8
0
 10
439.4034494208664796
 20
49.1913444077354711
 30
0.0
 40
0.5423591623899794
 50
216.1829172824955094
 51
218.7190646913178114
  0
ARC
  5
E5F0
  8
0
 10
439.0033985955956837
 20
48.8942767726703309
 30
0.0
 40
0.0442318316900508
 50
178.519013802683105
 51
211.5169993053758901
  0
ARC
  5
E5F1
  8
0
 10
439.0077933127043934
 20
48.8681823431794129
 30
0.0
 40
0.0557224545037328
 50
33.7701085494445579
 51
150.7377011082598983
  0
ARC
  5
E5F2
  8
0
 10
439.0118017294570905
 20
48.8740714600394384
 30
0.0
 40
0.0491891965799048
 50
14.7638570686914594
 51
30.6616476118411505
  0
ARC
  5
E5F3
  8
0
 10
439.0022584535499846
 20
48.9010706938543578
 30
0.0
 40
0.058911672748912
 50
313.8243287734414935
 51
345.7873630174810273
  0
ARC
  5
E5F4
  8
0
 10
439.0096346645324843
 20
48.8750780062752312
 30
0.0
 40
0.0372731722547318
 50
218.0640942799822142
 51
343.0927001006967885
  0
ARC
  5
E5F5
  8
0
 10
438.9992536623067849
 20
48.8740942105635412
 30
0.0
 40
0.0453934175768482
 50
151.9788061029761934
 51
171.3951871641151001
  0
ARC
  5
E5F6
  8
0
 10
439.0005276157880871
 20
48.8887385638012333
 30
0.0
 40
0.0468196423072168
 50
189.6553712854195908
 51
257.9182409232629993
  0
CIRCLE
  5
E5F7
  8
0
 10
439.010102925528372
 20
48.8715040677127774
 30
0.0
 40
0.0139380654420153
  0
ARC
  5
E5F8
  8
0
 10
439.0098570722170166
 20
48.8738870938175936
 30
0.0
 40
0.0367297594269825
 50
344.7694806360614166
 51
216.3872358000922134
  0
ARC
  5
E5F9
  8
0
 10
438.8998259087550764
 20
48.7789556086251608
 30
0.0
 40
0.0358066933289064
 50
88.2291415456695631
 51
206.2335831975454141
  0
ARC
  5
E5FA
  8
0
 10
438.9018765959900179
 20
48.7788510816774519
 30
0.0
 40
0.0359065351033402
 50
334.0304561247901916
 51
91.5067861291312283
  0
ARC
  5
E5FB
  8
0
 10
438.9002644760433895
 20
48.7797035210391812
 30
0.0
 40
0.0365338032268466
 50
206.981706824473207
 51
239.042093304653207
  0
ARC
  5
E5FC
  8
0
 10
438.9016160446853974
 20
48.7796890151372509
 30
0.0
 40
0.0365132990864793
 50
300.9485179229646974
 51
333.0273390434757061
  0
ARC
  5
E5FD
  8
0
 10
438.9009324211032776
 20
48.7808178584945011
 30
0.0
 40
0.0378329946630911
 50
239.0427461509617046
 51
300.9572536051146017
  0
ARC
  5
E5FE
  8
0
 10
438.9012217156584938
 20
48.7765297663823389
 30
0.0
 40
0.014204651366641
 50
358.4775229574451032
 51
91.1669768893659835
  0
ARC
  5
E5FF
  8
0
 10
438.9007452626092913
 20
48.776383841503133
 30
0.0
 40
0.014348850677023
 50
89.2526440348323575
 51
171.3659204181450946
  0
ARC
  5
E600
  8
0
 10
438.9005513145576174
 20
48.7767554153298235
 30
0.0
 40
0.0141053748099289
 50
172.7400042878969089
 51
271.5482589867729075
  0
ARC
  5
E601
  8
0
 10
438.9011504130659773
 20
48.7769465485517202
 30
0.0
 40
0.0142930208502183
 50
269.1261340214539928
 51
356.8147379108557971
  0
ARC
  5
E602
  8
0
 10
438.6342445102138186
 20
48.9221011378402721
 30
0.0
 40
0.3394412037216693
 50
332.0735194336252789
 51
336.4631007705215211
  0
ARC
  5
E603
  8
0
 10
438.9013968336536209
 20
48.7981304221921732
 30
0.0
 40
0.0532594440199804
 50
290.8967215145434011
 51
349.9141643215353952
  0
ARC
  5
E604
  8
0
 10
438.895955550118174
 20
48.7994087217553698
 30
0.0
 40
0.0415807736790131
 50
169.6645264771001962
 51
202.0078634069039936
  0
ARC
  5
E605
  8
0
 10
439.5197046020030029
 20
49.100564454117432
 30
0.0
 40
0.7341415534760241
 50
205.5589310450793903
 51
207.3632089538112098
  0
ARC
  5
E606
  8
0
 10
438.9000435490343079
 20
48.7977794239405398
 30
0.0
 40
0.0527808320336663
 50
189.7956904907725004
 51
249.3978358420899042
  0
ARC
  5
E607
  8
0
 10
438.9061168560065767
 20
48.7994069108336816
 30
0.0
 40
0.0413769631460464
 50
341.8952868632911191
 51
10.3665477643374206
  0
ARC
  5
E608
  8
0
 10
438.8961987671789871
 20
48.7804911483996122
 30
0.0
 40
0.0488778593639866
 50
147.3392112796080085
 51
170.2131891042425025
  0
ARC
  5
E609
  8
0
 10
438.9001732863943062
 20
48.7763408101970981
 30
0.0
 40
0.0544804266380232
 50
89.2016082494636606
 51
145.920163432492501
  0
ARC
  5
E60A
  8
0
 10
438.9015909027606881
 20
48.7761631353359988
 30
0.0
 40
0.0546567789718413
 50
34.1590461820268771
 51
90.690290072603446
  0
ARC
  5
E60B
  8
0
 10
438.905851327191499
 20
48.780542791003441
 30
0.0
 40
0.0486877991217046
 50
9.7683947452362272
 51
32.7092011388182868
  0
CIRCLE
  5
E60C
  8
0
 10
439.124963026926082
 20
48.7792354171924813
 30
0.0
 40
0.0143903719476049
  0
ARC
  5
E60D
  8
0
 10
439.1245396805525729
 20
48.7810351141122212
 30
0.0
 40
0.0365253359817761
 50
357.1499645319573233
 51
222.6391401675163877
  0
ARC
  5
E60E
  8
0
 10
439.1237390741169975
 20
48.7832474221675767
 30
0.0
 40
0.0374977805300558
 50
225.9563443059051906
 51
353.8327603935708225
  0
LINE
  5
E60F
  8
0
 10
439.1633416348554988
 20
48.803891014031251
 30
0.0
 11
439.1610198382288104
 21
48.7792190016437317
 31
0.0
  0
LINE
  5
E610
  8
0
 10
439.1652766315897907
 20
48.8002331753049816
 30
0.0
 11
439.162424719964406
 21
48.7941370724208312
 31
0.0
  0
ARC
  5
E611
  8
0
 10
439.1067933953003148
 20
48.8060715495570889
 30
0.0
 40
0.0417315291872035
 50
195.0479620215407124
 51
225.0265305960533055
  0
ARC
  5
E612
  8
0
 10
439.1114078944099788
 20
48.8042648818324594
 30
0.0
 40
0.049899500385862
 50
198.3919352992215011
 51
254.0198925249981983
  0
ARC
  5
E613
  8
0
 10
439.1172099189603841
 20
48.7730441854039185
 30
0.0
 40
0.0553600354541173
 50
90.3059970202494782
 51
163.7658596533478033
  0
ARC
  5
E614
  8
0
 10
439.1204383593453144
 20
48.7788544547102916
 30
0.0
 40
0.0496741416848831
 50
25.4916316658373994
 51
94.068227226212997
  0
LINE
  5
E615
  8
0
 10
439.0772979643862186
 20
48.7765488241406331
 30
0.0
 11
439.0976703823802154
 21
48.7562936310463186
 31
0.0
  0
ARC
  5
E616
  8
0
 10
439.0093955654879778
 20
48.7124025866713666
 30
0.0
 40
0.0450621011682913
 50
343.0337665919416281
 51
358.9438489737618738
  0
ARC
  5
E617
  8
0
 10
-613.77733107784195
 20
367.3088867584784225
 30
0.0
 40
1099.9830654771560603
 50
343.1617873900037807
 51
343.1630219049936272
  0
ARC
  5
E618
  8
0
 10
439.4037839642664949
 20
49.003674872835461
 30
0.0
 40
0.5423591623899794
 50
216.1829172824955094
 51
218.7190646913178114
  0
ARC
  5
E619
  8
0
 10
439.0037331389956989
 20
48.7066072377703208
 30
0.0
 40
0.0442318316900508
 50
178.519013802683105
 51
211.5169993053758901
  0
ARC
  5
E61A
  8
0
 10
439.0081278561045224
 20
48.6805128082794099
 30
0.0
 40
0.0557224545037328
 50
33.7701085494445579
 51
150.7377011082598983
  0
ARC
  5
E61B
  8
0
 10
439.0121362728571057
 20
48.6864019251394282
 30
0.0
 40
0.0491891965799048
 50
14.7638570686914594
 51
30.6616476118411505
  0
ARC
  5
E61C
  8
0
 10
439.0025929969501135
 20
48.7134011589543476
 30
0.0
 40
0.058911672748912
 50
313.8243287734414935
 51
345.7873630174810273
  0
ARC
  5
E61D
  8
0
 10
439.0099692079324996
 20
48.6874084713752282
 30
0.0
 40
0.0372731722547318
 50
218.0640942799822142
 51
343.0927001006967885
  0
ARC
  5
E61E
  8
0
 10
438.9995882057069139
 20
48.686424675663531
 30
0.0
 40
0.0453934175768482
 50
151.9788061029761934
 51
171.3951871641151001
  0
ARC
  5
E61F
  8
0
 10
439.0008621591881024
 20
48.7010690289012302
 30
0.0
 40
0.0468196423072168
 50
189.6553712854195908
 51
257.9182409232629993
  0
CIRCLE
  5
E620
  8
0
 10
439.0104374689283873
 20
48.6838345328127815
 30
0.0
 40
0.0139380654420153
  0
ARC
  5
E621
  8
0
 10
439.0101916156169182
 20
48.6862175589175905
 30
0.0
 40
0.0367297594269825
 50
344.7694806360614166
 51
216.3872358000922134
  0
ARC
  5
E622
  8
0
 10
438.8998259087550764
 20
48.5912615967246708
 30
0.0
 40
0.0358066933289064
 50
88.2291415456695631
 51
206.2335831975454141
  0
ARC
  5
E623
  8
0
 10
438.9018765959900179
 20
48.5911570697769619
 30
0.0
 40
0.0359065351033402
 50
334.0304561247901916
 51
91.5067861291312283
  0
ARC
  5
E624
  8
0
 10
438.9002644760433895
 20
48.5920095091386983
 30
0.0
 40
0.0365338032268466
 50
206.981706824473207
 51
239.042093304653207
  0
ARC
  5
E625
  8
0
 10
438.9016160446853974
 20
48.591995003236768
 30
0.0
 40
0.0365132990864793
 50
300.9485179229646974
 51
333.0273390434757061
  0
ARC
  5
E626
  8
0
 10
438.9009324211032776
 20
48.5931238465940325
 30
0.0
 40
0.0378329946630911
 50
239.0427461509617046
 51
300.9572536051146017
  0
ARC
  5
E627
  8
0
 10
438.9012217156584938
 20
48.5888357544818632
 30
0.0
 40
0.014204651366641
 50
358.4775229574451032
 51
91.1669768893659835
  0
ARC
  5
E628
  8
0
 10
438.9007452626092913
 20
48.5886898296026573
 30
0.0
 40
0.014348850677023
 50
89.2526440348323575
 51
171.3659204181450946
  0
ARC
  5
E629
  8
0
 10
438.9005513145576174
 20
48.5890614034293407
 30
0.0
 40
0.0141053748099289
 50
172.7400042878969089
 51
271.5482589867729075
  0
ARC
  5
E62A
  8
0
 10
438.9011504130659773
 20
48.5892525366512302
 30
0.0
 40
0.0142930208502183
 50
269.1261340214539928
 51
356.8147379108557971
  0
ARC
  5
E62B
  8
0
 10
438.6342445102138186
 20
48.7344071259397822
 30
0.0
 40
0.3394412037216693
 50
332.0735194336252789
 51
336.4631007705215211
  0
ARC
  5
E62C
  8
0
 10
438.9013968336536209
 20
48.6104364102916904
 30
0.0
 40
0.0532594440199804
 50
290.8967215145434011
 51
349.9141643215353952
  0
ARC
  5
E62D
  8
0
 10
438.895955550118174
 20
48.611714709854887
 30
0.0
 40
0.0415807736790131
 50
169.6645264771001962
 51
202.0078634069039936
  0
ARC
  5
E62E
  8
0
 10
439.5197046020030029
 20
48.912870442216942
 30
0.0
 40
0.7341415534760241
 50
205.5589310450793903
 51
207.3632089538112098
  0
ARC
  5
E62F
  8
0
 10
438.9000435490343079
 20
48.610085412040057
 30
0.0
 40
0.0527808320336663
 50
189.7956904907725004
 51
249.3978358420899042
  0
ARC
  5
E630
  8
0
 10
438.9061168560065767
 20
48.6117128989331988
 30
0.0
 40
0.0413769631460464
 50
341.8952868632911191
 51
10.3665477643374206
  0
ARC
  5
E631
  8
0
 10
438.8961987671789871
 20
48.5927971364991294
 30
0.0
 40
0.0488778593639866
 50
147.3392112796080085
 51
170.2131891042425025
  0
ARC
  5
E632
  8
0
 10
438.9001732863943062
 20
48.5886467982966224
 30
0.0
 40
0.0544804266380232
 50
89.2016082494636606
 51
145.920163432492501
  0
ARC
  5
E633
  8
0
 10
438.9015909027606881
 20
48.5884691234355302
 30
0.0
 40
0.0546567789718413
 50
34.1590461820268771
 51
90.690290072603446
  0
ARC
  5
E634
  8
0
 10
438.905851327191499
 20
48.5928487791029582
 30
0.0
 40
0.0486877991217046
 50
9.7683947452362272
 51
32.7092011388182868
  0
CIRCLE
  5
E635
  8
0
 10
439.124963026926082
 20
48.5915414052919985
 30
0.0
 40
0.0143903719476049
  0
ARC
  5
E636
  8
0
 10
439.1245396805525729
 20
48.5933411022117383
 30
0.0
 40
0.0365253359817761
 50
357.1499645319573233
 51
222.6391401675163877
  0
ARC
  5
E637
  8
0
 10
439.1237390741169975
 20
48.5955534102670867
 30
0.0
 40
0.0374977805300558
 50
225.9563443059051906
 51
353.8327603935708225
  0
LINE
  5
E638
  8
0
 10
439.1633416348554988
 20
48.616197002130761
 30
0.0
 11
439.1610198382288104
 21
48.5915249897432489
 31
0.0
  0
LINE
  5
E639
  8
0
 10
439.1652766315897907
 20
48.6125391634044988
 30
0.0
 11
439.162424719964406
 21
48.6064430605203412
 31
0.0
  0
ARC
  5
E63A
  8
0
 10
439.1067933953003148
 20
48.6183775376566132
 30
0.0
 40
0.0417315291872035
 50
195.0479620215407124
 51
225.0265305960533055
  0
ARC
  5
E63B
  8
0
 10
439.1114078944099788
 20
48.6165708699319765
 30
0.0
 40
0.049899500385862
 50
198.3919352992215011
 51
254.0198925249981983
  0
ARC
  5
E63C
  8
0
 10
439.1172099189603841
 20
48.5853501735034428
 30
0.0
 40
0.0553600354541173
 50
90.3059970202494782
 51
163.7658596533478033
  0
ARC
  5
E63D
  8
0
 10
439.1204383593453144
 20
48.5911604428098087
 30
0.0
 40
0.0496741416848831
 50
25.4916316658373994
 51
94.068227226212997
  0
LINE
  5
E63E
  8
0
 10
439.0772979643862186
 20
48.5888548122401502
 30
0.0
 11
439.0976703823802154
 21
48.5685996191458429
 31
0.0
  0
ARC
  5
E63F
  8
0
 10
439.0093955654879778
 20
48.5247085747708908
 30
0.0
 40
0.0450621011682913
 50
343.0337665919416281
 51
358.9438489737618738
  0
ARC
  5
E640
  8
0
 10
-613.77733107784195
 20
367.1211927465778899
 30
0.0
 40
1099.9830654771560603
 50
343.1617873900037807
 51
343.1630219049936272
  0
ARC
  5
E641
  8
0
 10
439.4037839642664949
 20
48.8159808609349781
 30
0.0
 40
0.5423591623899794
 50
216.1829172824955094
 51
218.7190646913178114
  0
ARC
  5
E642
  8
0
 10
439.0037331389956989
 20
48.5189132258698521
 30
0.0
 40
0.0442318316900508
 50
178.519013802683105
 51
211.5169993053758901
  0
ARC
  5
E643
  8
0
 10
439.0081278561045224
 20
48.492818796378927
 30
0.0
 40
0.0557224545037328
 50
33.7701085494445579
 51
150.7377011082598983
  0
ARC
  5
E644
  8
0
 10
439.0121362728571057
 20
48.4987079132389596
 30
0.0
 40
0.0491891965799048
 50
14.7638570686914594
 51
30.6616476118411505
  0
ARC
  5
E645
  8
0
 10
439.0025929969501135
 20
48.525707147053879
 30
0.0
 40
0.058911672748912
 50
313.8243287734414935
 51
345.7873630174810273
  0
ARC
  5
E646
  8
0
 10
439.0099692079324996
 20
48.4997144594747525
 30
0.0
 40
0.0372731722547318
 50
218.0640942799822142
 51
343.0927001006967885
  0
ARC
  5
E647
  8
0
 10
438.9995882057069139
 20
48.4987306637630482
 30
0.0
 40
0.0453934175768482
 50
151.9788061029761934
 51
171.3951871641151001
  0
ARC
  5
E648
  8
0
 10
439.0008621591881024
 20
48.5133750170007616
 30
0.0
 40
0.0468196423072168
 50
189.6553712854195908
 51
257.9182409232629993
  0
CIRCLE
  5
E649
  8
0
 10
439.0104374689283873
 20
48.4961405209122987
 30
0.0
 40
0.0139380654420153
  0
ARC
  5
E64A
  8
0
 10
439.0101916156169182
 20
48.4985235470171006
 30
0.0
 40
0.0367297594269825
 50
344.7694806360614166
 51
216.3872358000922134
  0
ARC
  5
E64B
  8
0
 10
438.900219079555086
 20
48.4039024738251484
 30
0.0
 40
0.0358066933289064
 50
88.2291415456695631
 51
206.2335831975454141
  0
ARC
  5
E64C
  8
0
 10
438.9022697667900275
 20
48.4037979468774466
 30
0.0
 40
0.0359065351033402
 50
334.0304561247901916
 51
91.5067861291312283
  0
ARC
  5
E64D
  8
0
 10
438.9006576468433991
 20
48.4046503862391901
 30
0.0
 40
0.0365338032268466
 50
206.981706824473207
 51
239.042093304653207
  0
ARC
  5
E64E
  8
0
 10
438.9020092154854069
 20
48.4046358803372527
 30
0.0
 40
0.0365132990864793
 50
300.9485179229646974
 51
333.0273390434757061
  0
ARC
  5
E64F
  8
0
 10
438.9013255919032872
 20
48.405764723694503
 30
0.0
 40
0.0378329946630911
 50
239.0427461509617046
 51
300.9572536051146017
  0
ARC
  5
E650
  8
0
 10
438.9016148864585034
 20
48.4014766315823408
 30
0.0
 40
0.014204651366641
 50
358.4775229574451032
 51
91.1669768893659835
  0
ARC
  5
E651
  8
0
 10
438.9011384334093009
 20
48.4013307067031278
 30
0.0
 40
0.014348850677023
 50
89.2526440348323575
 51
171.3659204181450946
  0
ARC
  5
E652
  8
0
 10
438.9009444853576269
 20
48.4017022805298325
 30
0.0
 40
0.0141053748099289
 50
172.7400042878969089
 51
271.5482589867729075
  0
ARC
  5
E653
  8
0
 10
438.9015435838659869
 20
48.4018934137517221
 30
0.0
 40
0.0142930208502183
 50
269.1261340214539928
 51
356.8147379108557971
  0
ARC
  5
E654
  8
0
 10
438.6346376810138281
 20
48.5470480030402669
 30
0.0
 40
0.3394412037216693
 50
332.0735194336252789
 51
336.4631007705215211
  0
ARC
  5
E655
  8
0
 10
438.9017900044535736
 20
48.4230772873921822
 30
0.0
 40
0.0532594440199804
 50
290.8967215145434011
 51
349.9141643215353952
  0
ARC
  5
E656
  8
0
 10
438.8963487209181835
 20
48.4243555869553717
 30
0.0
 40
0.0415807736790131
 50
169.6645264771001962
 51
202.0078634069039936
  0
ARC
  5
E657
  8
0
 10
439.5200977728030125
 20
48.7255113193174267
 30
0.0
 40
0.7341415534760241
 50
205.5589310450793903
 51
207.3632089538112098
  0
ARC
  5
E658
  8
0
 10
438.9004367198343175
 20
48.4227262891405417
 30
0.0
 40
0.0527808320336663
 50
189.7956904907725004
 51
249.3978358420899042
  0
ARC
  5
E659
  8
0
 10
438.9065100268065862
 20
48.4243537760336906
 30
0.0
 40
0.0413769631460464
 50
341.8952868632911191
 51
10.3665477643374206
  0
ARC
  5
E65A
  8
0
 10
438.8965919379789966
 20
48.405438013599607
 30
0.0
 40
0.0488778593639866
 50
147.3392112796080085
 51
170.2131891042425025
  0
ARC
  5
E65B
  8
0
 10
438.9005664571943157
 20
48.4012876753970929
 30
0.0
 40
0.0544804266380232
 50
89.2016082494636606
 51
145.920163432492501
  0
ARC
  5
E65C
  8
0
 10
438.9019840735606977
 20
48.4011100005360007
 30
0.0
 40
0.0546567789718413
 50
34.1590461820268771
 51
90.690290072603446
  0
ARC
  5
E65D
  8
0
 10
438.9062444979916222
 20
48.4054896562034429
 30
0.0
 40
0.0486877991217046
 50
9.7683947452362272
 51
32.7092011388182868
  0
CIRCLE
  5
E65E
  8
0
 10
439.1253561977260915
 20
48.4041822823924832
 30
0.0
 40
0.0143903719476049
  0
ARC
  5
E65F
  8
0
 10
439.1249328513525825
 20
48.4059819793122088
 30
0.0
 40
0.0365253359817761
 50
357.1499645319573233
 51
222.6391401675163877
  0
ARC
  5
E660
  8
0
 10
439.124132244917007
 20
48.4081942873675715
 30
0.0
 40
0.0374977805300558
 50
225.9563443059051906
 51
353.8327603935708225
  0
LINE
  5
E661
  8
0
 10
439.1637348056555084
 20
48.4288378792312528
 30
0.0
 11
439.1614130090288199
 21
48.4041658668437407
 31
0.0
  0
LINE
  5
E662
  8
0
 10
439.1656698023898002
 20
48.4251800405049835
 30
0.0
 11
439.1628178907644724
 21
48.4190839376208189
 31
0.0
  0
ARC
  5
E663
  8
0
 10
439.1071865661003244
 20
48.4310184147570908
 30
0.0
 40
0.0417315291872035
 50
195.0479620215407124
 51
225.0265305960533055
  0
ARC
  5
E664
  8
0
 10
439.1118010652099883
 20
48.4292117470324683
 30
0.0
 40
0.049899500385862
 50
198.3919352992215011
 51
254.0198925249981983
  0
ARC
  5
E665
  8
0
 10
439.1176030897603937
 20
48.3979910506039204
 30
0.0
 40
0.0553600354541173
 50
90.3059970202494782
 51
163.7658596533478033
  0
ARC
  5
E666
  8
0
 10
439.1208315301453808
 20
48.4038013199103005
 30
0.0
 40
0.0496741416848831
 50
25.4916316658373994
 51
94.068227226212997
  0
LINE
  5
E667
  8
0
 10
439.0776911351862282
 20
48.4014956893406278
 30
0.0
 11
439.098063553180225
 21
48.3812404962463205
 31
0.0
  0
ARC
  5
E668
  8
0
 10
439.0097887362878737
 20
48.3373494518713827
 30
0.0
 40
0.0450621011682913
 50
343.0337665919416281
 51
358.9438489737618738
  0
ARC
  5
E669
  8
0
 10
-613.7769379070418836
 20
366.9338336236783107
 30
0.0
 40
1099.9830654771560603
 50
343.1617873900037807
 51
343.1630219049936272
  0
ARC
  5
E66A
  8
0
 10
439.4041771350665044
 20
48.6286217380354628
 30
0.0
 40
0.5423591623899794
 50
216.1829172824955094
 51
218.7190646913178114
  0
ARC
  5
E66B
  8
0
 10
439.0041263097957085
 20
48.3315541029703297
 30
0.0
 40
0.0442318316900508
 50
178.519013802683105
 51
211.5169993053758901
  0
ARC
  5
E66C
  8
0
 10
439.0085210269044751
 20
48.3054596734794188
 30
0.0
 40
0.0557224545037328
 50
33.7701085494445579
 51
150.7377011082598983
  0
ARC
  5
E66D
  8
0
 10
439.0125294436571153
 20
48.3113487903394301
 30
0.0
 40
0.0491891965799048
 50
14.7638570686914594
 51
30.6616476118411505
  0
ARC
  5
E66E
  8
0
 10
439.0029861677501231
 20
48.3383480241543495
 30
0.0
 40
0.058911672748912
 50
313.8243287734414935
 51
345.7873630174810273
  0
ARC
  5
E66F
  8
0
 10
439.0103623787325091
 20
48.3123553365752301
 30
0.0
 40
0.0372731722547318
 50
218.0640942799822142
 51
343.0927001006967885
  0
ARC
  5
E670
  8
0
 10
438.9999813765069234
 20
48.3113715408635329
 30
0.0
 40
0.0453934175768482
 50
151.9788061029761934
 51
171.3951871641151001
  0
ARC
  5
E671
  8
0
 10
439.001255329988112
 20
48.3260158941012321
 30
0.0
 40
0.0468196423072168
 50
189.6553712854195908
 51
257.9182409232629993
  0
CIRCLE
  5
E672
  8
0
 10
439.0108306397283968
 20
48.3087813980127834
 30
0.0
 40
0.0139380654420153
  0
ARC
  5
E673
  8
0
 10
439.0105847864169277
 20
48.3111644241175924
 30
0.0
 40
0.0367297594269825
 50
344.7694806360614166
 51
216.3872358000922134
  0
ARC
  5
E674
  8
0
 10
438.8985915766057246
 20
48.21409293772642
 30
0.0
 40
0.0358066933289064
 50
88.2291415456695631
 51
206.2335831975454141
  0
ARC
  5
E675
  8
0
 10
438.900642263840723
 20
48.2139884107787111
 30
0.0
 40
0.0359065351033402
 50
334.0304561247901916
 51
91.5067861291312283
  0
ARC
  5
E676
  8
0
 10
438.8990301438939809
 20
48.2148408501404475
 30
0.0
 40
0.0365338032268466
 50
206.981706824473207
 51
239.042093304653207
  0
ARC
  5
E677
  8
0
 10
438.9003817125359888
 20
48.2148263442385101
 30
0.0
 40
0.0365132990864793
 50
300.9485179229646974
 51
333.0273390434757061
  0
ARC
  5
E678
  8
0
 10
438.8996980889539259
 20
48.2159551875957604
 30
0.0
 40
0.0378329946630911
 50
239.0427461509617046
 51
300.9572536051146017
  0
ARC
  5
E679
  8
0
 10
438.8999873835090284
 20
48.2116670954836124
 30
0.0
 40
0.014204651366641
 50
358.4775229574451032
 51
91.1669768893659835
  0
ARC
  5
E67A
  8
0
 10
438.8995109304598827
 20
48.2115211706043993
 30
0.0
 40
0.014348850677023
 50
89.2526440348323575
 51
171.3659204181450946
  0
ARC
  5
E67B
  8
0
 10
438.8993169824082088
 20
48.2118927444310827
 30
0.0
 40
0.0141053748099289
 50
172.7400042878969089
 51
271.5482589867729075
  0
ARC
  5
E67C
  8
0
 10
438.8999160809166256
 20
48.2120838776529794
 30
0.0
 40
0.0142930208502183
 50
269.1261340214539928
 51
356.8147379108557971
  0
ARC
  5
E67D
  8
0
 10
438.63301017806441
 20
48.3572384669415314
 30
0.0
 40
0.3394412037216693
 50
332.0735194336252789
 51
336.4631007705215211
  0
ARC
  5
E67E
  8
0
 10
438.9001625015040986
 20
48.2332677512934396
 30
0.0
 40
0.0532594440199804
 50
290.8967215145434011
 51
349.9141643215353952
  0
ARC
  5
E67F
  8
0
 10
438.8947212179688222
 20
48.2345460508566433
 30
0.0
 40
0.0415807736790131
 50
169.6645264771001962
 51
202.0078634069039936
  0
ARC
  5
E680
  8
0
 10
439.5184702698535943
 20
48.5357017832186912
 30
0.0
 40
0.7341415534760241
 50
205.5589310450793903
 51
207.3632089538112098
  0
ARC
  5
E681
  8
0
 10
438.8988092168847857
 20
48.232916753041799
 30
0.0
 40
0.0527808320336663
 50
189.7956904907725004
 51
249.3978358420899042
  0
ARC
  5
E682
  8
0
 10
438.9048825238572249
 20
48.234544239934948
 30
0.0
 40
0.0413769631460464
 50
341.8952868632911191
 51
10.3665477643374206
  0
ARC
  5
E683
  8
0
 10
438.8949644350295785
 20
48.2156284775008714
 30
0.0
 40
0.0488778593639866
 50
147.3392112796080085
 51
170.2131891042425025
  0
ARC
  5
E684
  8
0
 10
438.8989389542448976
 20
48.2114781392983716
 30
0.0
 40
0.0544804266380232
 50
89.2016082494636606
 51
145.920163432492501
  0
ARC
  5
E685
  8
0
 10
438.9003565706112795
 20
48.2113004644372722
 30
0.0
 40
0.0546567789718413
 50
34.1590461820268771
 51
90.690290072603446
  0
ARC
  5
E686
  8
0
 10
438.9046169950422041
 20
48.2156801201047003
 30
0.0
 40
0.0486877991217046
 50
9.7683947452362272
 51
32.7092011388182868
  0
CIRCLE
  5
E687
  8
0
 10
439.1237286947767871
 20
48.2143727462937406
 30
0.0
 40
0.0143903719476049
  0
ARC
  5
E688
  8
0
 10
439.1233053484032212
 20
48.2161724432134804
 30
0.0
 40
0.0365253359817761
 50
357.1499645319573233
 51
222.6391401675163877
  0
ARC
  5
E689
  8
0
 10
439.1225047419674752
 20
48.218384751268843
 30
0.0
 40
0.0374977805300558
 50
225.9563443059051906
 51
353.8327603935708225
  0
LINE
  5
E68A
  8
0
 10
439.1621073027060902
 20
48.2390283431325102
 30
0.0
 11
439.1597855060794018
 21
48.214356330744998
 31
0.0
  0
LINE
  5
E68B
  8
0
 10
439.1640422994403821
 20
48.2353705044062409
 30
0.0
 11
439.1611903878151111
 21
48.2292744015220833
 31
0.0
  0
ARC
  5
E68C
  8
0
 10
439.1055590631507926
 20
48.2412088786583482
 30
0.0
 40
0.0417315291872035
 50
195.0479620215407124
 51
225.0265305960533055
  0
ARC
  5
E68D
  8
0
 10
439.110173562260627
 20
48.2394022109337328
 30
0.0
 40
0.049899500385862
 50
198.3919352992215011
 51
254.0198925249981983
  0
ARC
  5
E68E
  8
0
 10
439.1159755868109187
 20
48.2081815145051706
 30
0.0
 40
0.0553600354541173
 50
90.3059970202494782
 51
163.7658596533478033
  0
ARC
  5
E68F
  8
0
 10
439.1192040271960195
 20
48.2139917838115579
 30
0.0
 40
0.0496741416848831
 50
25.4916316658373994
 51
94.068227226212997
  0
LINE
  5
E690
  8
0
 10
439.0760636322366963
 20
48.2116861532418923
 30
0.0
 11
439.0964360502306931
 21
48.1914309601475921
 31
0.0
  0
ARC
  5
E691
  8
0
 10
439.0081612333386261
 20
48.1475399157726329
 30
0.0
 40
0.0450621011682913
 50
343.0337665919416281
 51
358.9438489737618738
  0
ARC
  5
E692
  8
0
 10
-613.7785654099911881
 20
366.7440240875797031
 30
0.0
 40
1099.9830654771560603
 50
343.1617873900037807
 51
343.1630219049936272
  0
ARC
  5
E693
  8
0
 10
439.4025496321170863
 20
48.4388122019367202
 30
0.0
 40
0.5423591623899794
 50
216.1829172824955094
 51
218.7190646913178114
  0
ARC
  5
E694
  8
0
 10
439.0024988068462903
 20
48.1417445668715871
 30
0.0
 40
0.0442318316900508
 50
178.519013802683105
 51
211.5169993053758901
  0
ARC
  5
E695
  8
0
 10
439.0068935239550001
 20
48.1156501373806833
 30
0.0
 40
0.0557224545037328
 50
33.7701085494445579
 51
150.7377011082598983
  0
ARC
  5
E696
  8
0
 10
439.0109019407076971
 20
48.1215392542407017
 30
0.0
 40
0.0491891965799048
 50
14.7638570686914594
 51
30.6616476118411505
  0
ARC
  5
E697
  8
0
 10
439.0013586648005912
 20
48.1485384880556211
 30
0.0
 40
0.058911672748912
 50
313.8243287734414935
 51
345.7873630174810273
  0
ARC
  5
E698
  8
0
 10
439.008734875783091
 20
48.1225458004765017
 30
0.0
 40
0.0372731722547318
 50
218.0640942799822142
 51
343.0927001006967885
  0
ARC
  5
E699
  8
0
 10
438.9983538735573916
 20
48.1215620047647903
 30
0.0
 40
0.0453934175768482
 50
151.9788061029761934
 51
171.3951871641151001
  0
ARC
  5
E69A
  8
0
 10
438.9996278270388075
 20
48.1362063580024966
 30
0.0
 40
0.0468196423072168
 50
189.6553712854195908
 51
257.9182409232629993
  0
CIRCLE
  5
E69B
  8
0
 10
439.0092031367789787
 20
48.1189718619140478
 30
0.0
 40
0.0139380654420153
  0
ARC
  5
E69C
  8
0
 10
439.0089572834675096
 20
48.1213548880188497
 30
0.0
 40
0.0367297594269825
 50
344.7694806360614166
 51
216.3872358000922134
  0
ARC
  5
E69D
  8
0
 10
438.8985877513688934
 20
48.0265365254483996
 30
0.0
 40
0.0358066933289064
 50
88.2291415456695631
 51
206.2335831975454141
  0
ARC
  5
E69E
  8
0
 10
438.900638438603778
 20
48.0264319985006978
 30
0.0
 40
0.0359065351033402
 50
334.0304561247901916
 51
91.5067861291312283
  0
ARC
  5
E69F
  8
0
 10
438.8990263186570928
 20
48.0272844378624271
 30
0.0
 40
0.0365338032268466
 50
206.981706824473207
 51
239.042093304653207
  0
ARC
  5
E6A0
  8
0
 10
438.9003778872992143
 20
48.0272699319604968
 30
0.0
 40
0.0365132990864793
 50
300.9485179229646974
 51
333.0273390434757061
  0
ARC
  5
E6A1
  8
0
 10
438.8996942637170946
 20
48.028398775317747
 30
0.0
 40
0.0378329946630911
 50
239.0427461509617046
 51
300.9572536051146017
  0
ARC
  5
E6A2
  8
0
 10
438.8999835582721971
 20
48.024110683205592
 30
0.0
 40
0.014204651366641
 50
358.4775229574451032
 51
91.1669768893659835
  0
ARC
  5
E6A3
  8
0
 10
438.8995071052231083
 20
48.0239647583263789
 30
0.0
 40
0.014348850677023
 50
89.2526440348323575
 51
171.3659204181450946
  0
ARC
  5
E6A4
  8
0
 10
438.8993131571713775
 20
48.0243363321530694
 30
0.0
 40
0.0141053748099289
 50
172.7400042878969089
 51
271.5482589867729075
  0
ARC
  5
E6A5
  8
0
 10
438.8999122556797943
 20
48.0245274653749732
 30
0.0
 40
0.0142930208502183
 50
269.1261340214539928
 51
356.8147379108557971
  0
ARC
  5
E6A6
  8
0
 10
438.6330063528275787
 20
48.169682054663518
 30
0.0
 40
0.3394412037216693
 50
332.0735194336252789
 51
336.4631007705215211
  0
ARC
  5
E6A7
  8
0
 10
438.9001586762673242
 20
48.0457113390154333
 30
0.0
 40
0.0532594440199804
 50
290.8967215145434011
 51
349.9141643215353952
  0
ARC
  5
E6A8
  8
0
 10
438.8947173927319909
 20
48.0469896385786228
 30
0.0
 40
0.0415807736790131
 50
169.6645264771001962
 51
202.0078634069039936
  0
ARC
  5
E6A9
  8
0
 10
439.5184664446168199
 20
48.3481453709406779
 30
0.0
 40
0.7341415534760241
 50
205.5589310450793903
 51
207.3632089538112098
  0
ARC
  5
E6AA
  8
0
 10
438.8988053916480112
 20
48.0453603407637928
 30
0.0
 40
0.0527808320336663
 50
189.7956904907725004
 51
249.3978358420899042
  0
ARC
  5
E6AB
  8
0
 10
438.9048786986203936
 20
48.0469878276569418
 30
0.0
 40
0.0413769631460464
 50
341.8952868632911191
 51
10.3665477643374206
  0
ARC
  5
E6AC
  8
0
 10
438.894960609792804
 20
48.028072065222851
 30
0.0
 40
0.0488778593639866
 50
147.3392112796080085
 51
170.2131891042425025
  0
ARC
  5
E6AD
  8
0
 10
438.8989351290081231
 20
48.0239217270203511
 30
0.0
 40
0.0544804266380232
 50
89.2016082494636606
 51
145.920163432492501
  0
ARC
  5
E6AE
  8
0
 10
438.900352745374505
 20
48.0237440521592589
 30
0.0
 40
0.0546567789718413
 50
34.1590461820268771
 51
90.690290072603446
  0
ARC
  5
E6AF
  8
0
 10
438.9046131698053159
 20
48.0281237078266798
 30
0.0
 40
0.0486877991217046
 50
9.7683947452362272
 51
32.7092011388182868
  0
CIRCLE
  5
E6B0
  8
0
 10
439.1237248695398989
 20
48.0268163340157201
 30
0.0
 40
0.0143903719476049
  0
ARC
  5
E6B1
  8
0
 10
439.1233015231662762
 20
48.0286160309354599
 30
0.0
 40
0.0365253359817761
 50
357.1499645319573233
 51
222.6391401675163877
  0
ARC
  5
E6B2
  8
0
 10
439.1225009167307007
 20
48.0308283389908226
 30
0.0
 40
0.0374977805300558
 50
225.9563443059051906
 51
353.8327603935708225
  0
LINE
  5
E6B3
  8
0
 10
439.1621034774693157
 20
48.0514719308544898
 30
0.0
 11
439.1597816808426273
 21
48.0267999184669776
 31
0.0
  0
LINE
  5
E6B4
  8
0
 10
439.1640384742036076
 20
48.0478140921282204
 30
0.0
 11
439.1611865625782229
 21
48.04171798924407
 31
0.0
  0
ARC
  5
E6B5
  8
0
 10
439.105555237914075
 20
48.0536524663803419
 30
0.0
 40
0.0417315291872035
 50
195.0479620215407124
 51
225.0265305960533055
  0
ARC
  5
E6B6
  8
0
 10
439.110169737023682
 20
48.0518457986557124
 30
0.0
 40
0.049899500385862
 50
198.3919352992215011
 51
254.0198925249981983
  0
ARC
  5
E6B7
  8
0
 10
439.1159717615740874
 20
48.0206251022271573
 30
0.0
 40
0.0553600354541173
 50
90.3059970202494782
 51
163.7658596533478033
  0
ARC
  5
E6B8
  8
0
 10
439.1192002019590745
 20
48.0264353715335375
 30
0.0
 40
0.0496741416848831
 50
25.4916316658373994
 51
94.068227226212997
  0
LINE
  5
E6B9
  8
0
 10
439.0760598069999219
 20
48.0241297409638719
 30
0.0
 11
439.0964322249939187
 21
48.0038745478695716
 31
0.0
  0
ARC
  5
E6BA
  8
0
 10
439.0081574081016811
 20
47.9599835034946196
 30
0.0
 40
0.0450621011682913
 50
343.0337665919416281
 51
358.9438489737618738
  0
ARC
  5
E6BB
  8
0
 10
-613.7785692352282467
 20
366.5564676753016897
 30
0.0
 40
1099.9830654771560603
 50
343.1617873900037807
 51
343.1630219049936272
  0
ARC
  5
E6BC
  8
0
 10
439.4025458068803118
 20
48.2512557896587069
 30
0.0
 40
0.5423591623899794
 50
216.1829172824955094
 51
218.7190646913178114
  0
ARC
  5
E6BD
  8
0
 10
439.0024949816095159
 20
47.9541881545935809
 30
0.0
 40
0.0442318316900508
 50
178.519013802683105
 51
211.5169993053758901
  0
ARC
  5
E6BE
  8
0
 10
439.0068896987182256
 20
47.9280937251026629
 30
0.0
 40
0.0557224545037328
 50
33.7701085494445579
 51
150.7377011082598983
  0
ARC
  5
E6BF
  8
0
 10
439.0108981154709227
 20
47.9339828419626883
 30
0.0
 40
0.0491891965799048
 50
14.7638570686914594
 51
30.6616476118411505
  0
ARC
  5
E6C0
  8
0
 10
439.0013548395637031
 20
47.9609820757776006
 30
0.0
 40
0.058911672748912
 50
313.8243287734414935
 51
345.7873630174810273
  0
ARC
  5
E6C1
  8
0
 10
439.0087310505463165
 20
47.9349893881984812
 30
0.0
 40
0.0372731722547318
 50
218.0640942799822142
 51
343.0927001006967885
  0
ARC
  5
E6C2
  8
0
 10
438.9983500483205034
 20
47.9340055924867769
 30
0.0
 40
0.0453934175768482
 50
151.9788061029761934
 51
171.3951871641151001
  0
ARC
  5
E6C3
  8
0
 10
438.9996240018019193
 20
47.9486499457244832
 30
0.0
 40
0.0468196423072168
 50
189.6553712854195908
 51
257.9182409232629993
  0
CIRCLE
  5
E6C4
  8
0
 10
439.0091993115420905
 20
47.9314154496360274
 30
0.0
 40
0.0139380654420153
  0
ARC
  5
E6C5
  8
0
 10
439.0089534582306214
 20
47.9337984757408293
 30
0.0
 40
0.0367297594269825
 50
344.7694806360614166
 51
216.3872358000922134
  0
ARC
  5
E6C6
  8
0
 10
438.8965206890143236
 20
47.83896210986466
 30
0.0
 40
0.0358066933289064
 50
88.2291415456695631
 51
206.2335831975454141
  0
ARC
  5
E6C7
  8
0
 10
438.8985713762493219
 20
47.8388575829169511
 30
0.0
 40
0.0359065351033402
 50
334.0304561247901916
 51
91.5067861291312283
  0
ARC
  5
E6C8
  8
0
 10
438.8969592563026936
 20
47.8397100222786875
 30
0.0
 40
0.0365338032268466
 50
206.981706824473207
 51
239.042093304653207
  0
ARC
  5
E6C9
  8
0
 10
438.8983108249447014
 20
47.8396955163767572
 30
0.0
 40
0.0365132990864793
 50
300.9485179229646974
 51
333.0273390434757061
  0
ARC
  5
E6CA
  8
0
 10
438.8976272013625817
 20
47.8408243597340075
 30
0.0
 40
0.0378329946630911
 50
239.0427461509617046
 51
300.9572536051146017
  0
ARC
  5
E6CB
  8
0
 10
438.8979164959176842
 20
47.8365362676218524
 30
0.0
 40
0.014204651366641
 50
358.4775229574451032
 51
91.1669768893659835
  0
ARC
  5
E6CC
  8
0
 10
438.8974400428684817
 20
47.8363903427426465
 30
0.0
 40
0.014348850677023
 50
89.2526440348323575
 51
171.3659204181450946
  0
ARC
  5
E6CD
  8
0
 10
438.8972460948169214
 20
47.8367619165693228
 30
0.0
 40
0.0141053748099289
 50
172.7400042878969089
 51
271.5482589867729075
  0
ARC
  5
E6CE
  8
0
 10
438.8978451933252813
 20
47.8369530497912194
 30
0.0
 40
0.0142930208502183
 50
269.1261340214539928
 51
356.8147379108557971
  0
ARC
  5
E6CF
  8
0
 10
438.6309392904730089
 20
47.9821076390797714
 30
0.0
 40
0.3394412037216693
 50
332.0735194336252789
 51
336.4631007705215211
  0
ARC
  5
E6D0
  8
0
 10
438.8980916139129249
 20
47.8581369234316796
 30
0.0
 40
0.0532594440199804
 50
290.8967215145434011
 51
349.9141643215353952
  0
ARC
  5
E6D1
  8
0
 10
438.892650330377478
 20
47.8594152229948833
 30
0.0
 40
0.0415807736790131
 50
169.6645264771001962
 51
202.0078634069039936
  0
ARC
  5
E6D2
  8
0
 10
439.516399382262307
 20
48.1605709553569312
 30
0.0
 40
0.7341415534760241
 50
205.5589310450793903
 51
207.3632089538112098
  0
ARC
  5
E6D3
  8
0
 10
438.8967383292934983
 20
47.8577859251800533
 30
0.0
 40
0.0527808320336663
 50
189.7956904907725004
 51
249.3978358420899042
  0
ARC
  5
E6D4
  8
0
 10
438.9028116362658238
 20
47.859413412073188
 30
0.0
 40
0.0413769631460464
 50
341.8952868632911191
 51
10.3665477643374206
  0
ARC
  5
E6D5
  8
0
 10
438.8928935474382911
 20
47.8404976496391185
 30
0.0
 40
0.0488778593639866
 50
147.3392112796080085
 51
170.2131891042425025
  0
ARC
  5
E6D6
  8
0
 10
438.8968680666534965
 20
47.8363473114366116
 30
0.0
 40
0.0544804266380232
 50
89.2016082494636606
 51
145.920163432492501
  0
ARC
  5
E6D7
  8
0
 10
438.8982856830199921
 20
47.8361696365755193
 30
0.0
 40
0.0546567789718413
 50
34.1590461820268771
 51
90.690290072603446
  0
ARC
  5
E6D8
  8
0
 10
438.902546107450803
 20
47.8405492922429474
 30
0.0
 40
0.0486877991217046
 50
9.7683947452362272
 51
32.7092011388182868
  0
CIRCLE
  5
E6D9
  8
0
 10
439.121657807185386
 20
47.8392419184319806
 30
0.0
 40
0.0143903719476049
  0
ARC
  5
E6DA
  8
0
 10
439.1212344608118769
 20
47.8410416153517204
 30
0.0
 40
0.0365253359817761
 50
357.1499645319573233
 51
222.6391401675163877
  0
ARC
  5
E6DB
  8
0
 10
439.1204338543761878
 20
47.8432539234070831
 30
0.0
 40
0.0374977805300558
 50
225.9563443059051906
 51
353.8327603935708225
  0
LINE
  5
E6DC
  8
0
 10
439.1600364151146891
 20
47.8638975152707502
 30
0.0
 11
439.1577146184880007
 21
47.8392255028832381
 31
0.0
  0
LINE
  5
E6DD
  8
0
 10
439.161971411848981
 20
47.860239676544488
 30
0.0
 11
439.15911950022371
 21
47.8541435736603304
 31
0.0
  0
ARC
  5
E6DE
  8
0
 10
439.1034881755595052
 20
47.8660780507966024
 30
0.0
 40
0.0417315291872035
 50
195.0479620215407124
 51
225.0265305960533055
  0
ARC
  5
E6DF
  8
0
 10
439.108102674669226
 20
47.8642713830719728
 30
0.0
 40
0.049899500385862
 50
198.3919352992215011
 51
254.0198925249981983
  0
ARC
  5
E6E0
  8
0
 10
439.1139046992195745
 20
47.833050686643432
 30
0.0
 40
0.0553600354541173
 50
90.3059970202494782
 51
163.7658596533478033
  0
ARC
  5
E6E1
  8
0
 10
439.1171331396046185
 20
47.8388609559497979
 30
0.0
 40
0.0496741416848831
 50
25.4916316658373994
 51
94.068227226212997
  0
LINE
  5
E6E2
  8
0
 10
439.0739927446452953
 20
47.8365553253801394
 30
0.0
 11
439.0943651626392921
 21
47.8163001322858321
 31
0.0
  0
ARC
  5
E6E3
  8
0
 10
439.006090345747225
 20
47.77240908791088
 30
0.0
 40
0.0450621011682913
 50
343.0337665919416281
 51
358.9438489737618738
  0
ARC
  5
E6E4
  8
0
 10
-613.780636297582646
 20
366.3688932597178791
 30
0.0
 40
1099.9830654771560603
 50
343.1617873900037807
 51
343.1630219049936272
  0
ARC
  5
E6E5
  8
0
 10
439.4004787445257989
 20
48.0636813740749673
 30
0.0
 40
0.5423591623899794
 50
216.1829172824955094
 51
218.7190646913178114
  0
ARC
  5
E6E6
  8
0
 10
439.000427919255003
 20
47.7666137390098413
 30
0.0
 40
0.0442318316900508
 50
178.519013802683105
 51
211.5169993053758901
  0
ARC
  5
E6E7
  8
0
 10
439.0048226363638264
 20
47.7405193095189233
 30
0.0
 40
0.0557224545037328
 50
33.7701085494445579
 51
150.7377011082598983
  0
ARC
  5
E6E8
  8
0
 10
439.0088310531162961
 20
47.7464084263789488
 30
0.0
 40
0.0491891965799048
 50
14.7638570686914594
 51
30.6616476118411505
  0
ARC
  5
E6E9
  8
0
 10
438.9992877772093038
 20
47.7734076601938682
 30
0.0
 40
0.058911672748912
 50
313.8243287734414935
 51
345.7873630174810273
  0
ARC
  5
E6EA
  8
0
 10
439.0066639881918036
 20
47.7474149726147417
 30
0.0
 40
0.0372731722547318
 50
218.0640942799822142
 51
343.0927001006967885
  0
ARC
  5
E6EB
  8
0
 10
438.9962829859661042
 20
47.7464311769030374
 30
0.0
 40
0.0453934175768482
 50
151.9788061029761934
 51
171.3951871641151001
  0
ARC
  5
E6EC
  8
0
 10
438.9975569394474064
 20
47.7610755301407366
 30
0.0
 40
0.0468196423072168
 50
189.6553712854195908
 51
257.9182409232629993
  0
CIRCLE
  5
E6ED
  8
0
 10
439.0071322491875776
 20
47.7438410340522879
 30
0.0
 40
0.0139380654420153
  0
ARC
  5
E6EE
  8
0
 10
439.0068863958761085
 20
47.7462240601570898
 30
0.0
 40
0.0367297594269825
 50
344.7694806360614166
 51
216.3872358000922134
  0
ARC
  5
E6EF
  8
0
 10
438.8985408922176248
 20
47.652132864220242
 30
0.0
 40
0.0358066933289064
 50
88.2291415456695631
 51
206.2335831975454141
  0
ARC
  5
E6F0
  8
0
 10
438.9005915794526231
 20
47.6520283372725331
 30
0.0
 40
0.0359065351033402
 50
334.0304561247901916
 51
91.5067861291312283
  0
ARC
  5
E6F1
  8
0
 10
438.8989794595059948
 20
47.6528807766342695
 30
0.0
 40
0.0365338032268466
 50
206.981706824473207
 51
239.042093304653207
  0
ARC
  5
E6F2
  8
0
 10
438.9003310281480026
 20
47.6528662707323392
 30
0.0
 40
0.0365132990864793
 50
300.9485179229646974
 51
333.0273390434757061
  0
ARC
  5
E6F3
  8
0
 10
438.8996474045658829
 20
47.6539951140895965
 30
0.0
 40
0.0378329946630911
 50
239.0427461509617046
 51
300.9572536051146017
  0
ARC
  5
E6F4
  8
0
 10
438.8999366991209854
 20
47.6497070219774272
 30
0.0
 40
0.014204651366641
 50
358.4775229574451032
 51
91.1669768893659835
  0
ARC
  5
E6F5
  8
0
 10
438.8994602460717829
 20
47.6495610970982284
 30
0.0
 40
0.014348850677023
 50
89.2526440348323575
 51
171.3659204181450946
  0
ARC
  5
E6F6
  8
0
 10
438.8992662980202226
 20
47.6499326709249118
 30
0.0
 40
0.0141053748099289
 50
172.7400042878969089
 51
271.5482589867729075
  0
ARC
  5
E6F7
  8
0
 10
438.8998653965285826
 20
47.6501238041468014
 30
0.0
 40
0.0142930208502183
 50
269.1261340214539928
 51
356.8147379108557971
  0
ARC
  5
E6F8
  8
0
 10
438.6329594936763101
 20
47.7952783934353533
 30
0.0
 40
0.3394412037216693
 50
332.0735194336252789
 51
336.4631007705215211
  0
ARC
  5
E6F9
  8
0
 10
438.9001118171162261
 20
47.6713076777872615
 30
0.0
 40
0.0532594440199804
 50
290.8967215145434011
 51
349.9141643215353952
  0
ARC
  5
E6FA
  8
0
 10
438.8946705335807792
 20
47.6725859773504581
 30
0.0
 40
0.0415807736790131
 50
169.6645264771001962
 51
202.0078634069039936
  0
ARC
  5
E6FB
  8
0
 10
439.5184195854656082
 20
47.9737417097125132
 30
0.0
 40
0.7341415534760241
 50
205.5589310450793903
 51
207.3632089538112098
  0
ARC
  5
E6FC
  8
0
 10
438.8987585324967995
 20
47.6709566795356281
 30
0.0
 40
0.0527808320336663
 50
189.7956904907725004
 51
249.3978358420899042
  0
ARC
  5
E6FD
  8
0
 10
438.904831839469125
 20
47.6725841664287699
 30
0.0
 40
0.0413769631460464
 50
341.8952868632911191
 51
10.3665477643374206
  0
ARC
  5
E6FE
  8
0
 10
438.8949137506415923
 20
47.6536684039947005
 30
0.0
 40
0.0488778593639866
 50
147.3392112796080085
 51
170.2131891042425025
  0
ARC
  5
E6FF
  8
0
 10
438.8988882698567977
 20
47.6495180657921935
 30
0.0
 40
0.0544804266380232
 50
89.2016082494636606
 51
145.920163432492501
  0
ARC
  5
E700
  8
0
 10
438.9003058862232933
 20
47.6493403909311013
 30
0.0
 40
0.0546567789718413
 50
34.1590461820268771
 51
90.690290072603446
  0
ARC
  5
E701
  8
0
 10
438.9045663106541042
 20
47.6537200465985293
 30
0.0
 40
0.0486877991217046
 50
9.7683947452362272
 51
32.7092011388182868
  0
CIRCLE
  5
E702
  8
0
 10
439.1236780103886872
 20
47.6524126727875625
 30
0.0
 40
0.0143903719476049
  0
ARC
  5
E703
  8
0
 10
439.1232546640151782
 20
47.6542123697073023
 30
0.0
 40
0.0365253359817761
 50
357.1499645319573233
 51
222.6391401675163877
  0
ARC
  5
E704
  8
0
 10
439.122454057579489
 20
47.6564246777626579
 30
0.0
 40
0.0374977805300558
 50
225.9563443059051906
 51
353.8327603935708225
  0
LINE
  5
E705
  8
0
 10
439.1620566183179903
 20
47.6770682696263322
 30
0.0
 11
439.1597348216913019
 21
47.65239625723882
 31
0.0
  0
LINE
  5
E706
  8
0
 10
439.1639916150522822
 20
47.6734104309000699
 30
0.0
 11
439.1611397034270112
 21
47.6673143280159124
 31
0.0
  0
ARC
  5
E707
  8
0
 10
439.1055083787628064
 20
47.6792488051521772
 30
0.0
 40
0.0417315291872035
 50
195.0479620215407124
 51
225.0265305960533055
  0
ARC
  5
E708
  8
0
 10
439.1101228778725272
 20
47.6774421374275477
 30
0.0
 40
0.049899500385862
 50
198.3919352992215011
 51
254.0198925249981983
  0
ARC
  5
E709
  8
0
 10
439.1159249024228757
 20
47.6462214409990068
 30
0.0
 40
0.0553600354541173
 50
90.3059970202494782
 51
163.7658596533478033
  0
ARC
  5
E70A
  8
0
 10
439.1191533428079197
 20
47.6520317103053799
 30
0.0
 40
0.0496741416848831
 50
25.4916316658373994
 51
94.068227226212997
  0
LINE
  5
E70B
  8
0
 10
439.0760129478485965
 20
47.6497260797357214
 30
0.0
 11
439.0963853658425933
 21
47.6294708866414069
 31
0.0
  0
ARC
  5
E70C
  8
0
 10
439.0081105489505262
 20
47.585579842266462
 30
0.0
 40
0.0450621011682913
 50
343.0337665919416281
 51
358.9438489737618738
  0
ARC
  5
E70D
  8
0
 10
-613.7786160943793448
 20
366.1820640140733758
 30
0.0
 40
1099.9830654771560603
 50
343.1617873900037807
 51
343.1630219049936272
  0
ARC
  5
E70E
  8
0
 10
439.4024989477291001
 20
47.8768521284305493
 30
0.0
 40
0.5423591623899794
 50
216.1829172824955094
 51
218.7190646913178114
  0
ARC
  5
E70F
  8
0
 10
439.0024481224583042
 20
47.5797844933654233
 30
0.0
 40
0.0442318316900508
 50
178.519013802683105
 51
211.5169993053758901
  0
ARC
  5
E710
  8
0
 10
439.0068428395671276
 20
47.5536900638744982
 30
0.0
 40
0.0557224545037328
 50
33.7701085494445579
 51
150.7377011082598983
  0
ARC
  5
E711
  8
0
 10
439.0108512563195973
 20
47.5595791807345307
 30
0.0
 40
0.0491891965799048
 50
14.7638570686914594
 51
30.6616476118411505
  0
ARC
  5
E712
  8
0
 10
439.001307980412605
 20
47.5865784145494501
 30
0.0
 40
0.058911672748912
 50
313.8243287734414935
 51
345.7873630174810273
  0
ARC
  5
E713
  8
0
 10
439.0086841913951048
 20
47.5605857269703165
 30
0.0
 40
0.0372731722547318
 50
218.0640942799822142
 51
343.0927001006967885
  0
ARC
  5
E714
  8
0
 10
438.9983031891694054
 20
47.5596019312586193
 30
0.0
 40
0.0453934175768482
 50
151.9788061029761934
 51
171.3951871641151001
  0
ARC
  5
E715
  8
0
 10
438.9995771426507076
 20
47.5742462844963327
 30
0.0
 40
0.0468196423072168
 50
189.6553712854195908
 51
257.9182409232629993
  0
CIRCLE
  5
E716
  8
0
 10
439.0091524523908788
 20
47.5570117884078698
 30
0.0
 40
0.0139380654420153
  0
ARC
  5
E717
  8
0
 10
439.0089065990794097
 20
47.5593948145126717
 30
0.0
 40
0.0367297594269825
 50
344.7694806360614166
 51
216.3872358000922134
  0
ARC
  5
E718
  8
0
 10
438.8994183059165834
 20
47.4647512390031991
 30
0.0
 40
0.0358066933289064
 50
88.2291415456695631
 51
206.2335831975454141
  0
ARC
  5
E719
  8
0
 10
438.901468993151525
 20
47.4646467120554973
 30
0.0
 40
0.0359065351033402
 50
334.0304561247901916
 51
91.5067861291312283
  0
ARC
  5
E71A
  8
0
 10
438.8998568732048966
 20
47.4654991514172266
 30
0.0
 40
0.0365338032268466
 50
206.981706824473207
 51
239.042093304653207
  0
ARC
  5
E71B
  8
0
 10
438.9012084418469044
 20
47.4654846455153034
 30
0.0
 40
0.0365132990864793
 50
300.9485179229646974
 51
333.0273390434757061
  0
ARC
  5
E71C
  8
0
 10
438.9005248182647847
 20
47.4666134888725466
 30
0.0
 40
0.0378329946630911
 50
239.0427461509617046
 51
300.9572536051146017
  0
ARC
  5
E71D
  8
0
 10
438.9008141128200009
 20
47.4623253967603773
 30
0.0
 40
0.014204651366641
 50
358.4775229574451032
 51
91.1669768893659835
  0
ARC
  5
E71E
  8
0
 10
438.9003376597707984
 20
47.4621794718811785
 30
0.0
 40
0.014348850677023
 50
89.2526440348323575
 51
171.3659204181450946
  0
ARC
  5
E71F
  8
0
 10
438.9001437117191244
 20
47.462551045707869
 30
0.0
 40
0.0141053748099289
 50
172.7400042878969089
 51
271.5482589867729075
  0
ARC
  5
E720
  8
0
 10
438.9007428102274844
 20
47.4627421789297728
 30
0.0
 40
0.0142930208502183
 50
269.1261340214539928
 51
356.8147379108557971
  0
ARC
  5
E721
  8
0
 10
438.6338369073753256
 20
47.6078967682183176
 30
0.0
 40
0.3394412037216693
 50
332.0735194336252789
 51
336.4631007705215211
  0
ARC
  5
E722
  8
0
 10
438.9009892308151279
 20
47.4839260525702329
 30
0.0
 40
0.0532594440199804
 50
290.8967215145434011
 51
349.9141643215353952
  0
ARC
  5
E723
  8
0
 10
438.895547947279681
 20
47.4852043521334224
 30
0.0
 40
0.0415807736790131
 50
169.6645264771001962
 51
202.0078634069039936
  0
ARC
  5
E724
  8
0
 10
439.51929699916451
 20
47.7863600844954775
 30
0.0
 40
0.7341415534760241
 50
205.5589310450793903
 51
207.3632089538112098
  0
ARC
  5
E725
  8
0
 10
438.899635946195815
 20
47.4835750543185924
 30
0.0
 40
0.0527808320336663
 50
189.7956904907725004
 51
249.3978358420899042
  0
ARC
  5
E726
  8
0
 10
438.9057092531680837
 20
47.4852025412117271
 30
0.0
 40
0.0413769631460464
 50
341.8952868632911191
 51
10.3665477643374206
  0
ARC
  5
E727
  8
0
 10
438.8957911643404941
 20
47.4662867787776506
 30
0.0
 40
0.0488778593639866
 50
147.3392112796080085
 51
170.2131891042425025
  0
ARC
  5
E728
  8
0
 10
438.8997656835558132
 20
47.4621364405751365
 30
0.0
 40
0.0544804266380232
 50
89.2016082494636606
 51
145.920163432492501
  0
ARC
  5
E729
  8
0
 10
438.9011832999221951
 20
47.4619587657140514
 30
0.0
 40
0.0546567789718413
 50
34.1590461820268771
 51
90.690290072603446
  0
ARC
  5
E72A
  8
0
 10
438.905443724353006
 20
47.4663384213814794
 30
0.0
 40
0.0486877991217046
 50
9.7683947452362272
 51
32.7092011388182868
  0
CIRCLE
  5
E72B
  8
0
 10
439.124555424087589
 20
47.4650310475705197
 30
0.0
 40
0.0143903719476049
  0
ARC
  5
E72C
  8
0
 10
439.12413207771408
 20
47.4668307444902595
 30
0.0
 40
0.0365253359817761
 50
357.1499645319573233
 51
222.6391401675163877
  0
ARC
  5
E72D
  8
0
 10
439.1233314712785045
 20
47.4690430525456222
 30
0.0
 40
0.0374977805300558
 50
225.9563443059051906
 51
353.8327603935708225
  0
LINE
  5
E72E
  8
0
 10
439.1629340320171195
 20
47.4896866444092893
 30
0.0
 11
439.1606122353903743
 21
47.4650146320217772
 31
0.0
  0
LINE
  5
E72F
  8
0
 10
439.1648690287512977
 20
47.48602880568302
 30
0.0
 11
439.1620171171260267
 21
47.4799327027988696
 31
0.0
  0
ARC
  5
E730
  8
0
 10
439.1063857924618219
 20
47.4918671799351415
 30
0.0
 40
0.0417315291872035
 50
195.0479620215407124
 51
225.0265305960533055
  0
ARC
  5
E731
  8
0
 10
439.1110002915714858
 20
47.4900605122105119
 30
0.0
 40
0.049899500385862
 50
198.3919352992215011
 51
254.0198925249981983
  0
ARC
  5
E732
  8
0
 10
439.1168023161218912
 20
47.4588398157819569
 30
0.0
 40
0.0553600354541173
 50
90.3059970202494782
 51
163.7658596533478033
  0
ARC
  5
E733
  8
0
 10
439.1200307565068783
 20
47.4646500850883371
 30
0.0
 40
0.0496741416848831
 50
25.4916316658373994
 51
94.068227226212997
  0
LINE
  5
E734
  8
0
 10
439.0768903615477257
 20
47.4623444545186715
 30
0.0
 11
439.0972627795417225
 21
47.442089261424357
 31
0.0
  0
ARC
  5
E735
  8
0
 10
439.008987962649428
 20
47.3981982170494192
 30
0.0
 40
0.0450621011682913
 50
343.0337665919416281
 51
358.9438489737618738
  0
ARC
  5
E736
  8
0
 10
-613.7777386806804998
 20
365.994682388856404
 30
0.0
 40
1099.9830654771560603
 50
343.1617873900037807
 51
343.1630219049936272
  0
ARC
  5
E737
  8
0
 10
439.4033763614280019
 20
47.6894705032135136
 30
0.0
 40
0.5423591623899794
 50
216.1829172824955094
 51
218.7190646913178114
  0
ARC
  5
E738
  8
0
 10
439.003325536157206
 20
47.3924028681483804
 30
0.0
 40
0.0442318316900508
 50
178.519013802683105
 51
211.5169993053758901
  0
ARC
  5
E739
  8
0
 10
439.0077202532659726
 20
47.3663084386574624
 30
0.0
 40
0.0557224545037328
 50
33.7701085494445579
 51
150.7377011082598983
  0
ARC
  5
E73A
  8
0
 10
439.0117286700187265
 20
47.3721975555174808
 30
0.0
 40
0.0491891965799048
 50
14.7638570686914594
 51
30.6616476118411505
  0
ARC
  5
E73B
  8
0
 10
439.0021853941115069
 20
47.3991967893324002
 30
0.0
 40
0.058911672748912
 50
313.8243287734414935
 51
345.7873630174810273
  0
ARC
  5
E73C
  8
0
 10
439.0095616050940066
 20
47.3732041017532666
 30
0.0
 40
0.0372731722547318
 50
218.0640942799822142
 51
343.0927001006967885
  0
ARC
  5
E73D
  8
0
 10
438.9991806028683072
 20
47.3722203060415765
 30
0.0
 40
0.0453934175768482
 50
151.9788061029761934
 51
171.3951871641151001
  0
ARC
  5
E73E
  8
0
 10
439.0004545563497231
 20
47.3868646592792828
 30
0.0
 40
0.0468196423072168
 50
189.6553712854195908
 51
257.9182409232629993
  0
CIRCLE
  5
E73F
  8
0
 10
439.0100298660898943
 20
47.369630163190827
 30
0.0
 40
0.0139380654420153
  0
ARC
  5
E740
  8
0
 10
439.0097840127784252
 20
47.3720131892956289
 30
0.0
 40
0.0367297594269825
 50
344.7694806360614166
 51
216.3872358000922134
  0
ARC
  5
E741
  8
0
 10
438.8995708372353874
 20
47.2752949414478607
 30
0.0
 40
0.0358066933289064
 50
88.2291415456695631
 51
206.2335831975454141
  0
ARC
  5
E742
  8
0
 10
438.9016215244702721
 20
47.2751904145001518
 30
0.0
 40
0.0359065351033402
 50
334.0304561247901916
 51
91.5067861291312283
  0
ARC
  5
E743
  8
0
 10
438.9000094045237006
 20
47.2760428538618882
 30
0.0
 40
0.0365338032268466
 50
206.981706824473207
 51
239.042093304653207
  0
ARC
  5
E744
  8
0
 10
438.9013609731657084
 20
47.2760283479599579
 30
0.0
 40
0.0365132990864793
 50
300.9485179229646974
 51
333.0273390434757061
  0
ARC
  5
E745
  8
0
 10
438.9006773495837024
 20
47.2771571913172224
 30
0.0
 40
0.0378329946630911
 50
239.0427461509617046
 51
300.9572536051146017
  0
ARC
  5
E746
  8
0
 10
438.9009666441388049
 20
47.2728690992050531
 30
0.0
 40
0.014204651366641
 50
358.4775229574451032
 51
91.1669768893659835
  0
ARC
  5
E747
  8
0
 10
438.9004901910896024
 20
47.2727231743258471
 30
0.0
 40
0.014348850677023
 50
89.2526440348323575
 51
171.3659204181450946
  0
ARC
  5
E748
  8
0
 10
438.9002962430379853
 20
47.2730947481525234
 30
0.0
 40
0.0141053748099289
 50
172.7400042878969089
 51
271.5482589867729075
  0
ARC
  5
E749
  8
0
 10
438.9008953415464021
 20
47.2732858813744201
 30
0.0
 40
0.0142930208502183
 50
269.1261340214539928
 51
356.8147379108557971
  0
ARC
  5
E74A
  8
0
 10
438.6339894386940728
 20
47.4184404706629721
 30
0.0
 40
0.3394412037216693
 50
332.0735194336252789
 51
336.4631007705215211
  0
ARC
  5
E74B
  8
0
 10
438.9011417621338751
 20
47.2944697550148803
 30
0.0
 40
0.0532594440199804
 50
290.8967215145434011
 51
349.9141643215353952
  0
ARC
  5
E74C
  8
0
 10
438.8957004785985987
 20
47.2957480545780768
 30
0.0
 40
0.0415807736790131
 50
169.6645264771001962
 51
202.0078634069039936
  0
ARC
  5
E74D
  8
0
 10
439.519449530483314
 20
47.5969037869401319
 30
0.0
 40
0.7341415534760241
 50
205.5589310450793903
 51
207.3632089538112098
  0
ARC
  5
E74E
  8
0
 10
438.899788477514619
 20
47.2941187567632468
 30
0.0
 40
0.0527808320336663
 50
189.7956904907725004
 51
249.3978358420899042
  0
ARC
  5
E74F
  8
0
 10
438.9058617844868877
 20
47.2957462436563887
 30
0.0
 40
0.0413769631460464
 50
341.8952868632911191
 51
10.3665477643374206
  0
ARC
  5
E750
  8
0
 10
438.8959436956592981
 20
47.2768304812223192
 30
0.0
 40
0.0488778593639866
 50
147.3392112796080085
 51
170.2131891042425025
  0
ARC
  5
E751
  8
0
 10
438.8999182148745035
 20
47.2726801430198122
 30
0.0
 40
0.0544804266380232
 50
89.2016082494636606
 51
145.920163432492501
  0
ARC
  5
E752
  8
0
 10
438.9013358312409991
 20
47.27250246815872
 30
0.0
 40
0.0546567789718413
 50
34.1590461820268771
 51
90.690290072603446
  0
ARC
  5
E753
  8
0
 10
438.9055962556719237
 20
47.2768821238261481
 30
0.0
 40
0.0486877991217046
 50
9.7683947452362272
 51
32.7092011388182868
  0
CIRCLE
  5
E754
  8
0
 10
439.1247079554065067
 20
47.2755747500151884
 30
0.0
 40
0.0143903719476049
  0
ARC
  5
E755
  8
0
 10
439.124284609032884
 20
47.2773744469349211
 30
0.0
 40
0.0365253359817761
 50
357.1499645319573233
 51
222.6391401675163877
  0
ARC
  5
E756
  8
0
 10
439.1234840025973085
 20
47.2795867549902766
 30
0.0
 40
0.0374977805300558
 50
225.9563443059051906
 51
353.8327603935708225
  0
LINE
  5
E757
  8
0
 10
439.1630865633358098
 20
47.3002303468539509
 30
0.0
 11
439.1607647667091214
 21
47.2755583344664387
 31
0.0
  0
LINE
  5
E758
  8
0
 10
439.1650215600702154
 20
47.2965725081276886
 30
0.0
 11
439.1621696484447739
 21
47.2904764052435311
 31
0.0
  0
ARC
  5
E759
  8
0
 10
439.1065383237806259
 20
47.3024108823798031
 30
0.0
 40
0.0417315291872035
 50
195.0479620215407124
 51
225.0265305960533055
  0
ARC
  5
E75A
  8
0
 10
439.1111528228902898
 20
47.3006042146551735
 30
0.0
 40
0.049899500385862
 50
198.3919352992215011
 51
254.0198925249981983
  0
ARC
  5
E75B
  8
0
 10
439.1169548474405815
 20
47.2693835182266326
 30
0.0
 40
0.0553600354541173
 50
90.3059970202494782
 51
163.7658596533478033
  0
ARC
  5
E75C
  8
0
 10
439.1201832878256823
 20
47.2751937875329986
 30
0.0
 40
0.0496741416848831
 50
25.4916316658373994
 51
94.068227226212997
  0
LINE
  5
E75D
  8
0
 10
439.077042892866416
 20
47.2728881569633401
 30
0.0
 11
439.0974153108604128
 21
47.2526329638690328
 31
0.0
  0
ARC
  5
E75E
  8
0
 10
439.0091404939681752
 20
47.2087419194940807
 30
0.0
 40
0.0450621011682913
 50
343.0337665919416281
 51
358.9438489737618738
  0
ARC
  5
E75F
  8
0
 10
-613.7775861493614684
 20
365.8052260913009945
 30
0.0
 40
1099.9830654771560603
 50
343.1617873900037807
 51
343.1630219049936272
  0
ARC
  5
E760
  8
0
 10
439.4035288927468059
 20
47.500014205658168
 30
0.0
 40
0.5423591623899794
 50
216.1829172824955094
 51
218.7190646913178114
  0
ARC
  5
E761
  8
0
 10
439.00347806747601
 20
47.202946570593042
 30
0.0
 40
0.0442318316900508
 50
178.519013802683105
 51
211.5169993053758901
  0
ARC
  5
E762
  8
0
 10
439.0078727845847766
 20
47.1768521411021169
 30
0.0
 40
0.0557224545037328
 50
33.7701085494445579
 51
150.7377011082598983
  0
ARC
  5
E763
  8
0
 10
439.0118812013374168
 20
47.1827412579621495
 30
0.0
 40
0.0491891965799048
 50
14.7638570686914594
 51
30.6616476118411505
  0
ARC
  5
E764
  8
0
 10
439.0023379254303109
 20
47.2097404917770689
 30
0.0
 40
0.058911672748912
 50
313.8243287734414935
 51
345.7873630174810273
  0
ARC
  5
E765
  8
0
 10
439.0097141364129243
 20
47.1837478041979423
 30
0.0
 40
0.0372731722547318
 50
218.0640942799822142
 51
343.0927001006967885
  0
ARC
  5
E766
  8
0
 10
438.9993331341871112
 20
47.1827640084862381
 30
0.0
 40
0.0453934175768482
 50
151.9788061029761934
 51
171.3951871641151001
  0
ARC
  5
E767
  8
0
 10
439.0006070876685271
 20
47.1974083617239373
 30
0.0
 40
0.0468196423072168
 50
189.6553712854195908
 51
257.9182409232629993
  0
CIRCLE
  5
E768
  8
0
 10
439.0101823974085846
 20
47.1801738656354885
 30
0.0
 40
0.0139380654420153
  0
ARC
  5
E769
  8
0
 10
439.0099365440971724
 20
47.1825568917402904
 30
0.0
 40
0.0367297594269825
 50
344.7694806360614166
 51
216.3872358000922134
  0
ARC
  5
E76A
  8
0
 10
438.899685594340383
 20
47.0886588438517322
 30
0.0
 40
0.0358066933289064
 50
88.2291415456695631
 51
206.2335831975454141
  0
ARC
  5
E76B
  8
0
 10
438.9017362815753813
 20
47.0885543169040233
 30
0.0
 40
0.0359065351033402
 50
334.0304561247901916
 51
91.5067861291312283
  0
ARC
  5
E76C
  8
0
 10
438.9001241616286961
 20
47.0894067562657597
 30
0.0
 40
0.0365338032268466
 50
206.981706824473207
 51
239.042093304653207
  0
ARC
  5
E76D
  8
0
 10
438.9014757302708176
 20
47.0893922503638294
 30
0.0
 40
0.0365132990864793
 50
300.9485179229646974
 51
333.0273390434757061
  0
ARC
  5
E76E
  8
0
 10
438.9007921066886979
 20
47.0905210937210796
 30
0.0
 40
0.0378329946630911
 50
239.0427461509617046
 51
300.9572536051146017
  0
ARC
  5
E76F
  8
0
 10
438.9010814012436867
 20
47.0862330016089103
 30
0.0
 40
0.014204651366641
 50
358.4775229574451032
 51
91.1669768893659835
  0
ARC
  5
E770
  8
0
 10
438.9006049481945979
 20
47.0860870767297115
 30
0.0
 40
0.014348850677023
 50
89.2526440348323575
 51
171.3659204181450946
  0
ARC
  5
E771
  8
0
 10
438.9004110001429808
 20
47.0864586505563878
 30
0.0
 40
0.0141053748099289
 50
172.7400042878969089
 51
271.5482589867729075
  0
ARC
  5
E772
  8
0
 10
438.9010100986513976
 20
47.0866497837782916
 30
0.0
 40
0.0142930208502183
 50
269.1261340214539928
 51
356.8147379108557971
  0
ARC
  5
E773
  8
0
 10
438.6341041957991251
 20
47.2318043730668435
 30
0.0
 40
0.3394412037216693
 50
332.0735194336252789
 51
336.4631007705215211
  0
ARC
  5
E774
  8
0
 10
438.9012565192389275
 20
47.1078336574187517
 30
0.0
 40
0.0532594440199804
 50
290.8967215145434011
 51
349.9141643215353952
  0
ARC
  5
E775
  8
0
 10
438.8958152357035942
 20
47.1091119569819412
 30
0.0
 40
0.0415807736790131
 50
169.6645264771001962
 51
202.0078634069039936
  0
ARC
  5
E776
  8
0
 10
439.5195642875883095
 20
47.4102676893440034
 30
0.0
 40
0.7341415534760241
 50
205.5589310450793903
 51
207.3632089538112098
  0
ARC
  5
E777
  8
0
 10
438.8999032346196145
 20
47.1074826591671183
 30
0.0
 40
0.0527808320336663
 50
189.7956904907725004
 51
249.3978358420899042
  0
ARC
  5
E778
  8
0
 10
438.9059765415918832
 20
47.1091101460602601
 30
0.0
 40
0.0413769631460464
 50
341.8952868632911191
 51
10.3665477643374206
  0
ARC
  5
E779
  8
0
 10
438.8960584527644073
 20
47.0901943836261765
 30
0.0
 40
0.0488778593639866
 50
147.3392112796080085
 51
170.2131891042425025
  0
ARC
  5
E77A
  8
0
 10
438.9000329719796127
 20
47.0860440454236695
 30
0.0
 40
0.0544804266380232
 50
89.2016082494636606
 51
145.920163432492501
  0
ARC
  5
E77B
  8
0
 10
438.9014505883459947
 20
47.0858663705625773
 30
0.0
 40
0.0546567789718413
 50
34.1590461820268771
 51
90.690290072603446
  0
ARC
  5
E77C
  8
0
 10
438.9057110127769192
 20
47.0902460262300124
 30
0.0
 40
0.0486877991217046
 50
9.7683947452362272
 51
32.7092011388182868
  0
CIRCLE
  5
E77D
  8
0
 10
439.1248227125115022
 20
47.0889386524190527
 30
0.0
 40
0.0143903719476049
  0
ARC
  5
E77E
  8
0
 10
439.1243993661378795
 20
47.0907383493387925
 30
0.0
 40
0.0365253359817761
 50
357.1499645319573233
 51
222.6391401675163877
  0
ARC
  5
E77F
  8
0
 10
439.1235987597021904
 20
47.092950657394141
 30
0.0
 40
0.0374977805300558
 50
225.9563443059051906
 51
353.8327603935708225
  0
LINE
  5
E780
  8
0
 10
439.1632013204408054
 20
47.1135942492578224
 30
0.0
 11
439.160879523814117
 21
47.0889222368703102
 31
0.0
  0
LINE
  5
E781
  8
0
 10
439.1651363171750972
 20
47.109936410531553
 30
0.0
 11
439.1622844055498263
 21
47.1038403076473884
 31
0.0
  0
ARC
  5
E782
  8
0
 10
439.1066530808855077
 20
47.1157747847836674
 30
0.0
 40
0.0417315291872035
 50
195.0479620215407124
 51
225.0265305960533055
  0
ARC
  5
E783
  8
0
 10
439.1112675799952854
 20
47.1139681170590308
 30
0.0
 40
0.049899500385862
 50
198.3919352992215011
 51
254.0198925249981983
  0
ARC
  5
E784
  8
0
 10
439.117069604545577
 20
47.0827474206304899
 30
0.0
 40
0.0553600354541173
 50
90.3059970202494782
 51
163.7658596533478033
  0
ARC
  5
E785
  8
0
 10
439.1202980449306779
 20
47.0885576899368701
 30
0.0
 40
0.0496741416848831
 50
25.4916316658373994
 51
94.068227226212997
  0
LINE
  5
E786
  8
0
 10
439.0771576499714115
 20
47.0862520593671974
 30
0.0
 11
439.0975300679654083
 21
47.06599686627289
 31
0.0
  0
ARC
  5
E787
  8
0
 10
439.0092552510732844
 20
47.0221058218979522
 30
0.0
 40
0.0450621011682913
 50
343.0337665919416281
 51
358.9438489737618738
  0
ARC
  5
E788
  8
0
 10
-613.7774713922566434
 20
365.6185899937049157
 30
0.0
 40
1099.9830654771560603
 50
343.1617873900037807
 51
343.1630219049936272
  0
ARC
  5
E789
  8
0
 10
439.4036436498518015
 20
47.3133781080620395
 30
0.0
 40
0.5423591623899794
 50
216.1829172824955094
 51
218.7190646913178114
  0
ARC
  5
E78A
  8
0
 10
439.0035928245810055
 20
47.0163104729969135
 30
0.0
 40
0.0442318316900508
 50
178.519013802683105
 51
211.5169993053758901
  0
ARC
  5
E78B
  8
0
 10
439.0079875416897721
 20
46.9902160435059884
 30
0.0
 40
0.0557224545037328
 50
33.7701085494445579
 51
150.7377011082598983
  0
ARC
  5
E78C
  8
0
 10
439.0119959584424123
 20
46.9961051603660067
 30
0.0
 40
0.0491891965799048
 50
14.7638570686914594
 51
30.6616476118411505
  0
ARC
  5
E78D
  8
0
 10
439.0024526825353064
 20
47.0231043941809332
 30
0.0
 40
0.058911672748912
 50
313.8243287734414935
 51
345.7873630174810273
  0
ARC
  5
E78E
  8
0
 10
439.0098288935178061
 20
46.9971117066017996
 30
0.0
 40
0.0372731722547318
 50
218.0640942799822142
 51
343.0927001006967885
  0
ARC
  5
E78F
  8
0
 10
438.9994478912921068
 20
46.9961279108901095
 30
0.0
 40
0.0453934175768482
 50
151.9788061029761934
 51
171.3951871641151001
  0
ARC
  5
E790
  8
0
 10
439.000721844773409
 20
47.0107722641278016
 30
0.0
 40
0.0468196423072168
 50
189.6553712854195908
 51
257.9182409232629993
  0
CIRCLE
  5
E791
  8
0
 10
439.0102971545136938
 20
46.99353776803936
 30
0.0
 40
0.0139380654420153
  0
ARC
  5
E792
  8
0
 10
439.0100513012022247
 20
46.9959207941441619
 30
0.0
 40
0.0367297594269825
 50
344.7694806360614166
 51
216.3872358000922134
  0
ARC
  5
E793
  8
0
 10
438.8979534792862864
 20
46.9010907473090697
 30
0.0
 40
0.0358066933289064
 50
88.2291415456695631
 51
206.2335831975454141
  0
ARC
  5
E794
  8
0
 10
438.9000041665211143
 20
46.9009862203613608
 30
0.0
 40
0.0359065351033402
 50
334.0304561247901916
 51
91.5067861291312283
  0
ARC
  5
E795
  8
0
 10
438.8983920465744859
 20
46.9018386597230972
 30
0.0
 40
0.0365338032268466
 50
206.981706824473207
 51
239.042093304653207
  0
ARC
  5
E796
  8
0
 10
438.8997436152164937
 20
46.9018241538211669
 30
0.0
 40
0.0365132990864793
 50
300.9485179229646974
 51
333.0273390434757061
  0
ARC
  5
E797
  8
0
 10
438.8990599916344877
 20
46.90295299717841
 30
0.0
 40
0.0378329946630911
 50
239.0427461509617046
 51
300.9572536051146017
  0
ARC
  5
E798
  8
0
 10
438.8993492861895902
 20
46.8986649050662479
 30
0.0
 40
0.014204651366641
 50
358.4775229574451032
 51
91.1669768893659835
  0
ARC
  5
E799
  8
0
 10
438.8988728331405014
 20
46.8985189801870419
 30
0.0
 40
0.014348850677023
 50
89.2526440348323575
 51
171.3659204181450946
  0
ARC
  5
E79A
  8
0
 10
438.8986788850888274
 20
46.8988905540137324
 30
0.0
 40
0.0141053748099289
 50
172.7400042878969089
 51
271.5482589867729075
  0
ARC
  5
E79B
  8
0
 10
438.8992779835971874
 20
46.8990816872356291
 30
0.0
 40
0.0142930208502183
 50
269.1261340214539928
 51
356.8147379108557971
  0
ARC
  5
E79C
  8
0
 10
438.6323720807449718
 20
47.0442362765241811
 30
0.0
 40
0.3394412037216693
 50
332.0735194336252789
 51
336.4631007705215211
  0
ARC
  5
E79D
  8
0
 10
438.8995244041847172
 20
46.9202655608760892
 30
0.0
 40
0.0532594440199804
 50
290.8967215145434011
 51
349.9141643215353952
  0
ARC
  5
E79E
  8
0
 10
438.894083120649384
 20
46.9215438604392787
 30
0.0
 40
0.0415807736790131
 50
169.6645264771001962
 51
202.0078634069039936
  0
ARC
  5
E79F
  8
0
 10
439.5178321725340993
 20
47.2226995928013409
 30
0.0
 40
0.7341415534760241
 50
205.5589310450793903
 51
207.3632089538112098
  0
ARC
  5
E7A0
  8
0
 10
438.8981711195654043
 20
46.9199145626244487
 30
0.0
 40
0.0527808320336663
 50
189.7956904907725004
 51
249.3978358420899042
  0
ARC
  5
E7A1
  8
0
 10
438.9042444265377867
 20
46.9215420495175906
 30
0.0
 40
0.0413769631460464
 50
341.8952868632911191
 51
10.3665477643374206
  0
ARC
  5
E7A2
  8
0
 10
438.8943263377100834
 20
46.9026262870835211
 30
0.0
 40
0.0488778593639866
 50
147.3392112796080085
 51
170.2131891042425025
  0
ARC
  5
E7A3
  8
0
 10
438.8983008569254025
 20
46.898475948881007
 30
0.0
 40
0.0544804266380232
 50
89.2016082494636606
 51
145.920163432492501
  0
ARC
  5
E7A4
  8
0
 10
438.8997184732918981
 20
46.8982982740199219
 30
0.0
 40
0.0546567789718413
 50
34.1590461820268771
 51
90.690290072603446
  0
ARC
  5
E7A5
  8
0
 10
438.903978897722709
 20
46.9026779296873499
 30
0.0
 40
0.0486877991217046
 50
9.7683947452362272
 51
32.7092011388182868
  0
CIRCLE
  5
E7A6
  8
0
 10
439.123090597457292
 20
46.9013705558763903
 30
0.0
 40
0.0143903719476049
  0
ARC
  5
E7A7
  8
0
 10
439.1226672510837261
 20
46.9031702527961301
 30
0.0
 40
0.0365253359817761
 50
357.1499645319573233
 51
222.6391401675163877
  0
ARC
  5
E7A8
  8
0
 10
439.1218666446480938
 20
46.9053825608514785
 30
0.0
 40
0.0374977805300558
 50
225.9563443059051906
 51
353.8327603935708225
  0
LINE
  5
E7A9
  8
0
 10
439.1614692053867088
 20
46.9260261527151599
 30
0.0
 11
439.1591474087600204
 21
46.9013541403276477
 31
0.0
  0
LINE
  5
E7AA
  8
0
 10
439.1634042021210007
 20
46.9223683139888905
 30
0.0
 11
439.160552290495616
 21
46.916272211104733
 31
0.0
  0
ARC
  5
E7AB
  8
0
 10
439.1049209658314112
 20
46.9282066882409978
 30
0.0
 40
0.0417315291872035
 50
195.0479620215407124
 51
225.0265305960533055
  0
ARC
  5
E7AC
  8
0
 10
439.1095354649411888
 20
46.9264000205163683
 30
0.0
 40
0.049899500385862
 50
198.3919352992215011
 51
254.0198925249981983
  0
ARC
  5
E7AD
  8
0
 10
439.1153374894914805
 20
46.8951793240878203
 30
0.0
 40
0.0553600354541173
 50
90.3059970202494782
 51
163.7658596533478033
  0
ARC
  5
E7AE
  8
0
 10
439.1185659298765245
 20
46.9009895933942076
 30
0.0
 40
0.0496741416848831
 50
25.4916316658373994
 51
94.068227226212997
  0
LINE
  5
E7AF
  8
0
 10
439.075425534917315
 20
46.898683962824542
 30
0.0
 11
439.0957979529113118
 21
46.8784287697302275
 31
0.0
  0
ARC
  5
E7B0
  8
0
 10
439.0075231360190742
 20
46.8345377253552826
 30
0.0
 40
0.0450621011682913
 50
343.0337665919416281
 51
358.9438489737618738
  0
ARC
  5
E7B1
  8
0
 10
-613.7792035073108536
 20
365.4310218971622817
 30
0.0
 40
1099.9830654771560603
 50
343.1617873900037807
 51
343.1630219049936272
  0
ARC
  5
E7B2
  8
0
 10
439.4019115347977049
 20
47.125810011519377
 30
0.0
 40
0.5423591623899794
 50
216.1829172824955094
 51
218.7190646913178114
  0
ARC
  5
E7B3
  8
0
 10
439.001860709526909
 20
46.8287423764542368
 30
0.0
 40
0.0442318316900508
 50
178.519013802683105
 51
211.5169993053758901
  0
ARC
  5
E7B4
  8
0
 10
439.0062554266356187
 20
46.8026479469633188
 30
0.0
 40
0.0557224545037328
 50
33.7701085494445579
 51
150.7377011082598983
  0
ARC
  5
E7B5
  8
0
 10
439.0102638433883158
 20
46.8085370638233513
 30
0.0
 40
0.0491891965799048
 50
14.7638570686914594
 51
30.6616476118411505
  0
ARC
  5
E7B6
  8
0
 10
439.0007205674812099
 20
46.8355362976382708
 30
0.0
 40
0.058911672748912
 50
313.8243287734414935
 51
345.7873630174810273
  0
ARC
  5
E7B7
  8
0
 10
439.0080967784637096
 20
46.8095436100591371
 30
0.0
 40
0.0372731722547318
 50
218.0640942799822142
 51
343.0927001006967885
  0
ARC
  5
E7B8
  8
0
 10
438.9977157762380102
 20
46.8085598143474471
 30
0.0
 40
0.0453934175768482
 50
151.9788061029761934
 51
171.3951871641151001
  0
ARC
  5
E7B9
  8
0
 10
438.9989897297193124
 20
46.8232041675851391
 30
0.0
 40
0.0468196423072168
 50
189.6553712854195908
 51
257.9182409232629993
  0
CIRCLE
  5
E7BA
  8
0
 10
439.0085650394594836
 20
46.8059696714966975
 30
0.0
 40
0.0139380654420153
  0
ARC
  5
E7BB
  8
0
 10
439.0083191861481282
 20
46.8083526976014994
 30
0.0
 40
0.0367297594269825
 50
344.7694806360614166
 51
216.3872358000922134
  0
ENDSEC
  0
EOF
