  0
SECTION
  2
HEADER
  9
$ACADVER
  1
AC1009
  9
$INSBASE
 10
462.30128240508202
 20
57.7683784683026005
 30
0.0
  9
$EXTMIN
 10
440.2394685123207978
 20
35.406173743902599
 30
0.0
  9
$EXTMAX
 10
469.1129128871911007
 20
70.9119661885337536
 30
0.0
  9
$LIMMIN
 10
0.0
 20
0.0
  9
$LIMMAX
 10
11.6929133858000007
 20
8.2677165353999982
  9
$ORTHOMODE
 70
     0
  9
$REGENMODE
 70
     1
  9
$FILLMODE
 70
     1
  9
$QTEXTMODE
 70
     0
  9
$MIRRTEXT
 70
     0
  9
$DRAGMODE
 70
     2
  9
$LTSCALE
 40
0.6431102362
  9
$OSMODE
 70
  4095
  9
$ATTMODE
 70
     1
  9
$TEXTSIZE
 40
0.2
  9
$TRACEWID
 40
0.05
  9
$TEXTSTYLE
  7
STANDARD
  9
$CLAYER
  8
0
  9
$CELTYPE
  6
BYLAYER
  9
$CECOLOR
 62
   256
  9
$DIMSCALE
 40
1.0
  9
$DIMASZ
 40
0.1875
  9
$DIMEXO
 40
0.0625
  9
$DIMDLI
 40
0.4443307087
  9
$DIMRND
 40
0.0
  9
$DIMDLE
 40
0.0
  9
$DIMEXE
 40
0.125
  9
$DIMTP
 40
0.01
  9
$DIMTM
 40
0.01
  9
$DIMTXT
 40
1.0
  9
$DIMCEN
 40
0.1052362205
  9
$DIMTSZ
 40
0.0
  9
$DIMTOL
 70
     1
  9
$DIMLIM
 70
     0
  9
$DIMTIH
 70
     0
  9
$DIMTOH
 70
     1
  9
$DIMSE1
 70
     0
  9
$DIMSE2
 70
     0
  9
$DIMTAD
 70
     0
  9
$DIMZIN
 70
     0
  9
$DIMBLK
  1

  9
$DIMASO
 70
     1
  9
$DIMSHO
 70
     1
  9
$DIMPOST
  1
\X
  9
$DIMAPOST
  1

  9
$DIMALT
 70
     1
  9
$DIMALTD
 70
     2
  9
$DIMALTF
 40
25.3999999999999986
  9
$DIMLFAC
 40
1.0
  9
$DIMTOFL
 70
     0
  9
$DIMTVP
 40
0.0
  9
$DIMTIX
 70
     0
  9
$DIMSOXD
 70
     0
  9
$DIMSAH
 70
     0
  9
$DIMBLK1
  1

  9
$DIMBLK2
  1

  9
$DIMSTYLE
  2
STANDARD
  9
$DIMCLRD
 70
     0
  9
$DIMCLRE
 70
     0
  9
$DIMCLRT
 70
     0
  9
$DIMTFAC
 40
1.0
  9
$DIMGAP
 40
0.09
  9
$LUNITS
 70
     2
  9
$LUPREC
 70
     4
  9
$SKETCHINC
 40
0.1
  9
$FILLETRAD
 40
0.0
  9
$AUNITS
 70
     0
  9
$AUPREC
 70
     0
  9
$MENU
  1
.
  9
$ELEVATION
 40
0.0
  9
$PELEVATION
 40
0.0
  9
$THICKNESS
 40
0.0
  9
$LIMCHECK
 70
     0
  9
$BLIPMODE
 70
     0
  9
$CHAMFERA
 40
0.0
  9
$CHAMFERB
 40
0.0
  9
$SKPOLY
 70
     0
  9
$TDCREATE
 40
2458172.5207638889551163
  9
$TDUPDATE
 40
2459118.0254050930961967
  9
$TDINDWG
 40
0.2728328472
  9
$TDUSRTIMER
 40
0.2728328472
  9
$USRTIMER
 70
     1
  9
$ANGBASE
 50
0.0
  9
$ANGDIR
 70
     0
  9
$PDMODE
 70
     0
  9
$PDSIZE
 40
0.3125
  9
$PLINEWID
 40
0.0
  9
$COORDS
 70
     1
  9
$SPLFRAME
 70
     0
  9
$SPLINETYPE
 70
     6
  9
$SPLINESEGS
 70
     8
  9
$ATTDIA
 70
     1
  9
$ATTREQ
 70
     1
  9
$HANDLING
 70
     1
  9
$HANDSEED
  5
E179
  9
$SURFTAB1
 70
     6
  9
$SURFTAB2
 70
     6
  9
$SURFTYPE
 70
     6
  9
$SURFU
 70
     6
  9
$SURFV
 70
     6
  9
$UCSNAME
  2

  9
$UCSORG
 10
0.0
 20
0.0
 30
0.0
  9
$UCSXDIR
 10
1.0
 20
0.0
 30
0.0
  9
$UCSYDIR
 10
0.0
 20
1.0
 30
0.0
  9
$PUCSNAME
  2

  9
$PUCSORG
 10
0.0
 20
0.0
 30
0.0
  9
$PUCSXDIR
 10
1.0
 20
0.0
 30
0.0
  9
$PUCSYDIR
 10
0.0
 20
1.0
 30
0.0
  9
$USERI1
 70
     0
  9
$USERI2
 70
     0
  9
$USERI3
 70
     0
  9
$USERI4
 70
     0
  9
$USERI5
 70
     0
  9
$USERR1
 40
0.0
  9
$USERR2
 40
0.0
  9
$USERR3
 40
0.0
  9
$USERR4
 40
0.0
  9
$USERR5
 40
0.0
  9
$WORLDVIEW
 70
     1
  9
$SHADEDGE
 70
     3
  9
$SHADEDIF
 70
    70
  9
$TILEMODE
 70
     1
  9
$MAXACTVP
 70
    64
  9
$PLIMCHECK
 70
     0
  9
$PEXTMIN
 10
1.0000000000000000E+20
 20
1.0000000000000000E+20
 30
1.0000000000000000E+20
  9
$PEXTMAX
 10
-1.0000000000000000E+20
 20
-1.0000000000000000E+20
 30
-1.0000000000000000E+20
  9
$PLIMMIN
 10
0.0
 20
0.0
  9
$PLIMMAX
 10
12.0
 20
9.0
  9
$UNITMODE
 70
     0
  9
$VISRETAIN
 70
     1
  9
$PLINEGEN
 70
     0
  9
$PSLTSCALE
 70
     1
  0
ENDSEC
  0
SECTION
  2
TABLES
  0
TABLE
  2
VPORT
 70
     1
  0
VPORT
  2
*ACTIVE
 70
     0
 10
0.0
 20
0.0
 11
1.0
 21
1.0
 12
72.6124361847489581
 22
-19.2737495914283805
 13
0.0
 23
0.0
 14
1.0
 24
1.0
 15
0.0
 25
0.0
 16
0.0
 26
0.0
 36
14.6338572656650907
 17
429.6292891080536833
 27
69.7025415122186871
 37
0.0
 40
117.779473556225895
 41
2.005224660397074
 42
50.0
 43
0.0
 44
0.0
 50
0.0
 51
0.0
 71
     0
 72
   100
 73
     1
 74
     1
 75
     0
 76
     0
 77
     0
 78
     0
  0
ENDTAB
  0
TABLE
  2
LTYPE
 70
     2
  0
LTYPE
  2
CONTINUOUS
 70
     0
  3
Solid line
 72
    65
 73
     0
 40
0.0
  0
LTYPE
  2
PHANTOM2
 70
     0
  3
___ _ _ ___ _ _ ___ _ _ ___ _ _
 72
    65
 73
     6
 40
1.25
 49
0.625
 49
-0.125
 49
0.125
 49
-0.125
 49
0.125
 49
-0.125
  0
ENDTAB
  0
TABLE
  2
LAYER
 70
     2
  0
LAYER
  2
0
 70
     0
 62
   255
  6
CONTINUOUS
  0
LAYER
  2
DEFPOINTS
 70
     0
 62
     7
  6
CONTINUOUS
  0
ENDTAB
  0
TABLE
  2
STYLE
 70
     1
  0
STYLE
  2
STANDARD
 70
     0
 40
0.0
 41
0.8
 50
0.0
 71
     0
 42
0.2
  3
txt
  4

  0
ENDTAB
  0
TABLE
  2
VIEW
 70
     0
  0
ENDTAB
  0
TABLE
  2
UCS
 70
     0
  0
ENDTAB
  0
TABLE
  2
APPID
 70
    10
  0
APPID
  2
ACAD
 70
     0
  0
APPID
  2
ACAD_MLEADERVER
 70
     0
  0
APPID
  2
ACAD_EXEMPT_FROM_CAD_STANDARDS
 70
     0
  0
APPID
  2
ACAD_DSTYLE_DIMJAG
 70
     0
  0
APPID
  2
ACAD_DSTYLE_DIMTALN
 70
     0
  0
APPID
  2
ACAD_NAV_VCDISPLAY
 70
     0
  0
APPID
  2
ACAECLAYERSTANDARD
 70
     0
  0
APPID
  2
ACCMTRANSPARENCY
 70
     0
  0
APPID
  2
DCO15
 70
     0
  0
APPID
  2
ACDBATTR
 70
     0
  0
ENDTAB
  0
TABLE
  2
DIMSTYLE
 70
     1
  0
DIMSTYLE
  2
STANDARD
 70
     0
  3

  4

  5

  6

  7

 40
1.0
 41
0.1875
 42
0.0625
 43
0.38
 44
0.125
 45
0.0
 46
0.0
 47
0.01
 48
0.01
140
0.15625
141
0.09
142
0.0
143
25.3999999999999986
144
1.0
145
0.0
146
1.0
147
0.09
 71
     1
 72
     0
 73
     1
 74
     1
 75
     0
 76
     0
 77
     0
 78
     4
170
     0
171
     2
172
     0
173
     0
174
     0
175
     0
176
     0
177
     0
178
     0
  0
ENDTAB
  0
ENDSEC
  0
SECTION
  2
BLOCKS
  0
BLOCK
  8
0
  2
$MODEL_SPACE
 70
     0
 10
0.0
 20
0.0
 30
0.0
  3
$MODEL_SPACE
  1

  0
ENDBLK
  5
21
  8
0
  0
BLOCK
 67
     1
  8
0
  2
$PAPER_SPACE
 70
     0
 10
0.0
 20
0.0
 30
0.0
  3
$PAPER_SPACE
  1

  0
ENDBLK
  5
1D
 67
     1
  8
0
  0
BLOCK
  8
0
  2
_FILLED
 70
     0
 10
0.0
 20
0.0
 30
0.0
  3
_FILLED
  1

  0
SOLID
  5
87E2
  8
0
  6
BYBLOCK
 62
     0
 10
0.0
 20
0.0
 30
0.0
 11
-1.0
 21
0.1666666667
 31
0.0
 12
-1.0
 22
-0.1666666667
 32
0.0
 13
-1.0
 23
-0.1666666667
 33
0.0
  0
ENDBLK
  5
87E3
  8
0
  6
BYBLOCK
 62
     0
  0
ENDSEC
  0
SECTION
  2
ENTITIES
  0
ATTDEF
  5
C848
  8
DEFPOINTS
 10
462.3025332157840808
 20
57.7729132996434203
 30
0.0
 40
0.001
  1
K-76633T
  3

  2
MODELNUMBER
 70
     0
1001
ACDBATTR
1070
     0
1070
     1
  0
ATTDEF
  5
C849
  8
DEFPOINTS
 10
462.3025332157840808
 20
57.7712466329767622
 30
0.0
 40
0.001
  1
ANGULAR
  3

  2
TRADENAME
 70
     0
1001
ACDBATTR
1070
     0
1070
     1
  0
ATTDEF
  5
C84A
  8
DEFPOINTS
 10
462.3025332157840808
 20
57.76957996631009
 30
0.0
 40
0.001
  1
BATH AND SHOWER FAUCET
  3

  2
PRODUCT
 70
     0
1001
ACDBATTR
1070
     0
1070
     1
  0
LINE
  5
E03E
  8
0
 10
463.5414398853820899
 20
57.7683784683026005
 30
0.0
 11
461.0611249247821206
 21
57.7683784683026005
 31
0.0
  0
LINE
  5
E03F
  8
0
 10
463.5119395770831829
 20
57.3746776809025931
 30
0.0
 11
461.0906252330809139
 21
57.3746776809025931
 31
0.0
  0
LINE
  5
E040
  8
0
 10
463.5316328263851915
 20
57.3938619950208491
 30
0.0
 11
463.5414398853820899
 21
57.7683784683026005
 31
0.0
  0
LINE
  5
E041
  8
0
 10
461.0709319837789053
 20
57.3938619950208491
 30
0.0
 11
461.0611249247821206
 21
57.7683784683026005
 31
0.0
  0
LINE
  5
E042
  8
0
 10
462.7934077289820038
 20
56.0164099643025892
 30
0.0
 11
462.7934083892820922
 21
57.3746776809025931
 31
0.0
  0
LINE
  5
E043
  8
0
 10
461.809156420782017
 20
56.0164099643025892
 30
0.0
 11
461.809156420782017
 21
57.3746776809025931
 31
0.0
  0
LINE
  5
E044
  8
0
 10
461.809156420782017
 20
56.0164099643025892
 30
0.0
 11
462.7934077289820038
 21
56.0164099643025892
 31
0.0
  0
ARC
  5
E045
  8
0
 10
463.5119395770831261
 20
57.3943776809025934
 30
0.0
 40
0.0197
 50
270.0000000000097771
 51
358.4999999998116209
  0
ARC
  5
E046
  8
0
 10
461.0906252330809139
 20
57.3943776809025934
 30
0.0
 40
0.0197
 50
181.5000000001884075
 51
270.0
  0
LINE
  5
E047
  8
0
 10
460.4705737436819959
 20
55.8786146888025996
 30
0.0
 11
461.9863217750821036
 21
55.8786146888026067
 31
0.0
  0
LINE
  5
E048
  8
0
 10
462.6162430349320971
 20
55.8786146887026121
 30
0.0
 11
463.1280540585319727
 21
55.8786146887026121
 31
0.0
  0
LINE
  5
E049
  8
0
 10
460.450888704282022
 20
54.3235115392025776
 30
0.0
 11
460.450888704282022
 21
55.8589146888026065
 31
0.0
  0
ARC
  5
E04A
  8
0
 10
460.4705887046263797
 20
54.3235071589179199
 30
0.0
 40
0.0197000008313223
 50
179.9872603139170906
 51
269.9999989984971762
  0
ARC
  5
E04B
  8
0
 10
460.470563174618519
 20
55.8589402047590582
 30
0.0
 40
0.0196744868823731
 50
89.9692209119198765
 51
180.0743072504548081
  0
LINE
  5
E04C
  8
0
 10
461.9075816176820126
 20
55.0912131140025991
 30
0.0
 11
461.9075816176820126
 21
39.3434448855531969
 31
0.0
  0
LINE
  5
E04D
  8
0
 10
462.6949831924820842
 20
55.0912131140025991
 30
0.0
 11
462.6949831924820842
 21
39.3434448855531969
 31
0.0
  0
LINE
  5
E04E
  8
0
 10
463.1280540585819949
 20
55.8786146887026121
 30
0.0
 11
463.1280540585819949
 21
54.3038115391026111
 31
0.0
  0
LINE
  5
E04F
  8
0
 10
463.1712824050820245
 20
55.878611289402599
 30
0.0
 11
463.1712824050320023
 21
54.3038115391026324
 31
0.0
  0
LINE
  5
E050
  8
0
 10
463.1712824050820245
 20
54.4101107517025895
 30
0.0
 11
463.1280540585819949
 21
54.4101107517025895
 31
0.0
  0
LINE
  5
E051
  8
0
 10
463.1280540585319727
 20
55.7723154761026123
 30
0.0
 11
463.1712824050320023
 21
55.7723154761026123
 31
0.0
  0
ARC
  5
E052
  8
0
 10
462.30128240508202
 20
55.0912131140025991
 30
0.0
 40
0.3937007874
 50
0.0
 51
180.0
  0
LINE
  5
E053
  8
0
 10
461.9863145338633217
 20
55.6820922891082191
 30
0.0
 11
461.9863217750821036
 21
56.0164099643025892
 31
0.0
  0
LINE
  5
E054
  8
0
 10
462.616243034882018
 20
55.6820922881026021
 30
0.0
 11
462.6162430349820056
 21
56.0164099643025892
 31
0.0
  0
ARC
  5
E055
  8
0
 10
462.30128240508202
 20
55.0912131140025991
 30
0.0
 40
0.6496062992000005
 50
307.3052009664576758
 51
232.6947990335420968
  0
ARC
  5
E056
  8
0
 10
462.6556603392688203
 20
55.6820533669050732
 30
0.0
 40
0.0394173236024658
 50
179.9434253645310093
 51
237.9416414708234981
  0
ARC
  5
E057
  8
0
 10
461.9468683151678761
 20
55.6820738917579092
 30
0.0
 40
0.0394462229854254
 50
302.0692071341700853
 51
0.0267222177490295
  0
ARC
  5
E058
  8
0
 10
462.30128240508202
 20
55.0912131140025991
 30
0.0
 40
0.4330708660999977
 50
335.3800226828927862
 51
204.6199773171082938
  0
LINE
  5
E059
  8
0
 10
461.9075816176820126
 20
55.0518430354100374
 30
0.0
 11
461.8700048007756891
 21
55.0518430354100374
 31
0.0
  0
LINE
  5
E05A
  8
0
 10
461.9095550676141215
 20
55.1305831924845435
 30
0.0
 11
461.8700048007656278
 21
55.1305831924845435
 31
0.0
  0
ARC
  5
E05B
  8
0
 10
462.3012824050838958
 20
55.0912131140025991
 30
0.0
 40
0.401574881201844
 50
174.3737301879999109
 51
185.626269827859204
  0
ARC
  5
E05C
  8
0
 10
462.3012824050817926
 20
55.0912131140025991
 30
0.0
 40
0.4212598575998363
 50
174.6374286098275945
 51
185.3625714052838021
  0
ARC
  5
E05D
  8
0
 10
461.2689007863103825
 20
55.0909690431927714
 30
0.0
 40
0.3188976379491767
 50
237.5050111063505085
 51
302.326120316351421
  0
ARC
  5
E05E
  8
0
 10
461.2688832181923999
 20
55.0909414613833377
 30
0.0
 40
0.3188649363439707
 50
122.6102378145008061
 51
237.5050111000763877
  0
ARC
  5
E05F
  8
0
 10
461.2693045307057105
 20
55.0898782397215925
 30
0.0
 40
0.3199876762280918
 50
57.286005929830111
 51
122.5711860757186003
  0
ARC
  5
E060
  8
0
 10
461.2197137188601914
 20
55.0909793093481284
 30
0.0
 40
0.2952512111996764
 50
91.3894832919747984
 51
114.5501104361178051
  0
ARC
  5
E061
  8
0
 10
462.30128240508202
 20
39.3434448820559979
 30
0.0
 40
0.3937007874000002
 50
179.9999994910481007
 51
0.0000005089518512
  0
ARC
  5
E062
  8
0
 10
462.30128240508202
 20
39.3431816179026015
 30
0.0
 40
0.4135366555819733
 50
162.1820529304204968
 51
17.8179470695730693
  0
LINE
  5
E063
  8
0
 10
462.6949831924320051
 20
54.3038115391025897
 30
0.0
 11
463.1280540585319727
 21
54.3038115391025897
 31
0.0
  0
ARC
  5
E064
  8
0
 10
462.891833588262898
 20
54.8720097924172165
 30
0.0
 40
0.0196850373190435
 50
339.6379424026357015
 51
0.0000140659117841
  0
ARC
  5
E065
  8
0
 10
462.8918335868978033
 20
55.3104164354663581
 30
0.0
 40
0.0196850386842164
 50
359.9999998144065785
 51
20.3610447040975195
  0
ARC
  5
E066
  8
0
 10
461.3182201017235116
 20
55.0909690360846866
 30
0.0
 40
0.295276263637262
 50
270.1229730543250867
 51
89.8783016380017159
  0
ARC
  5
E067
  8
0
 10
461.3200750053495085
 20
55.0909690566817218
 30
0.0
 40
0.2952781292637891
 50
90.2382287363373052
 51
269.7630459368417064
  0
LINE
  5
E068
  8
0
 10
461.2125542663209785
 20
55.3861437041422917
 30
0.0
 11
461.3188537580608113
 21
55.38624463364782
 31
0.0
  0
LINE
  5
E069
  8
0
 10
461.2197117323603948
 20
54.7956934525478232
 30
0.0
 11
461.3188536986602912
 21
54.7956934925478123
 31
0.0
  0
ARC
  5
E06A
  8
0
 10
461.2202910684029007
 20
55.0950549342385969
 30
0.0
 40
0.2993620422671277
 50
245.8010621928002024
 51
269.8891191059975085
  0
ARC
  5
E06B
  8
0
 10
462.3012081951085861
 20
39.3434448855531969
 30
0.0
 40
0.7480314949999965
 50
121.7568639095523935
 51
58.2431360904475923
  0
ARC
  5
E06C
  8
0
 10
462.3012081951085861
 20
39.3434448855531969
 30
0.0
 40
0.7874015747999934
 50
119.9999999999999005
 51
59.9999999999998579
  0
LINE
  5
E06D
  8
0
 10
461.6609007906504871
 20
54.9894794969852612
 30
0.0
 11
461.8720084521239073
 21
54.6052478746354382
 31
0.0
  0
ARC
  5
E06E
  8
0
 10
461.8892609499611126
 20
54.6147268784597486
 30
0.0
 40
0.0196850246411794
 50
208.7856219378263063
 51
229.1497718901696032
  0
ARC
  5
E06F
  8
0
 10
461.6781532975413143
 20
54.9989585099083911
 30
0.0
 40
0.0196850369574591
 50
188.4235737841169112
 51
208.7856321590236064
  0
ARC
  5
E070
  8
0
 10
462.7133038490821946
 20
55.567699339602747
 30
0.0
 40
0.0196850393997799
 50
28.7856315545740209
 51
49.1466759523082999
  0
ARC
  5
E071
  8
0
 10
462.9244114718667902
 20
55.1834677077702693
 30
0.0
 40
0.0196850787533254
 50
8.4235858511234518
 51
28.7856014245125991
  0
LINE
  5
E072
  8
0
 10
462.9416640194368142
 20
55.1929467308777291
 30
0.0
 11
462.7305563589035273
 21
55.5771783537440101
 31
0.0
  0
LINE
  5
E073
  8
0
 10
460.4705887046263797
 20
54.3038071580865918
 30
0.0
 11
461.9075779070687986
 21
54.3038003864012992
 31
0.0
  0
LINE
  5
E074
  8
0
 10
463.1712824050820245
 20
55.878611289402599
 30
0.0
 11
464.7470229094819842
 21
55.8786146888025996
 31
0.0
  0
LINE
  5
E075
  8
0
 10
463.1712824050820245
 20
54.3038149385025903
 30
0.0
 11
463.7690776806820168
 21
54.3038115391026111
 31
0.0
  0
LINE
  5
E076
  8
0
 10
462.7540383105820183
 20
56.0164099643025892
 30
0.0
 11
462.7540383105820183
 21
55.8786146888025996
 31
0.0
  0
LINE
  5
E077
  8
0
 10
462.7540383105820183
 20
55.9681907459025965
 30
0.0
 11
463.0175660713820207
 21
55.8786146888025996
 31
0.0
  0
LINE
  5
E078
  8
0
 10
461.8485264995820216
 20
56.0164099643025892
 30
0.0
 11
461.8485264995820216
 21
55.8786146888026067
 31
0.0
  0
LINE
  5
E079
  8
0
 10
462.793407998210796
 20
56.5702260089316695
 30
0.0
 11
464.0177390979820871
 21
56.1540634470025992
 31
0.0
  0
LINE
  5
E07A
  8
0
 10
462.7934083892820922
 20
56.2625355784713292
 30
0.0
 11
463.9228672261820066
 21
55.8786207729026003
 31
0.0
  0
LINE
  5
E07B
  8
0
 10
464.0177390979820871
 20
55.8786146888025996
 30
0.0
 11
464.017738323445883
 21
56.4782464101644095
 31
0.0
  0
LINE
  5
E07C
  8
0
 10
464.6004162632819998
 20
55.8786146888025996
 30
0.0
 11
464.6004170390821173
 21
56.4782471628025888
 31
0.0
  0
ARC
  5
E07D
  8
0
 10
464.309077680636392
 20
56.4787327028812101
 30
0.0
 40
0.2913397630409154
 50
359.9045121411626269
 51
180.0956358751986954
  0
LINE
  5
E07E
  8
0
 10
464.6004162632819998
 20
55.9560054209025921
 30
0.0
 11
466.7167906880820851
 21
55.2366277426025931
 31
0.0
  0
LINE
  5
E07F
  8
0
 10
464.7708804504483169
 20
55.2826445905037502
 30
0.0
 11
466.5292696248820903
 21
54.6849498215025989
 31
0.0
  0
ARC
  5
E080
  8
0
 10
466.6230228711713721
 20
54.9607912584054787
 30
0.0
 40
0.2913385822413847
 50
251.2280818750045057
 51
71.2250553633313217
  0
ARC
  5
E081
  8
0
 10
464.7470229094572005
 20
55.8589296493407375
 30
0.0
 40
0.0196850394618622
 50
2.797776877539262
 51
89.9999999279674086
  0
ARC
  5
E082
  8
0
 10
464.7434808903731209
 20
55.2401976399056167
 30
0.0
 40
0.0225995255608413
 50
279.7378220437179266
 51
352.1080876753391067
  0
ARC
  5
E083
  8
0
 10
462.7944296357990197
 20
55.4756258810527711
 30
0.0
 40
1.9858146868054101
 50
353.1011112563481902
 51
3.250889155213426
  0
LINE
  5
E084
  8
0
 10
464.7666844849820791
 20
55.8598904961026008
 30
0.0
 11
464.7770487309820169
 21
55.5882380189025866
 31
0.0
  0
LINE
  5
E085
  8
0
 10
464.73199562202268
 20
55.2147968631884112
 30
0.0
 11
464.7473033746820761
 21
55.2179237276025887
 31
0.0
  0
ARC
  5
E086
  8
0
 10
464.3090776806284907
 20
52.6995511283012803
 30
0.0
 40
2.5505449859387679
 50
78.3498969257304054
 51
101.6501030741097935
  0
ARC
  5
E087
  8
0
 10
464.8206782960975261
 20
55.1786850099681914
 30
0.0
 40
0.0191788716984691
 50
4.1624645037985539
 51
79.6603690594712361
  0
ARC
  5
E088
  8
0
 10
463.7976785469060133
 20
55.1785041582974998
 30
0.0
 40
0.0193936573475226
 50
100.8293219618416003
 51
175.3478444450196889
  0
ARC
  5
E089
  8
0
 10
464.3088798618899773
 20
54.9389548585767784
 30
0.0
 40
0.4191214129256877
 50
45.19395460229115
 51
135.5492870633107998
  0
LINE
  5
E08A
  8
0
 10
464.6033812552221889
 20
55.2330729845169301
 30
0.0
 11
464.6042385248271103
 21
55.2363199859888212
 31
0.0
  0
LINE
  5
E08B
  8
0
 10
464.6042385248271103
 20
55.2363199859888212
 30
0.0
 11
464.7470227781820995
 21
55.2668334111026027
 31
0.0
  0
ARC
  5
E08C
  8
0
 10
464.6781454277341936
 20
55.2023510739017027
 30
0.0
 40
0.0943508241609966
 50
21.6069816295176906
 51
43.1123796045420917
  0
LINE
  5
E08D
  8
0
 10
464.7663370975665771
 20
55.2410178407867178
 30
0.0
 11
464.7666844849820791
 21
55.85989049610248
 31
0.0
  0
ARC
  5
E08E
  8
0
 10
464.9286735758233249
 20
53.4946746617267479
 30
0.0
 40
1.1519308104575801
 50
176.9741317432057031
 51
177.9455455133573025
  0
ARC
  5
E08F
  8
0
 10
463.7974770651557037
 20
53.5540893291855298
 30
0.0
 40
0.0191788716808739
 50
100.339630916913805
 51
175.8375353769995115
  0
ARC
  5
E090
  8
0
 10
463.8122526458614061
 20
53.5166330640731402
 30
0.0
 40
0.0397850842307445
 50
114.6961665135422948
 51
150.9187372387862069
  0
ARC
  5
E091
  8
0
 10
463.8264644542401811
 20
53.5271160014271885
 30
0.0
 40
0.0401167591651026
 50
100.6122233180353049
 51
140.2295094789172936
  0
ARC
  5
E092
  8
0
 10
463.8107030032891771
 20
53.5176751525005514
 30
0.0
 40
0.0379246236259467
 50
151.1567016237522978
 51
177.2778620216490992
  0
ARC
  5
E093
  8
0
 10
471.1801125503935168
 20
53.1601139856963911
 30
0.0
 40
7.4160034249330256
 50
177.2224919029299031
 51
177.9025482446388082
  0
ARC
  5
E094
  8
0
 10
471.2203142545257037
 20
53.1585189261043212
 30
0.0
 40
7.4562365738437322
 50
177.9016058589872955
 51
179.8608167825478859
  0
ARC
  5
E095
  8
0
 10
463.8110905860189064
 20
52.2717291996448665
 30
0.0
 40
0.0383677903180459
 50
100.093375530386794
 51
175.9242932449216994
  0
ARC
  5
E096
  8
0
 10
463.8167266406834983
 20
52.2548608559536305
 30
0.0
 40
0.0391481407159415
 50
100.622984572130207
 51
176.8108958199873939
  0
ARC
  5
E097
  8
0
 10
463.8167529384799082
 20
52.2308937525607533
 30
0.0
 40
0.0191821699840943
 50
99.9651736688427377
 51
175.9425357137332924
  0
ARC
  5
E098
  8
0
 10
471.2183411267748738
 20
51.9135456757226379
 30
0.0
 40
7.4542634648802073
 50
177.2248450954404007
 51
182.7755443622992004
  0
ARC
  5
E099
  8
0
 10
471.5855454441621077
 20
51.8913514185411131
 30
0.0
 40
7.8164677634801176
 50
177.3176613299862936
 51
182.6823484281532046
  0
ARC
  5
E09A
  8
0
 10
463.8107292008713216
 20
51.5544547482246784
 30
0.0
 40
0.0379530255306303
 50
182.8244585381929994
 51
207.6439244324045035
  0
ARC
  5
E09B
  8
0
 10
471.2246080052337902
 20
51.8759597946303828
 30
0.0
 40
7.435530337351751
 50
177.2534838947256901
 51
182.7465136002433894
  0
ARC
  5
E09C
  8
0
 10
463.8167311677161138
 20
51.5278485825667616
 30
0.0
 40
0.0391567735710242
 50
183.3641539062963091
 51
259.3726448734145151
  0
ARC
  5
E09D
  8
0
 10
463.8167642213791169
 20
51.521030730667178
 30
0.0
 40
0.0191937638163221
 50
184.0686834401849978
 51
260.0045022525119975
  0
LINE
  5
E09E
  8
0
 10
463.7640996804424276
 20
53.1766316384992876
 30
0.0
 11
463.7640776619376766
 21
51.9135203412161133
 31
0.0
  0
LINE
  5
E09F
  8
0
 10
463.7690776660185747
 20
54.8084405545663174
 30
0.0
 11
463.7690776806820168
 21
53.4310498706025996
 31
0.0
  0
ARC
  5
E0A0
  8
0
 10
471.2232521752841876
 20
54.8084171928025228
 30
0.0
 40
7.4541745093022032
 50
177.1420876848002877
 51
179.999820429327599
  0
ARC
  5
E0A1
  8
0
 10
464.8210000667043005
 20
55.1784325453003106
 30
0.0
 40
0.0193936573475226
 50
4.644136330502608
 51
79.1626588136819436
  0
ARC
  5
E0A2
  8
0
 10
463.6897693769395232
 20
53.4947613614014728
 30
0.0
 40
1.1519308104575801
 50
2.0464352621647901
 51
3.0178490323164291
  0
ARC
  5
E0A3
  8
0
 10
464.8209741923153047
 20
53.5540177038991771
 30
0.0
 40
0.0191788716808739
 50
4.1544453985227641
 51
79.6523498586084742
  0
ARC
  5
E0A4
  8
0
 10
464.8061933693055039
 20
53.5165635071715613
 30
0.0
 40
0.0397850842307445
 50
29.0732435367376496
 51
65.2958142619802118
  0
ARC
  5
E0A5
  8
0
 10
464.7919089918964914
 20
53.5269612353322373
 30
0.0
 40
0.0402294484597532
 50
39.790493418172268
 51
79.7336612583000033
  0
ARC
  5
E0A6
  8
0
 10
464.8077431577150946
 20
53.5176053786979082
 30
0.0
 40
0.0379246236259467
 50
2.7141187538732581
 51
28.8352791517688587
  0
ARC
  5
E0A7
  8
0
 10
457.4382836378621278
 20
53.1610756517379386
 30
0.0
 40
7.4160034249330282
 50
2.0894325308837152
 51
2.769488872592476
  0
ARC
  5
E0A8
  8
0
 10
457.3980817108759993
 20
53.1594862188671868
 30
0.0
 40
7.4562365738437331
 50
0.1311639929744229
 51
2.0903749165349579
  0
ARC
  5
E0A9
  8
0
 10
464.8070700836802871
 20
52.2716122722515593
 30
0.0
 40
0.0384819863538795
 50
4.1260818040448664
 51
79.9449161827601245
  0
ARC
  5
E0AA
  8
0
 10
464.8015561623267899
 20
52.2547974054063715
 30
0.0
 40
0.0391344704123941
 50
3.1741796955076831
 51
79.3412599950748927
  0
ARC
  5
E0AB
  8
0
 10
464.8013900738081929
 20
52.2307724961746871
 30
0.0
 40
0.019308656533289
 50
4.1785904836782271
 51
80.061371498892953
  0
ARC
  5
E0AC
  8
0
 10
457.3998805898232831
 20
51.9145127045169517
 30
0.0
 40
7.4542634648802091
 50
357.2164364132228229
 51
2.767135680082061
  0
ARC
  5
E0AD
  8
0
 10
457.0326731696828801
 20
51.8923698421557873
 30
0.0
 40
7.8164677634801203
 50
357.3096323473691882
 51
2.6743194455359052
  0
ARC
  5
E0AE
  8
0
 10
464.8074421841338904
 20
51.5543849973177828
 30
0.0
 40
0.0379530255306303
 50
332.3480563431181736
 51
357.1675222373294218
  0
ARC
  5
E0AF
  8
0
 10
457.3936084508354725
 20
51.876927700916859
 30
0.0
 40
7.4355303373517527
 50
357.2454671752792024
 51
2.7384968807966268
  0
ARC
  5
E0B0
  8
0
 10
464.8014364934992955
 20
51.527779671966961
 30
0.0
 40
0.0391567735710242
 50
280.6193359021074798
 51
356.6278268692259985
  0
ARC
  5
E0B1
  8
0
 10
464.8015732631459969
 20
51.5208891205227815
 30
0.0
 40
0.0190183455403385
 50
279.5295712665194969
 51
356.1052001061024725
  0
LINE
  5
E0B2
  8
0
 10
464.8542987470174808
 20
53.176555345348838
 30
0.0
 11
464.854143978102627
 21
51.9134440573556475
 31
0.0
  0
LINE
  5
E0B3
  8
0
 10
464.8495491525176249
 20
54.8083649421610133
 30
0.0
 11
464.8493563556780828
 21
53.4309742716904097
 31
0.0
  0
ARC
  5
E0B4
  8
0
 10
457.3953747129933163
 20
54.8093848806020674
 30
0.0
 40
7.454174509302204
 50
359.9921603461949076
 51
2.8498930907220101
  0
ARC
  5
E0B5
  8
0
 10
464.3090651257277841
 20
53.9824949965414902
 30
0.0
 40
2.529401193870052
 50
258.699862095872902
 51
281.3006956664751215
  0
ARC
  5
E0B6
  8
0
 10
464.3092562028738826
 20
53.9909459094566984
 30
0.0
 40
2.5510118036537781
 50
258.7026242222560199
 51
281.289356553266316
  0
ARC
  5
E0B7
  8
0
 10
464.3090902250419276
 20
49.7694245901825596
 30
0.0
 40
2.529401299951151
 50
78.6998623271796873
 51
101.3007003932478938
  0
ARC
  5
E0B8
  8
0
 10
464.308948634154774
 20
49.7948641669119922
 30
0.0
 40
2.547903229874926
 50
78.6863784191623665
 51
101.3042876008710067
  0
ARC
  5
E0B9
  8
0
 10
464.309077680632015
 20
49.809251186540763
 30
0.0
 40
2.5506848945729872
 50
78.5874063632359849
 51
101.4125936367639014
  0
ARC
  5
E0BA
  8
0
 10
464.309077680632015
 20
51.0631723958498469
 30
0.0
 40
2.5508789832533552
 50
78.9251559063513355
 51
101.0748440936486929
  0
ARC
  5
E0BB
  8
0
 10
464.3090521566546727
 20
51.0752057679004423
 30
0.0
 40
2.5502946683372869
 50
78.3413036831471885
 51
101.650677091203093
  0
ARC
  5
E0BC
  8
0
 10
464.2201369699873794
 20
53.7475629217324666
 30
0.0
 40
0.0167877196852826
 50
107.7692965934922995
 51
163.0597893967351126
  0
ARC
  5
E0BD
  8
0
 10
464.2541385540574765
 20
53.6659976463753381
 30
0.0
 40
0.1051055393710042
 50
90.0335823503399268
 51
111.8540999432814971
  0
ARC
  5
E0BE
  8
0
 10
464.3648477381429984
 20
53.6728076994248511
 30
0.0
 40
0.098298484588699
 50
65.1755835648450983
 51
90.4488522276797084
  0
ARC
  5
E0BF
  8
0
 10
464.4004269522446862
 20
53.7491938499099007
 30
0.0
 40
0.014034732160132
 50
13.4337887374210894
 51
66.0809807824118991
  0
LINE
  5
E0C0
  8
0
 10
464.2540776806819736
 20
53.7711031677025915
 30
0.0
 11
464.3640776806334998
 21
53.7711031676923881
 31
0.0
  0
ARC
  5
E0C1
  8
0
 10
464.3090773056425746
 20
51.1347519121548117
 30
0.0
 40
2.554022219847794
 50
88.7660510722835454
 51
91.2339320968833647
  0
ARC
  5
E0C2
  8
0
 10
464.3677585069954148
 20
53.8223079728793579
 30
0.0
 40
0.1341766177728901
 50
268.428025113116405
 51
280.2736408993043256
  0
ARC
  5
E0C3
  8
0
 10
464.3855992076145185
 20
53.7336321691855971
 30
0.0
 40
0.0437752251040791
 50
277.9964391350184769
 51
305.8589572673790826
  0
ARC
  5
E0C4
  8
0
 10
464.4063328725350743
 20
53.7041604067611118
 30
0.0
 40
0.0077575623647793
 50
309.2620042764773984
 51
356.7140463877951788
  0
ARC
  5
E0C5
  8
0
 10
464.2505063869581932
 20
53.8237483813024866
 30
0.0
 40
0.1356135450374332
 50
259.7893659567984059
 51
271.5090212094452795
  0
ARC
  5
E0C6
  8
0
 10
464.2318236465440009
 20
53.7318239024175099
 30
0.0
 40
0.0418853167858083
 50
233.5298300450687918
 51
262.6517576897197159
  0
ARC
  5
E0C7
  8
0
 10
464.2118093257719806
 20
53.7041519542995189
 30
0.0
 40
0.0077439402725876
 50
183.2291008057530917
 51
230.9136195486686063
  0
LINE
  5
E0C8
  8
0
 10
464.2040776806820759
 20
53.7524544204026
 30
0.0
 11
464.2040776806820759
 21
53.7037157489026029
 31
0.0
  0
LINE
  5
E0C9
  8
0
 10
464.4140776806819986
 20
53.7524544204026
 30
0.0
 11
464.4140776806819986
 21
53.7037157489026029
 31
0.0
  0
ARC
  5
E0CA
  8
0
 10
464.3090776711555918
 20
51.1629426907548321
 30
0.0
 40
2.554022219847794
 50
88.7660510722835454
 51
91.2339320968833647
  0
ARC
  5
E0CB
  8
0
 10
464.3677588725083751
 20
53.8504987514793783
 30
0.0
 40
0.1341766177728901
 50
268.428025113116405
 51
280.2736408993043256
  0
ARC
  5
E0CC
  8
0
 10
464.385599573127422
 20
53.7618229477856175
 30
0.0
 40
0.0437752251040791
 50
277.9964391350184769
 51
305.8589572673790826
  0
ARC
  5
E0CD
  8
0
 10
464.4063349549140867
 20
53.732349801262103
 30
0.0
 40
0.0077554041766354
 50
309.2586549982029851
 51
356.72337327770191
  0
ARC
  5
E0CE
  8
0
 10
464.2505067524712103
 20
53.8519391599024999
 30
0.0
 40
0.1356135450374332
 50
259.7893659567984059
 51
271.5090212094452795
  0
ARC
  5
E0CF
  8
0
 10
464.2318240120570181
 20
53.7600146810175374
 30
0.0
 40
0.0418853167858083
 50
233.5298300450687918
 51
262.6517576897197159
  0
ARC
  5
E0D0
  8
0
 10
464.2118113901642005
 20
53.7323441082561075
 30
0.0
 40
0.0077460789610163
 50
183.2383976913303059
 51
230.9102798189140913
  0
ARC
  5
E0D1
  8
0
 10
458.458762719982019
 20
43.1857013029025865
 30
0.0
 40
0.0393700787000051
 50
90.0000000000065086
 51
179.9999999999897966
  0
ARC
  5
E0D2
  8
0
 10
458.4508893193819858
 20
43.1935747035025912
 30
0.0
 40
0.0373084569000013
 50
89.9999998464279543
 51
179.9999999999890008
  0
ARC
  5
E0D3
  8
0
 10
458.4430146884819806
 20
43.2014493344025965
 30
0.0
 40
0.0787401575000009
 50
90.0
 51
180.0000000000052864
  0
ARC
  5
E0D4
  8
0
 10
458.458762719982019
 20
35.500661933402597
 30
0.0
 40
0.0393700787000051
 50
180.0000000000104876
 51
269.9999999999935199
  0
ARC
  5
E0D5
  8
0
 10
458.4508893193819858
 20
35.4927885328026065
 30
0.0
 40
0.0373084569000013
 50
180.0000000000104876
 51
270.0000001535721026
  0
ARC
  5
E0D6
  8
0
 10
458.4430146884819806
 20
35.484913901902587
 30
0.0
 40
0.0787401575000009
 50
179.9999999999951115
 51
270.0
  0
LINE
  5
E0D7
  8
0
 10
458.3642745309820725
 20
35.4849139019026012
 30
0.0
 11
458.3642745309820725
 21
43.2014493344025965
 31
0.0
  0
LINE
  5
E0D8
  8
0
 10
458.4135808624820925
 20
43.1935747035025983
 30
0.0
 11
458.4135808624820925
 21
35.4927885328026065
 31
0.0
  0
LINE
  5
E0D9
  8
0
 10
458.4193926412821156
 20
35.5006619328026005
 30
0.0
 11
458.4193926412821156
 21
43.1857013020240217
 31
0.0
  0
LINE
  5
E0DA
  8
0
 10
458.4430146884819806
 20
43.2801894919025969
 30
0.0
 11
461.9075816176820126
 21
43.2801894919025898
 31
0.0
  0
LINE
  5
E0DB
  8
0
 10
458.458762719982019
 20
43.2250713816025893
 30
0.0
 11
461.9075816176820126
 21
43.2250713816025893
 31
0.0
  0
LINE
  5
E0DC
  8
0
 10
458.4508893194819734
 20
43.2308831604025912
 30
0.0
 11
461.9075816176820126
 21
43.2308831604025912
 31
0.0
  0
ARC
  5
E0DD
  8
0
 10
466.1438020901820778
 20
43.1857013029025865
 30
0.0
 40
0.0393700787000051
 50
0.0000000000101778
 51
89.9999999999934914
  0
ARC
  5
E0DE
  8
0
 10
466.1516754907819973
 20
43.1935747035025912
 30
0.0
 40
0.0373084569000013
 50
0.000000000010992
 51
90.0000001535720457
  0
ARC
  5
E0DF
  8
0
 10
466.1595501216821162
 20
43.2014493344025965
 30
0.0
 40
0.0787401575000009
 50
359.9999999999947136
 51
90.0
  0
ARC
  5
E0E0
  8
0
 10
466.1438020901820778
 20
35.500661933402597
 30
0.0
 40
0.0393700787000051
 50
270.0000000000064801
 51
359.9999999999894271
  0
ARC
  5
E0E1
  8
0
 10
466.1516754907819973
 20
35.4927885328026065
 30
0.0
 40
0.0373084569000013
 50
269.9999998464280111
 51
359.9999999999894271
  0
ARC
  5
E0E2
  8
0
 10
466.1595501216821162
 20
35.484913901902587
 30
0.0
 40
0.0787401575000009
 50
270.0
 51
0.0000000000048853
  0
LINE
  5
E0E3
  8
0
 10
466.2382902791820243
 20
35.4849139019026012
 30
0.0
 11
466.2382902791820243
 21
43.2014493344025965
 31
0.0
  0
LINE
  5
E0E4
  8
0
 10
466.1889839476820043
 20
43.1935747035025983
 30
0.0
 11
466.1889839476820043
 21
35.4927885328026065
 31
0.0
  0
LINE
  5
E0E5
  8
0
 10
466.1831721688819812
 20
35.5006619328026005
 30
0.0
 11
466.1831721688819812
 21
43.1857013020240217
 31
0.0
  0
LINE
  5
E0E6
  8
0
 10
466.1595501216821162
 20
43.2801894919025969
 30
0.0
 11
462.6949831924820842
 21
43.2801894919025898
 31
0.0
  0
LINE
  5
E0E7
  8
0
 10
466.1438020901820778
 20
43.2250713816025893
 30
0.0
 11
462.6949831924820842
 21
43.2250713816025893
 31
0.0
  0
LINE
  5
E0E8
  8
0
 10
466.1516754906820097
 20
43.2308831604025912
 30
0.0
 11
462.6949831924820842
 21
43.2308831604025912
 31
0.0
  0
LINE
  5
E0E9
  8
0
 10
458.4430146884819806
 20
35.406173743902599
 30
0.0
 11
466.1595501215820718
 21
35.406173743902599
 31
0.0
  0
LINE
  5
E0EA
  8
0
 10
466.1516754906804749
 20
35.4554800754025976
 30
0.0
 11
458.4508893194819734
 21
35.4554800759026065
 31
0.0
  0
LINE
  5
E0EB
  8
0
 10
458.458762719982019
 20
35.4612918541025977
 30
0.0
 11
466.1438020901820778
 21
35.4612918547026013
 31
0.0
  0
ARC
  5
E0ED
  8
0
 10
463.8327225930597137
 20
53.4537163863829505
 30
0.0
 40
0.1057794764158175
 50
97.4120997527220567
 51
110.5275584482807005
  0
ARC
  5
E0EE
  8
0
 10
464.3089521152405155
 20
51.0556433184157967
 30
0.0
 40
2.5504568501777509
 50
78.5890724141404036
 51
101.0738258828202021
  0
ARC
  5
E0EF
  8
0
 10
464.8039043571753837
 20
53.50973969515465
 30
0.0
 40
0.0469473737293412
 50
66.2384926888148868
 51
78.149442999538195
  0
LINE
  5
E0F0
  8
0
 10
464.7990788512353788
 20
53.5665466068782692
 30
0.0
 11
464.7990788512353788
 21
53.5585684289729329
 31
0.0
  0
LINE
  5
E0F1
  8
0
 10
463.8190765100820272
 20
53.5665466068025893
 30
0.0
 11
463.8190765132080742
 21
53.5586119636752827
 31
0.0
  0
ARC
  5
E0F2
  8
0
 10
463.8168975545290778
 20
52.235440180292791
 30
0.0
 40
0.0402973097528536
 50
100.9132069054950023
 51
173.5418924314892024
  0
ARC
  5
E0F3
  8
0
 10
464.309077680632015
 20
49.7739363324743209
 30
0.0
 40
2.5505239451282762
 50
78.6989931325213234
 51
101.301006867478705
  0
ARC
  5
E0F4
  8
0
 10
464.8011697384503123
 20
52.2353285140785175
 30
0.0
 40
0.0404236824999076
 50
4.2967251734379808
 51
78.9941890929542581
  0
ENDSEC
  0
EOF
