  0
SECTION
  2
HEADER
  9
$ACADVER
  1
AC1009
  9
$INSBASE
 10
3691.3623968832421269
 20
359.425506582910316
 30
0.0
  9
$EXTMIN
 10
3685.1981745667840187
 20
337.39238357277668
 30
-0.0000000000112498
  9
$EXTMAX
 10
3691.372159718659077
 20
372.9190105505156225
 30
0.0000000000002956
  9
$LIMMIN
 10
0.0
 20
0.0
  9
$LIMMAX
 10
11.6929133858000007
 20
8.2677165353999982
  9
$ORTHOMODE
 70
     0
  9
$REGENMODE
 70
     1
  9
$FILLMODE
 70
     1
  9
$QTEXTMODE
 70
     0
  9
$MIRRTEXT
 70
     0
  9
$DRAGMODE
 70
     2
  9
$LTSCALE
 40
0.6431102362
  9
$OSMODE
 70
  4095
  9
$ATTMODE
 70
     1
  9
$TEXTSIZE
 40
0.2
  9
$TRACEWID
 40
0.05
  9
$TEXTSTYLE
  7
STANDARD
  9
$CLAYER
  8
0
  9
$CELTYPE
  6
BYLAYER
  9
$CECOLOR
 62
   256
  9
$DIMSCALE
 40
1.0
  9
$DIMASZ
 40
0.1875
  9
$DIMEXO
 40
0.0625
  9
$DIMDLI
 40
0.4443307087
  9
$DIMRND
 40
0.0
  9
$DIMDLE
 40
0.0
  9
$DIMEXE
 40
0.125
  9
$DIMTP
 40
0.01
  9
$DIMTM
 40
0.01
  9
$DIMTXT
 40
2.0
  9
$DIMCEN
 40
0.1052362205
  9
$DIMTSZ
 40
0.0
  9
$DIMTOL
 70
     1
  9
$DIMLIM
 70
     0
  9
$DIMTIH
 70
     1
  9
$DIMTOH
 70
     1
  9
$DIMSE1
 70
     0
  9
$DIMSE2
 70
     0
  9
$DIMTAD
 70
     0
  9
$DIMZIN
 70
     0
  9
$DIMBLK
  1

  9
$DIMASO
 70
     1
  9
$DIMSHO
 70
     1
  9
$DIMPOST
  1
\X
  9
$DIMAPOST
  1

  9
$DIMALT
 70
     1
  9
$DIMALTD
 70
     2
  9
$DIMALTF
 40
25.3999999999999986
  9
$DIMLFAC
 40
1.0
  9
$DIMTOFL
 70
     0
  9
$DIMTVP
 40
0.0
  9
$DIMTIX
 70
     0
  9
$DIMSOXD
 70
     0
  9
$DIMSAH
 70
     0
  9
$DIMBLK1
  1

  9
$DIMBLK2
  1

  9
$DIMSTYLE
  2
STANDARD
  9
$DIMCLRD
 70
     0
  9
$DIMCLRE
 70
     0
  9
$DIMCLRT
 70
     0
  9
$DIMTFAC
 40
1.0
  9
$DIMGAP
 40
0.09
  9
$LUNITS
 70
     2
  9
$LUPREC
 70
     4
  9
$SKETCHINC
 40
0.1
  9
$FILLETRAD
 40
0.0
  9
$AUNITS
 70
     0
  9
$AUPREC
 70
     0
  9
$MENU
  1
.
  9
$ELEVATION
 40
0.0
  9
$PELEVATION
 40
0.0
  9
$THICKNESS
 40
0.0
  9
$LIMCHECK
 70
     0
  9
$BLIPMODE
 70
     0
  9
$CHAMFERA
 40
0.0
  9
$CHAMFERB
 40
0.0
  9
$SKPOLY
 70
     0
  9
$TDCREATE
 40
2458060.468368056230247
  9
$TDUPDATE
 40
2459114.4437847221270204
  9
$TDINDWG
 40
0.4944314468
  9
$TDUSRTIMER
 40
0.4944314468
  9
$USRTIMER
 70
     1
  9
$ANGBASE
 50
0.0
  9
$ANGDIR
 70
     0
  9
$PDMODE
 70
     0
  9
$PDSIZE
 40
0.3125
  9
$PLINEWID
 40
0.0
  9
$COORDS
 70
     1
  9
$SPLFRAME
 70
     0
  9
$SPLINETYPE
 70
     6
  9
$SPLINESEGS
 70
     8
  9
$ATTDIA
 70
     1
  9
$ATTREQ
 70
     1
  9
$HANDLING
 70
     1
  9
$HANDSEED
  5
D563
  9
$SURFTAB1
 70
     6
  9
$SURFTAB2
 70
     6
  9
$SURFTYPE
 70
     6
  9
$SURFU
 70
     6
  9
$SURFV
 70
     6
  9
$UCSNAME
  2

  9
$UCSORG
 10
0.0
 20
0.0
 30
0.0
  9
$UCSXDIR
 10
1.0
 20
0.0
 30
0.0
  9
$UCSYDIR
 10
0.0
 20
1.0
 30
0.0
  9
$PUCSNAME
  2

  9
$PUCSORG
 10
0.0
 20
0.0
 30
0.0
  9
$PUCSXDIR
 10
1.0
 20
0.0
 30
0.0
  9
$PUCSYDIR
 10
0.0
 20
1.0
 30
0.0
  9
$USERI1
 70
     0
  9
$USERI2
 70
     0
  9
$USERI3
 70
     0
  9
$USERI4
 70
     0
  9
$USERI5
 70
     0
  9
$USERR1
 40
0.0
  9
$USERR2
 40
0.0
  9
$USERR3
 40
0.0
  9
$USERR4
 40
0.0
  9
$USERR5
 40
0.0
  9
$WORLDVIEW
 70
     1
  9
$SHADEDGE
 70
     3
  9
$SHADEDIF
 70
    70
  9
$TILEMODE
 70
     1
  9
$MAXACTVP
 70
    64
  9
$PLIMCHECK
 70
     0
  9
$PEXTMIN
 10
1.0000000000000000E+20
 20
1.0000000000000000E+20
 30
1.0000000000000000E+20
  9
$PEXTMAX
 10
-1.0000000000000000E+20
 20
-1.0000000000000000E+20
 30
-1.0000000000000000E+20
  9
$PLIMMIN
 10
0.0
 20
0.0
  9
$PLIMMAX
 10
12.0
 20
9.0
  9
$UNITMODE
 70
     0
  9
$VISRETAIN
 70
     1
  9
$PLINEGEN
 70
     0
  9
$PSLTSCALE
 70
     1
  0
ENDSEC
  0
SECTION
  2
TABLES
  0
TABLE
  2
VPORT
 70
     1
  0
VPORT
  2
*ACTIVE
 70
     0
 10
0.0
 20
0.0
 11
1.0
 21
1.0
 12
427.9688829630341047
 22
50.9452631016852209
 13
0.0
 23
0.0
 14
1.0
 24
1.0
 15
0.0
 25
0.0
 16
0.0
 26
0.0
 36
48.4519809769821421
 17
3260.3162841796870453
 27
304.2104339599608807
 37
0.0
 40
35.7491319483719678
 41
2.005224660397074
 42
50.0
 43
0.0
 44
0.0
 50
0.0
 51
0.0
 71
     0
 72
   100
 73
     1
 74
     1
 75
     0
 76
     0
 77
     0
 78
     0
  0
ENDTAB
  0
TABLE
  2
LTYPE
 70
     2
  0
LTYPE
  2
CONTINUOUS
 70
     0
  3
Solid line
 72
    65
 73
     0
 40
0.0
  0
LTYPE
  2
PHANTOM2
 70
     0
  3
___ _ _ ___ _ _ ___ _ _ ___ _ _
 72
    65
 73
     6
 40
1.25
 49
0.625
 49
-0.125
 49
0.125
 49
-0.125
 49
0.125
 49
-0.125
  0
ENDTAB
  0
TABLE
  2
LAYER
 70
     2
  0
LAYER
  2
0
 70
     0
 62
   255
  6
CONTINUOUS
  0
LAYER
  2
DEFPOINTS
 70
     0
 62
     7
  6
CONTINUOUS
  0
ENDTAB
  0
TABLE
  2
STYLE
 70
     1
  0
STYLE
  2
STANDARD
 70
     0
 40
0.0
 41
0.8
 50
0.0
 71
     0
 42
0.2
  3
txt
  4

  0
ENDTAB
  0
TABLE
  2
VIEW
 70
     0
  0
ENDTAB
  0
TABLE
  2
UCS
 70
     0
  0
ENDTAB
  0
TABLE
  2
APPID
 70
     9
  0
APPID
  2
ACAD
 70
     0
  0
APPID
  2
ACAD_MLEADERVER
 70
     0
  0
APPID
  2
ACAD_EXEMPT_FROM_CAD_STANDARDS
 70
     0
  0
APPID
  2
ACAD_NAV_VCDISPLAY
 70
     0
  0
APPID
  2
ACAECLAYERSTANDARD
 70
     0
  0
APPID
  2
ACCMTRANSPARENCY
 70
     0
  0
APPID
  2
ACAD_DSTYLE_DIMJAG
 70
     0
  0
APPID
  2
ACAD_DSTYLE_DIMTALN
 70
     0
  0
APPID
  2
ACDBATTR
 70
     0
  0
ENDTAB
  0
TABLE
  2
DIMSTYLE
 70
     1
  0
DIMSTYLE
  2
STANDARD
 70
     0
  3

  4

  5

  6

  7

 40
1.0
 41
0.1875
 42
0.0625
 43
0.38
 44
0.125
 45
0.0
 46
0.0
 47
0.01
 48
0.01
140
0.15625
141
0.09
142
0.0
143
25.3999999999999986
144
1.0
145
0.0
146
1.0
147
0.09
 71
     1
 72
     0
 73
     1
 74
     1
 75
     0
 76
     0
 77
     0
 78
     4
170
     0
171
     2
172
     0
173
     0
174
     0
175
     0
176
     0
177
     0
178
     0
  0
ENDTAB
  0
ENDSEC
  0
SECTION
  2
BLOCKS
  0
BLOCK
  8
0
  2
$MODEL_SPACE
 70
     0
 10
0.0
 20
0.0
 30
0.0
  3
$MODEL_SPACE
  1

  0
ENDBLK
  5
21
  8
0
  0
BLOCK
 67
     1
  8
0
  2
$PAPER_SPACE
 70
     0
 10
0.0
 20
0.0
 30
0.0
  3
$PAPER_SPACE
  1

  0
ENDBLK
  5
1D
 67
     1
  8
0
  0
ENDSEC
  0
SECTION
  2
ENTITIES
  0
ATTDEF
  5
A142
  8
DEFPOINTS
 10
3691.3581778231991848
 20
359.4303722496673004
 30
0.0
 40
0.001
  1
K-76665T-E
  3

  2
MODELNUMBER
 70
     0
1001
ACDBATTR
1070
     0
1070
     1
  0
ATTDEF
  5
A143
  8
DEFPOINTS
 10
3691.3581778231991848
 20
359.4287055830005784
 30
0.0
 40
0.001
  1
ELEVATION
  3

  2
TRADENAME
 70
     0
1001
ACDBATTR
1070
     0
1070
     1
  0
ATTDEF
  5
A144
  8
DEFPOINTS
 10
3691.3581778231991848
 20
359.4270389163340269
 30
0.0
 40
0.001
  1
SHOWER COLUMN KIT
  3

  2
PRODUCT
 70
     0
1001
ACDBATTR
1070
     0
1070
     1
  0
LINE
  5
D1FE
  8
0
 10
3685.9155914273878807
 20
368.3378742665386198
 30
0.0
 11
3685.388710324269141
 21
367.9111197730887284
 31
0.0
  0
ARC
  5
D1FF
  8
0
 10
3678.1743383652410557
 20
359.8088065727999947
 30
0.0
 40
11.7261151859510306
 50
2.182095068567611
 51
8.8633418339923669
  0
ARC
  5
D200
  8
0
 10
3677.9565252559132205
 20
359.7748407112766245
 30
0.0
 40
11.9465607128826594
 50
8.8633418339923669
 51
17.7522938779742283
  0
ARC
  5
D201
  8
0
 10
3678.3259006235039124
 20
359.8930950023377022
 30
0.0
 40
11.5587176524348791
 50
17.7522938779742283
 51
23.2533040927775012
  0
ARC
  5
D202
  8
0
 10
3677.8052544732131537
 20
359.6693721959874779
 30
0.0
 40
12.1253959632022799
 50
23.2533040927775012
 51
29.0832237890470005
  0
ARC
  5
D203
  8
0
 10
3678.4621465691161575
 20
360.0347417636842238
 30
0.0
 40
11.3737297163494908
 50
29.0832237890470005
 51
32.5622864265920811
  0
ARC
  5
D204
  8
0
 10
3677.9091929358860398
 20
359.6816257759292057
 30
0.0
 40
12.02981555014712
 50
32.5622864265920811
 51
37.4562990401660372
  0
ARC
  5
D205
  8
0
 10
3682.8243695087348897
 20
363.4472206267221281
 30
0.0
 40
5.8379930944714911
 50
37.4562990401660372
 51
46.9740845466777301
  0
ARC
  5
D206
  8
0
 10
3682.7489600442181654
 20
363.3664271732989164
 30
0.0
 40
5.9485108281379171
 50
46.9740845466777301
 51
56.7758146363254497
  0
ARC
  5
D207
  8
0
 10
3685.9651255727540047
 20
368.2767182493133191
 30
0.0
 40
0.0787
 50
56.7758146363236733
 51
129.0062117870791951
  0
ARC
  5
D208
  8
0
 10
3692.5952387094321239
 20
370.4990859752597885
 30
0.0
 40
7.7390196817274397
 50
200.6123990027994068
 51
203.1567044350888125
  0
ARC
  5
D209
  8
0
 10
3692.5385364909129748
 20
370.3605643559030796
 30
0.0
 40
7.6101743285643817
 50
225.3544824485182119
 51
227.4517281770067996
  0
ARC
  5
D20A
  8
0
 10
3685.4648053455489389
 20
367.8171710757246728
 30
0.0
 40
0.1209
 50
129.0062117870812131
 51
200.6123990027994068
  0
ARC
  5
D20B
  8
0
 10
3668.2744270689267978
 20
359.6032221576222128
 30
0.0
 40
20.5975538983081599
 50
1.8064998953833891
 51
4.9192602985332563
  0
ARC
  5
D20C
  8
0
 10
3669.6304602976379101
 20
359.7199344158890995
 30
0.0
 40
19.2365072905097882
 50
4.9192602985332563
 51
10.4779044237174404
  0
ARC
  5
D20D
  8
0
 10
3667.9916027568838217
 20
359.4168437976481982
 30
0.0
 40
20.9031560122727491
 50
10.4779044237174404
 51
13.2457511977804394
  0
ARC
  5
D20E
  8
0
 10
3687.5037116743010301
 20
364.0082330090506844
 30
0.0
 40
0.8581269025079961
 50
13.34814160808053
 51
69.989020714128884
  0
LINE
  5
D20F
  8
0
 10
3688.9011242062078963
 20
360.2143845357102805
 30
0.0
 11
3689.8525790910548494
 21
360.2143845357102805
 31
0.0
  0
ARC
  5
D210
  8
0
 10
3688.9011242062078963
 20
360.253784535710281
 30
0.0
 40
0.0394
 50
181.8064998953832969
 51
270.0
  0
ARC
  5
D211
  8
0
 10
3689.8525790910548494
 20
360.253784535710281
 30
0.0
 40
0.0394
 50
270.0
 51
2.182095068567611
  0
ARC
  5
D212
  8
0
 10
3663.2451287637891255
 20
350.8639307008047012
 30
0.0
 40
27.8415569075170808
 50
33.7022279380497025
 51
37.4583098559015397
  0
ARC
  5
D213
  8
0
 10
3656.8130000803689654
 20
345.8180385440051055
 30
0.0
 40
35.9979947801445519
 50
31.6310495579532116
 51
34.7031057637610303
  0
LINE
  5
D214
  8
0
 10
3687.7973628765557805
 20
364.8145522710196929
 30
0.0
 11
3687.5836328307000258
 21
364.6945191276070091
 31
0.0
  0
ARC
  5
D215
  8
0
 10
3687.1486314804851645
 20
364.4068064764367136
 30
0.0
 40
0.4243271068595248
 50
45.3360107254724127
 51
54.9280277489286206
  0
ARC
  5
D216
  8
0
 10
3687.5297796468048546
 20
364.8087800446429014
 30
0.0
 40
0.130008094914564
 50
230.4011027353934935
 51
254.7988735553443007
  0
ARC
  5
D217
  8
0
 10
3687.5258575403167924
 20
364.7973255407986812
 30
0.0
 40
0.1179285494355744
 50
255.1785271055196063
 51
299.3351756899027123
  0
ARC
  5
D218
  8
0
 10
3688.3158362249678248
 20
365.2393897914668059
 30
0.0
 40
1.0419365512816421
 50
207.8557543888101975
 51
230.6068999847379075
  0
ARC
  5
D219
  8
0
 10
3688.2821886745127813
 20
365.2440238143420856
 30
0.0
 40
1.024572690472906
 50
232.2257160705129877
 51
255.4029111553595897
  0
ARC
  5
D21A
  8
0
 10
3688.0510712738027905
 20
364.3700896395006907
 30
0.0
 40
0.1206492843565471
 50
257.0217272411514955
 51
330.6611511069630183
  0
ARC
  5
D21B
  8
0
 10
3688.0561604555841768
 20
364.3672291848052964
 30
0.0
 40
0.1148113076297917
 50
330.6611511069658036
 51
16.7418506180368709
  0
ARC
  5
D21C
  8
0
 10
3687.5984797044911829
 20
364.2370967847140264
 30
0.0
 40
0.5906221618283853
 50
16.0411206986196184
 51
68.3847912090730432
  0
ARC
  5
D21D
  8
0
 10
3688.2571229411851164
 20
365.0970591908176743
 30
0.0
 40
0.5396197520119218
 50
211.5693101513419947
 51
215.1765206615646093
  0
ARC
  5
D21E
  8
0
 10
3640.2132260755320203
 20
334.5730474510539239
 30
0.0
 40
56.9123785169217626
 50
33.4071084729036514
 51
36.3702966463703632
  0
ARC
  5
D21F
  8
0
 10
3689.6417529948839729
 20
367.1739552610220017
 30
0.0
 40
2.299093880334933
 50
213.4071084729035874
 51
228.9428249384033904
  0
ARC
  5
D220
  8
0
 10
3686.4213646827311095
 20
363.5758167489096877
 30
0.0
 40
2.5301241935501682
 50
31.2359387609797103
 51
47.4696111238617533
  0
ARC
  5
D221
  8
0
 10
3684.7088833922030062
 20
362.6714814162355083
 30
0.0
 40
4.464793814385339
 50
22.3636829220413311
 51
29.7627249464448305
  0
ARC
  5
D222
  8
0
 10
3677.9528401202010173
 20
359.7749661281978888
 30
0.0
 40
11.8152704126919108
 50
2.329009678711992
 51
22.8878635524028411
  0
ARC
  5
D223
  8
0
 10
3689.7173258860980241
 20
360.2530668540712213
 30
0.0
 40
0.0410755349084962
 50
289.6547961810993002
 51
2.8531903090769961
  0
LINE
  5
D224
  8
0
 10
3685.5616849662710592
 20
367.2633753169403121
 30
0.0
 11
3685.4344836805680643
 21
367.4499563138072062
 31
0.0
  0
LINE
  5
D225
  8
0
 10
3685.4375865704391799
 20
367.466353023081183
 30
0.0
 11
3685.4667606607781636
 21
367.4862424107811876
 31
0.0
  0
LINE
  5
D226
  8
0
 10
3685.4559147630620828
 20
367.4394202697154128
 30
0.0
 11
3685.4869368266749916
 21
367.4606752102977794
 31
0.0
  0
LINE
  5
D227
  8
0
 10
3685.5100935119580754
 20
367.3597904633826943
 30
0.0
 11
3685.5422541440948407
 21
367.3821872310509775
 31
0.0
  0
LINE
  5
D228
  8
0
 10
3685.5131284804961069
 20
367.3555468990593909
 30
0.0
 11
3685.5450346329571403
 21
367.3772988051683228
 31
0.0
  0
LINE
  5
D229
  8
0
 10
3685.5760053167809929
 20
367.2591433450862155
 30
0.0
 11
3685.593758257591162
 21
367.266601898625197
 31
0.0
  0
ARC
  5
D22A
  8
0
 10
3685.5714347658267798
 20
367.2700222266453238
 30
0.0
 40
0.0118
 50
214.2841453319267089
 51
292.7887658486654914
  0
ARC
  5
D22B
  8
0
 10
3685.5197753775778438
 20
367.345797090898202
 30
0.0
 40
0.0118
 50
124.2840711534444011
 51
214.2841453319051936
  0
ARC
  5
D22C
  8
0
 10
3685.516836972920828
 20
367.3501071925385872
 30
0.0
 40
0.0118
 50
124.8534772971871973
 51
214.2841453319574896
  0
ARC
  5
D22D
  8
0
 10
3685.4625842980672132
 20
367.4296859334360192
 30
0.0
 40
0.0118
 50
124.4172108880069061
 51
214.2841453318850995
  0
ARC
  5
D22E
  8
0
 10
3685.4442334801237848
 20
367.4566032235122179
 30
0.0
 40
0.0118
 50
124.2841452157176008
 51
214.2841453319240941
  0
ARC
  5
D22F
  8
0
 10
3685.0062590347088189
 20
367.0740834813008178
 30
0.0
 40
0.6182383665678194
 50
15.3376962999502808
 51
32.9943267113168233
  0
ARC
  5
D230
  8
0
 10
3685.9864777573798165
 20
367.5139125073853847
 30
0.0
 40
0.4730725908090266
 50
192.5957845588337989
 51
196.9067723671867043
  0
ARC
  5
D231
  8
0
 10
3685.9864777573798165
 20
367.5139125073853847
 30
0.0
 40
0.4730725908090266
 50
212.0201736557442018
 51
215.7362384524394088
  0
ARC
  5
D232
  8
0
 10
3684.4727332907768869
 20
366.9498676905384968
 30
0.0
 40
1.1355761244722491
 50
21.8021012851053193
 51
28.4792933799954398
  0
ARC
  5
D233
  8
0
 10
3685.8046834900869726
 20
367.5892039410435927
 30
0.0
 40
0.3478365197612303
 50
196.337883610103006
 51
202.2071544741100126
  0
LINE
  5
D234
  8
0
 10
3685.7020005641029456
 20
366.9687474612960045
 30
0.0
 11
3685.5606791695358879
 21
367.1760400724909914
 31
0.0
  0
LINE
  5
D235
  8
0
 10
3685.6497741101848078
 20
367.0647422591702025
 30
0.0
 11
3685.678340364757787
 21
367.0875094533286074
 31
0.0
  0
LINE
  5
D236
  8
0
 10
3685.7170245554830217
 20
366.9648386663569113
 30
0.0
 11
3685.736749378479999
 21
366.9746942376984862
 31
0.0
  0
LINE
  5
D237
  8
0
 10
3685.5923061941448395
 20
367.1490997657265893
 30
0.0
 11
3685.6203467664017808
 21
367.1713109419022203
 31
0.0
  0
LINE
  5
D238
  8
0
 10
3685.5631216707911335
 20
367.1919521530862198
 30
0.0
 11
3685.589417224024146
 21
367.212691052966079
 31
0.0
  0
ARC
  5
D239
  8
0
 10
3685.7117503636568472
 20
366.9753943710035742
 30
0.0
 40
0.0118
 50
214.2841453485168017
 51
296.5491537885562252
  0
ARC
  5
D23A
  8
0
 10
3685.6571285974891907
 20
367.0555145012352227
 30
0.0
 40
0.0118
 50
128.5547095875043055
 51
214.2841453484778924
  0
ARC
  5
D23B
  8
0
 10
3685.5996330010289057
 20
367.1398500143304773
 30
0.0
 40
0.0118
 50
128.383044673938997
 51
214.2841453484778924
  0
ARC
  5
D23C
  8
0
 10
3685.57042896908888
 20
367.1826869821987884
 30
0.0
 40
0.0118
 50
128.2623032353216104
 51
214.2841453485222019
  0
LINE
  5
D23D
  8
0
 10
3685.6494782577119622
 20
367.1345986325387116
 30
0.0
 11
3685.5948651944358971
 21
367.2147059971348995
 31
0.0
  0
LINE
  5
D23E
  8
0
 10
3685.5977715987660304
 20
367.2309658118119273
 30
0.0
 11
3685.630474650684846
 21
367.2542470062090842
 31
0.0
  0
LINE
  5
D23F
  8
0
 10
3685.6639146474622066
 20
367.1304161437312814
 30
0.0
 11
3685.6841616175988747
 21
367.1391783341376822
 31
0.0
  0
LINE
  5
D240
  8
0
 10
3685.6044629696998527
 20
367.2215759378876214
 30
0.0
 11
3685.6371717700521913
 21
367.2438750186486232
 31
0.0
  0
ARC
  5
D241
  8
0
 10
3685.6592280572622258
 20
367.141245542251113
 30
0.0
 40
0.0118
 50
214.284145376541403
 51
293.4012967071831781
  0
ARC
  5
D242
  8
0
 10
3685.6111098611459056
 20
367.211826125883988
 30
0.0
 40
0.0118
 50
124.2840380321706988
 51
214.2841453766071993
  0
ARC
  5
D243
  8
0
 10
3685.6046149939861607
 20
367.2213529068475282
 30
0.0
 40
0.0118
 50
125.4469378929349972
 51
214.2841453766125994
  0
ARC
  5
D244
  8
0
 10
3685.280388195174055
 20
367.020850510660523
 30
0.0
 40
0.4207546202554883
 50
12.2590444303396708
 51
38.2206820521044577
  0
ARC
  5
D245
  8
0
 10
3686.0734664592109766
 20
367.3947189959134221
 30
0.0
 40
0.4762540435711701
 50
193.7936119416756924
 51
198.0397218483500126
  0
ARC
  5
D246
  8
0
 10
3686.0734664592109766
 20
367.3947189959134221
 30
0.0
 40
0.4762540435711701
 50
213.0595455845102038
 51
216.6861145407692106
  0
ARC
  5
D247
  8
0
 10
3684.8137943925271429
 20
366.7044353523165796
 30
0.0
 40
0.9319332314897293
 50
23.6776962032386216
 51
31.8136258007955206
  0
ARC
  5
D248
  8
0
 10
3685.1532900611800869
 20
366.7441416456214256
 30
0.0
 40
0.6273589663482486
 50
19.4094251738809085
 51
35.7968217146093721
  0
ARC
  5
D249
  8
0
 10
3686.5465494507889161
 20
367.4411286126925233
 30
0.0
 40
0.9438152848574597
 50
200.4554660090427092
 51
202.2743808947701041
  0
ARC
  5
D24A
  8
0
 10
3686.5465494507889161
 20
367.4411286126925233
 30
0.0
 40
0.9438152848574597
 50
209.9079575092717107
 51
211.4008310629502887
  0
ARC
  5
D24B
  8
0
 10
3685.7719341517490648
 20
367.2435853707611955
 30
0.0
 40
0.1729705028393949
 50
196.0678702591619071
 51
205.8725061975065103
  0
ARC
  5
D24C
  8
0
 10
3686.764047967733859
 20
367.8082299523433107
 30
0.0
 40
1.316975309085241
 50
204.6441746333858021
 51
209.1691043157611887
  0
LINE
  5
D24D
  8
0
 10
3685.7328225479050161
 20
366.9428338862255146
 30
0.0
 11
3685.7613878520619437
 21
366.9658068169798071
 31
0.0
  0
LINE
  5
D24E
  8
0
 10
3685.8001595265859578
 20
366.8429830374682865
 30
0.0
 11
3685.8205683121491347
 21
366.8532889784909798
 31
0.0
  0
LINE
  5
D24F
  8
0
 10
3685.7850906976241276
 20
366.8468693542974961
 30
0.0
 11
3685.730467791882802
 21
366.9269917391122817
 31
0.0
  0
LINE
  5
D250
  8
0
 10
3685.7815589769361395
 20
366.9581495749848727
 30
0.0
 11
3685.8045042652879602
 21
366.9684736117853276
 31
0.0
  0
LINE
  5
D251
  8
0
 10
3685.7151034775588414
 20
367.058550362658309
 30
0.0
 11
3685.7475424592498712
 21
367.0823774879368102
 31
0.0
  0
ARC
  5
D252
  8
0
 10
3685.4773069657549058
 20
366.8760414725743999
 30
0.0
 40
0.3400026076085509
 50
10.3585981037728292
 51
42.865016501701227
  0
ARC
  5
D253
  8
0
 10
3686.0769321058460264
 20
367.1764659463009934
 30
0.0
 40
0.3571711839993366
 50
191.1599064778561967
 51
196.8087141170225891
  0
ARC
  5
D254
  8
0
 10
3686.0769321058460264
 20
367.1764659463009934
 30
0.0
 40
0.3571711839993366
 50
216.821617535806098
 51
222.063708127604599
  0
LINE
  5
D255
  8
0
 10
3685.7669673979530671
 20
366.9622635747227264
 30
0.0
 11
3685.7123391144118614
 21
367.0423932648316736
 31
0.0
  0
ARC
  5
D256
  8
0
 10
3685.7767171975101519
 20
366.9689104844255212
 30
0.0
 40
0.0118
 50
214.2841453194776875
 51
294.2249565273928056
  0
ARC
  5
D257
  8
0
 10
3685.7220889139698556
 20
367.0490401745345252
 30
0.0
 40
0.0118
 50
126.2980775097854007
 51
214.2841453194724011
  0
ARC
  5
D258
  8
0
 10
3685.794840519689842
 20
366.8535162309840985
 30
0.0
 40
0.0118
 50
214.2839512961620869
 51
296.7926668001204007
  0
ARC
  5
D259
  8
0
 10
3685.7402176139480616
 20
366.9336386157988272
 30
0.0
 40
0.0118
 50
128.8071096520438061
 51
214.2839512962225115
  0
ARC
  5
D25A
  8
0
 10
3685.4145977471807782
 20
366.7115849641444925
 30
0.0
 40
0.4299908456027096
 50
15.3690524266739601
 51
40.0327666737122172
  0
ARC
  5
D25B
  8
0
 10
3686.8882811140979356
 20
367.4853158717256747
 30
0.0
 40
1.2477669317168929
 50
203.4801675276399067
 51
204.8293647536814035
  0
ARC
  5
D25C
  8
0
 10
3686.8882811140979356
 20
367.4853158717256747
 30
0.0
 40
1.2477669317168929
 50
210.6016216691432135
 51
211.9216515727518981
  0
LINE
  5
D25D
  8
0
 10
3685.9242932574879887
 20
366.749904238071224
 30
0.0
 11
3685.9484992268999122
 21
366.7607955075628752
 31
0.0
  0
LINE
  5
D25E
  8
0
 10
3685.8578377581097811
 20
366.8503050257443761
 30
0.0
 11
3685.8883122798961267
 21
366.8726892132414719
 31
0.0
  0
ARC
  5
D25F
  8
0
 10
3685.6507213713812234
 20
366.6727565515814717
 30
0.0
 40
0.3105197401251124
 50
11.0256779973346504
 51
46.1811620886138812
  0
ARC
  5
D260
  8
0
 10
3685.9465617995419962
 20
366.9091272315808965
 30
0.0
 40
0.0817760821445881
 50
188.6652988022443935
 51
212.7114214963553138
  0
ARC
  5
D261
  8
0
 10
3685.9896813710070091
 20
366.7876809028251159
 30
0.0
 40
0.0652086604655999
 50
210.9356572787856123
 51
238.3963406980159903
  0
LINE
  5
D262
  8
0
 10
3685.9097016785040068
 20
366.7540182378089071
 30
0.0
 11
3685.8550733949628011
 21
366.8341479279179111
 31
0.0
  0
ARC
  5
D263
  8
0
 10
3685.9194514780610916
 20
366.7606651475117019
 30
0.0
 40
0.0118
 50
214.2841453194776875
 51
294.2249565273928056
  0
ARC
  5
D264
  8
0
 10
3685.8648231945207954
 20
366.8407948376207059
 30
0.0
 40
0.0118
 50
126.2980775097854007
 51
214.2841453194724011
  0
LINE
  5
D265
  8
0
 10
3685.9038595667821028
 20
366.6878313538026077
 30
0.0
 11
3685.9284346794179328
 21
366.7008043900456755
 31
0.0
  0
LINE
  5
D266
  8
0
 10
3685.8374040674048047
 20
366.7882321414758735
 30
0.0
 11
3685.8665694641858863
 21
366.8120932728534171
 31
0.0
  0
ARC
  5
D267
  8
0
 10
3685.6083575159332213
 20
366.5957140866062218
 30
0.0
 40
0.3368877594409664
 50
13.2062530663183804
 51
44.811966096014352
  0
ARC
  5
D268
  8
0
 10
3686.0314913780689494
 20
366.8769704250482278
 30
0.0
 40
0.1892808338992312
 50
193.3870377178992896
 51
202.6427506461193957
  0
ARC
  5
D269
  8
0
 10
3686.0337977066601525
 20
366.8116428753489799
 30
0.0
 40
0.1697347824492712
 50
224.5492199390955079
 51
234.9563478712580036
  0
LINE
  5
D26A
  8
0
 10
3685.8892679877990304
 20
366.6919453535404045
 30
0.0
 11
3685.8346397042591889
 21
366.7720750436495223
 31
0.0
  0
ARC
  5
D26B
  8
0
 10
3685.8990177873561152
 20
366.6985922632431993
 30
0.0
 40
0.0118
 50
214.2841453194776875
 51
294.2249565273928056
  0
ARC
  5
D26C
  8
0
 10
3685.8443895038158189
 20
366.7787219533522034
 30
0.0
 40
0.0118
 50
126.2980775097854007
 51
214.2841453194724011
  0
LINE
  5
D26D
  8
0
 10
3686.0258468306042232
 20
366.5073691486689995
 30
0.0
 11
3686.0487921189551344
 21
366.5176931854693976
 31
0.0
  0
LINE
  5
D26E
  8
0
 10
3685.9593913312260156
 20
366.6077699363423221
 30
0.0
 11
3685.9918303129179549
 21
366.6315970616209938
 31
0.0
  0
ARC
  5
D26F
  8
0
 10
3685.7215948194229895
 20
366.4252610462585267
 30
0.0
 40
0.3400026076085509
 50
10.3585981037728292
 51
42.865016501701227
  0
ARC
  5
D270
  8
0
 10
3686.3212199595132006
 20
366.7256855199851771
 30
0.0
 40
0.3571711839993366
 50
191.1599064778561967
 51
196.8087141170225891
  0
ARC
  5
D271
  8
0
 10
3686.3212199595132006
 20
366.7256855199851771
 30
0.0
 40
0.3571711839993366
 50
216.821617535806098
 51
222.063708127604599
  0
LINE
  5
D272
  8
0
 10
3686.0112552516211508
 20
366.5114831484067963
 30
0.0
 11
3685.9566269680799451
 21
366.5916128385159141
 31
0.0
  0
ARC
  5
D273
  8
0
 10
3686.0210050511768713
 20
366.5181300581095911
 30
0.0
 40
0.0118
 50
214.2841453194776875
 51
294.2249565273928056
  0
ARC
  5
D274
  8
0
 10
3685.9663767676379393
 20
366.5982597482185952
 30
0.0
 40
0.0118
 50
126.2980775097854007
 51
214.2841453194724011
  0
LINE
  5
D275
  8
0
 10
3686.0842692355199688
 20
366.5141942119605005
 30
0.0
 11
3686.1072145238708799
 21
366.5245182487608986
 31
0.0
  0
LINE
  5
D276
  8
0
 10
3686.0178137361422159
 20
366.6145949996338231
 30
0.0
 11
3686.0502527178341552
 21
366.6384221249123812
 31
0.0
  0
ARC
  5
D277
  8
0
 10
3685.7800172243391899
 20
366.4320861095500277
 30
0.0
 40
0.3400026076085509
 50
10.3585981037728292
 51
42.865016501701227
  0
ARC
  5
D278
  8
0
 10
3686.3796423644289462
 20
366.7325105832766212
 30
0.0
 40
0.3571711839993366
 50
191.1599064778561967
 51
196.8087141170225891
  0
ARC
  5
D279
  8
0
 10
3686.3796423644289462
 20
366.7325105832766212
 30
0.0
 40
0.3571711839993366
 50
216.821617535806098
 51
222.063708127604599
  0
LINE
  5
D27A
  8
0
 10
3686.0696776565359869
 20
366.5183082116981836
 30
0.0
 11
3686.0150493729961454
 21
366.5984379018073014
 31
0.0
  0
ARC
  5
D27B
  8
0
 10
3686.0794274560930717
 20
366.5249551214010921
 30
0.0
 40
0.0118
 50
214.2841453194776875
 51
294.2249565273928056
  0
ARC
  5
D27C
  8
0
 10
3686.0247991725527754
 20
366.6050848115100962
 30
0.0
 40
0.0118
 50
126.2980775097854007
 51
214.2841453194724011
  0
LINE
  5
D27D
  8
0
 10
3686.1615915113361552
 20
366.312239536850484
 30
0.0
 11
3686.1845367996861569
 21
366.3225635736508252
 31
0.0
  0
LINE
  5
D27E
  8
0
 10
3686.0951360119579476
 20
366.4126403245238066
 30
0.0
 11
3686.1275749936498869
 21
366.4364674498024215
 31
0.0
  0
ARC
  5
D27F
  8
0
 10
3685.8573395001549216
 20
366.2301314344398975
 30
0.0
 40
0.3400026076085509
 50
10.3585981037728292
 51
42.865016501701227
  0
ARC
  5
D280
  8
0
 10
3686.4569646402451326
 20
366.530555908166491
 30
0.0
 40
0.3571711839993366
 50
191.1599064778561967
 51
196.8087141170225891
  0
ARC
  5
D281
  8
0
 10
3686.4569646402451326
 20
366.530555908166491
 30
0.0
 40
0.3571711839993366
 50
216.821617535806098
 51
222.063708127604599
  0
LINE
  5
D282
  8
0
 10
3686.1469999323521733
 20
366.316353536588224
 30
0.0
 11
3686.0923716488118771
 21
366.396483226697228
 31
0.0
  0
ARC
  5
D283
  8
0
 10
3686.1567497319088034
 20
366.3230004462910188
 30
0.0
 40
0.0118
 50
214.2841453194776875
 51
294.2249565273928056
  0
ARC
  5
D284
  8
0
 10
3686.1021214483689619
 20
366.4031301364000228
 30
0.0
 40
0.0118
 50
126.2980775097854007
 51
214.2841453194724011
  0
LINE
  5
D285
  8
0
 10
3686.255840655845077
 20
366.2625076610177075
 30
0.0
 11
3686.2844666179289561
 21
366.2776034813409751
 31
0.0
  0
LINE
  5
D286
  8
0
 10
3686.1893851564668694
 20
366.3629084486909733
 30
0.0
 11
3686.2143488563851861
 21
366.3839575161917992
 31
0.0
  0
ARC
  5
D287
  8
0
 10
3685.9841431880781784
 20
366.1558952071604267
 30
0.0
 40
0.3240479386164938
 50
16.6941152640851911
 51
50.1700637943649994
  0
ARC
  5
D288
  8
0
 10
3686.2932968591790086
 20
366.419549623689079
 30
0.0
 40
0.1026700218186422
 50
188.2893306517995882
 51
206.8016442607321039
  0
ARC
  5
D289
  8
0
 10
3686.3082445984400692
 20
366.3044559404801248
 30
0.0
 40
0.0571434290229323
 50
220.6054051039756985
 51
256.1165375268487878
  0
LINE
  5
D28A
  8
0
 10
3686.2412490768610951
 20
366.2666216607553906
 30
0.0
 11
3686.1866207933207988
 21
366.3467513508645084
 31
0.0
  0
ARC
  5
D28B
  8
0
 10
3686.2509988764181799
 20
366.2732685704581854
 30
0.0
 40
0.0118
 50
214.2841453194776875
 51
294.2249565273928056
  0
ARC
  5
D28C
  8
0
 10
3686.1963705928778836
 20
366.3533982605671895
 30
0.0
 40
0.0118
 50
126.2980775097854007
 51
214.2841453194724011
  0
ARC
  5
D28D
  8
0
 10
3693.1619207704839027
 20
370.7840839415180199
 30
0.0
 40
8.3736122993091318
 50
207.1452074409851036
 51
208.3474349028857091
  0
ARC
  5
D28E
  8
0
 10
3693.1619207704839027
 20
370.7840839415180199
 30
0.0
 40
8.3736122993091318
 50
209.3216418250920867
 51
211.6563521933611014
  0
LINE
  5
D28F
  8
0
 10
3685.7539338944911833
 20
366.8016913121904281
 30
0.0
 11
3685.8318842667981698
 21
366.6873523879917798
 31
0.0
  0
LINE
  5
D290
  8
0
 10
3685.8641674693808454
 20
366.6855188665102787
 30
0.0
 11
3685.8592584340590292
 21
366.682172139759075
 31
0.0
  0
LINE
  5
D291
  8
0
 10
3685.7591141427710681
 20
366.8290654793306089
 30
0.0
 11
3685.7752896545807744
 21
366.8400931077666769
 31
0.0
  0
LINE
  5
D292
  8
0
 10
3685.795496366225052
 20
366.8102383867434924
 30
0.0
 11
3685.7794210024899257
 21
366.799279034043991
 31
0.0
  0
ARC
  5
D293
  8
0
 10
3684.869493188785782
 20
366.2191120004994218
 30
0.0
 40
1.098595598543902
 50
25.1220740289259901
 51
32.552664405859133
  0
ARC
  5
D294
  8
0
 10
3685.7905179619738192
 20
366.7830018263529723
 30
0.0
 40
0.0197
 50
124.2841455476758057
 51
214.2841453453243901
  0
ARC
  5
D295
  8
0
 10
3685.8481614745278421
 20
366.6984493474182045
 30
0.0
 40
0.0197
 50
214.2841453453270901
 51
304.2841457121517124
  0
ARC
  5
D296
  8
0
 10
3685.7702111022208555
 20
366.812788271616796
 30
0.0
 40
0.0197
 50
124.2841454295739965
 51
214.284145345332405
  0
LINE
  5
D297
  8
0
 10
3685.9440507020058249
 20
366.4869774204955775
 30
0.0
 11
3686.1444659236890402
 21
366.193004984559991
 31
0.0
  0
LINE
  5
D298
  8
0
 10
3686.0343423552621971
 20
366.389508739525013
 30
0.0
 11
3686.0397559829821148
 21
366.3931994713104245
 31
0.0
  0
LINE
  5
D299
  8
0
 10
3686.0756397978539098
 20
366.3920668050236031
 30
0.0
 11
3686.0629399234758239
 21
366.3834086867017845
 31
0.0
  0
LINE
  5
D29A
  8
0
 10
3686.1519899144859664
 20
366.2725824395408267
 30
0.0
 11
3686.1427773548230107
 21
366.2663017922664039
 31
0.0
  0
ARC
  5
D29B
  8
0
 10
3685.7715734361140676
 20
366.1136334802924921
 30
0.0
 40
0.412288089401292
 50
22.6765767834121412
 51
42.4803112058661867
  0
LINE
  5
D29C
  8
0
 10
3686.115403187695847
 20
366.2714820405946057
 30
0.0
 11
3686.0577596751559213
 21
366.3560345195398895
 31
0.0
  0
ARC
  5
D29D
  8
0
 10
3686.131680395427793
 20
366.2825790000180746
 30
0.0
 40
0.0197
 50
214.2841453351163921
 51
304.2841452341638728
  0
ARC
  5
D29E
  8
0
 10
3686.0740368828887767
 20
366.3671314789633016
 30
0.0
 40
0.0197
 50
124.2841453017125986
 51
214.2841453351030054
  0
ARC
  5
D29F
  8
0
 10
3686.0454393147888368
 20
366.3732315318633823
 30
0.0
 40
0.0197
 50
124.2841456989067979
 51
214.284145358201414
  0
ARC
  5
D2A0
  8
0
 10
3686.1607431314178029
 20
366.2041019439901106
 30
0.0
 40
0.0197
 50
214.284145358201414
 51
304.9787565734085888
  0
ARC
  5
D2A1
  8
0
 10
3685.9558618504988772
 20
366.3094866544207093
 30
0.0
 40
0.1185160798223079
 50
32.8130355094873067
 51
44.9380179988383475
  0
ARC
  5
D2A2
  8
0
 10
3685.5823408427791037
 20
365.8968867258936939
 30
0.0
 40
0.6576207180496147
 50
26.2709391957608389
 51
33.8433356588542722
  0
LINE
  5
D2A3
  8
0
 10
3685.9492309502370517
 20
366.5143515876077913
 30
0.0
 11
3685.9559574367958703
 21
366.5189373587274986
 31
0.0
  0
ARC
  5
D2A4
  8
0
 10
3685.9603279097341328
 20
366.4980743799255833
 30
0.0
 40
0.0197
 50
124.2841455924510967
 51
214.2841453581852988
  0
ARC
  5
D2A5
  8
0
 10
3685.380623961020774
 20
366.0812814711467809
 30
0.0
 40
0.7233324526177347
 50
28.3906673496416495
 51
34.3324091297254199
  0
ARC
  5
D2A6
  8
0
 10
3686.5702288346401474
 20
366.8063237352038755
 30
0.0
 40
0.671828989774822
 50
208.1626872633875962
 51
214.5603892159867883
  0
LINE
  5
D2A7
  8
0
 10
3687.0415411442331788
 20
365.0926970439230104
 30
0.0
 11
3687.1687424134102002
 21
364.9061160357900917
 31
0.0
  0
LINE
  5
D2A8
  8
0
 10
3687.185139122415876
 20
364.9030131445006191
 30
0.0
 11
3687.2143556403148068
 21
364.9229314535024855
 31
0.0
  0
LINE
  5
D2A9
  8
0
 10
3687.1667656456820623
 20
364.9299150255018844
 30
0.0
 11
3687.1978861024758771
 21
364.9510256412900731
 31
0.0
  0
LINE
  5
D2AA
  8
0
 10
3687.1124384314680356
 20
365.0094436158593112
 30
0.0
 11
3687.1450377861660854
 21
365.0311968577958055
 31
0.0
  0
LINE
  5
D2AB
  8
0
 10
3687.109597247378133
 20
365.0138192923971019
 30
0.0
 11
3687.1415033454441073
 21
365.0355712782953219
 31
0.0
  0
LINE
  5
D2AC
  8
0
 10
3687.0428343403100371
 20
365.1075735242995961
 30
0.0
 11
3687.0562639466138535
 21
365.1213736186053893
 31
0.0
  0
ARC
  5
D2AD
  8
0
 10
3687.0512909443768876
 20
365.0993439527642863
 30
0.0
 40
0.0118
 50
135.7795197405841066
 51
214.2841402573168068
  0
ARC
  5
D2AE
  8
0
 10
3687.102950325915117
 20
365.0235690839360245
 30
0.0
 40
0.0118
 50
214.2841402573409937
 51
304.2842144357874758
  0
ARC
  5
D2AF
  8
0
 10
3687.105888730190145
 20
365.0192589820352964
 30
0.0
 40
0.0118
 50
214.2841402572859977
 51
303.7148082920612069
  0
ARC
  5
D2B0
  8
0
 10
3687.1601413979951758
 20
364.9396802363328902
 30
0.0
 40
0.0118
 50
214.2841402573556877
 51
304.151074701236098
  0
ARC
  5
D2B1
  8
0
 10
3687.1784922135548186
 20
364.9127629446314813
 30
0.0
 40
0.0118
 50
214.2841402573195069
 51
304.2841403735133099
  0
ARC
  5
D2B2
  8
0
 10
3686.6623898970010487
 20
364.644842495866726
 30
0.0
 40
0.6182383665678194
 50
35.5739588779274101
 51
53.2305892892898314
  0
ARC
  5
D2B3
  8
0
 10
3687.4299705411240211
 20
365.3965726809922785
 30
0.0
 40
0.4730725908090264
 50
231.6615132220624957
 51
235.9725010304009913
  0
ARC
  5
D2B4
  8
0
 10
3687.4299705411240211
 20
365.3965726809922785
 30
0.0
 40
0.4730725908090264
 50
212.8320471367985078
 51
216.5481119334974096
  0
ARC
  5
D2B5
  8
0
 10
3686.3518170826059759
 20
364.1935955467674262
 30
0.0
 40
1.1355761244722491
 50
40.0889922092528224
 51
46.7661843041396281
  0
ARC
  5
D2B6
  8
0
 10
3687.4336296644219146
 20
365.1998379193980213
 30
0.0
 40
0.3478365197612303
 50
226.3611311151275061
 51
232.2304019791448013
  0
LINE
  5
D2B7
  8
0
 10
3686.8185559219878087
 20
365.330965025357898
 30
0.0
 11
3686.9598772980771173
 21
365.1236724015644768
 31
0.0
  0
LINE
  5
D2B8
  8
0
 10
3686.8888299023687978
 20
365.2472740975987904
 30
0.0
 11
3686.9204607128181124
 21
365.2655461489488857
 31
0.0
  0
LINE
  5
D2B9
  8
0
 10
3686.8204070533001868
 20
365.3463784061582942
 30
0.0
 11
3686.8367884426570527
 21
365.3611381829674087
 31
0.0
  0
LINE
  5
D2BA
  8
0
 10
3686.9463560782110108
 20
365.1629563095622188
 30
0.0
 11
3686.9772772371011342
 21
365.1809421921519174
 31
0.0
  0
LINE
  5
D2BB
  8
0
 10
3686.9755815879047987
 20
365.120131864569089
 30
0.0
 11
3687.0044946568041269
 21
365.1370313478416847
 31
0.0
  0
ARC
  5
D2BC
  8
0
 10
3686.8283057221337913
 20
365.3376119341963886
 30
0.0
 40
0.0118
 50
132.0191318006893937
 51
214.284140240726714
  0
ARC
  5
D2BD
  8
0
 10
3686.8829274811610048
 20
365.2574917990954759
 30
0.0
 40
0.0118
 50
214.2841402407682949
 51
300.0135760017349753
  0
ARC
  5
D2BE
  8
0
 10
3686.9404230701011329
 20
365.1731562808747071
 30
0.0
 40
0.0118
 50
214.2841402407682949
 51
300.1852409153158874
  0
ARC
  5
D2BF
  8
0
 10
3686.9696270982230999
 20
365.1303193104030242
 30
0.0
 40
0.0118
 50
214.2841402407240139
 51
300.3059823539247191
  0
LINE
  5
D2C0
  8
0
 10
3686.9537478642760107
 20
365.2214737361542802
 30
0.0
 11
3687.0083609203329615
 21
365.1413663666357934
 31
0.0
  0
LINE
  5
D2C1
  8
0
 10
3687.0245584062331545
 20
365.1381305962551096
 30
0.0
 11
3687.0581792287262033
 21
365.1600655891268161
 31
0.0
  0
LINE
  5
D2C2
  8
0
 10
3686.9551295216519975
 20
365.2364401513742109
 30
0.0
 11
3686.9706839217460583
 21
365.252085483526912
 31
0.0
  0
LINE
  5
D2C3
  8
0
 10
3687.0182627812810097
 20
365.1477902693220017
 30
0.0
 11
3687.0509715000871438
 21
365.170089469695597
 31
0.0
  0
ARC
  5
D2C4
  8
0
 10
3686.963497664426086
 20
365.2281206449881097
 30
0.0
 40
0.0118
 50
135.1669888820551932
 51
214.2841402127021979
  0
ARC
  5
D2C5
  8
0
 10
3687.0116158541809455
 20
365.1575400570183092
 30
0.0
 40
0.0118
 50
214.284140212636288
 51
304.2842475570853935
  0
ARC
  5
D2C6
  8
0
 10
3687.0181107204821274
 20
365.1480132754695092
 30
0.0
 40
0.0118
 50
214.2841402126308878
 51
303.1213476963196172
  0
ARC
  5
D2C7
  8
0
 10
3686.7130024151019825
 20
364.9194675471491109
 30
0.0
 40
0.4207546202554882
 50
30.3476035371330113
 51
56.3092411589025232
  0
ARC
  5
D2C8
  8
0
 10
3687.350803802531118
 20
365.5210988024437029
 30
0.0
 40
0.47625404357117
 50
230.5285637408964021
 51
234.7746736475637874
  0
ARC
  5
D2C9
  8
0
 10
3687.350803802531118
 20
365.5210988024437029
 30
0.0
 40
0.47625404357117
 50
211.8821710484689902
 51
215.5087400047320045
  0
ARC
  5
D2CA
  8
0
 10
3686.2479765087718988
 20
364.6007525717565727
 30
0.0
 40
0.9319332314897291
 50
36.754659788447519
 51
44.8905893860129126
  0
ARC
  5
D2CB
  8
0
 10
3686.4089862900427761
 20
364.9022650078131846
 30
0.0
 40
0.6273589663482485
 50
32.7714638746387195
 51
49.1588604153549724
  0
ARC
  5
D2CC
  8
0
 10
3687.5668651480568769
 20
365.944512151807487
 30
0.0
 40
0.9438152848574596
 50
226.293904694475799
 51
228.1128195801985896
  0
ARC
  5
D2CD
  8
0
 10
3687.5668651480568769
 20
365.944512151807487
 30
0.0
 40
0.9438152848574596
 50
217.1674545262808067
 51
218.660328079968906
  0
ARC
  5
D2CE
  8
0
 10
3687.0999429882099321
 20
365.2956393672166087
 30
0.0
 40
0.1729705028393948
 50
222.6957793917439119
 51
232.5004153300789085
  0
ARC
  5
D2CF
  8
0
 10
3687.9880550277480324
 20
366.0128355276956995
 30
0.0
 40
1.3169753090852401
 50
219.3991812734730047
 51
223.9241109558560936
  0
LINE
  5
D2D0
  8
0
 10
3686.8056962835848935
 20
365.3691243984987977
 30
0.0
 11
3686.8375182574300197
 21
365.3873203906265985
 31
0.0
  0
LINE
  5
D2D1
  8
0
 10
3686.7373541501287946
 20
365.468289984718183
 30
0.0
 11
3686.7544046822818018
 21
365.483521869099377
 31
0.0
  0
LINE
  5
D2D2
  8
0
 10
3686.735465711687084
 20
365.4528430800111209
 30
0.0
 11
3686.7900891530089211
 21
365.37272106032799
 31
0.0
  0
LINE
  5
D2D3
  8
0
 10
3686.8377608547598356
 20
365.4088946526114796
 30
0.0
 11
3686.8557550494829229
 21
365.4264810379606274
 31
0.0
  0
LINE
  5
D2D4
  8
0
 10
3686.9069369864550936
 20
365.3103486513402913
 30
0.0
 11
3686.9409695015619945
 21
365.3318383546388191
 31
0.0
  0
ARC
  5
D2D5
  8
0
 10
3686.6501589458939634
 20
365.1556821912685109
 30
0.0
 40
0.3400026076085509
 50
25.7032690875437808
 51
58.2096874854729833
  0
ARC
  5
D2D6
  8
0
 10
3687.1489084622407972
 20
365.6040727498067895
 30
0.0
 40
0.3571711839993365
 50
231.7595714722330911
 51
237.4083791113928044
  0
ARC
  5
D2D7
  8
0
 10
3687.1489084622407972
 20
365.6040727498067895
 30
0.0
 40
0.3571711839993365
 50
206.5045774616355061
 51
211.7466680534278964
  0
LINE
  5
D2D8
  8
0
 10
3686.8362587391620764
 20
365.3938088042826848
 30
0.0
 11
3686.8908870156401463
 21
365.3136791093589864
 31
0.0
  0
ARC
  5
D2D9
  8
0
 10
3686.8460085393048757
 20
365.4004557131261208
 30
0.0
 40
0.0118
 50
134.3433290618469016
 51
214.2841402697657998
  0
ARC
  5
D2DA
  8
0
 10
3686.9006368157838551
 20
365.3203260182024792
 30
0.0
 40
0.0118
 50
214.2841402697710862
 51
302.2702080794474
  0
ARC
  5
D2DB
  8
0
 10
3686.745215489320799
 20
365.4594900218706925
 30
0.0
 40
0.0118
 50
131.7756187891087052
 51
214.2843342930790129
  0
ARC
  5
D2DC
  8
0
 10
3686.7998389306440004
 20
365.3793680021875048
 30
0.0
 40
0.0118
 50
214.2843342930185031
 51
299.7611759372110214
  0
ARC
  5
D2DD
  8
0
 10
3686.474160543229118
 20
365.1574001896169079
 30
0.0
 40
0.4299908456027094
 50
28.5355189155276108
 51
53.1992331625759007
  0
ARC
  5
D2DE
  8
0
 10
3687.7328630676388457
 20
366.2464686623573016
 30
0.0
 40
1.247766931716892
 50
223.7389208355565131
 51
225.0881180616134998
  0
ARC
  5
D2DF
  8
0
 10
3687.7328630676388457
 20
366.2464686623573016
 30
0.0
 40
1.247766931716892
 50
216.6466340165002009
 51
217.9666639201022065
  0
LINE
  5
D2E0
  8
0
 10
3686.6960688877629764
 20
365.6178505849981093
 30
0.0
 11
3686.7150517360241793
 21
365.6364032176480805
 31
0.0
  0
LINE
  5
D2E1
  8
0
 10
3686.7652450194591438
 20
365.519304583726921
 30
0.0
 11
3686.7972165724781917
 21
365.5394929002890194
 31
0.0
  0
ARC
  5
D2E2
  8
0
 10
3686.5242946753810429
 20
365.3913843350646857
 30
0.0
 40
0.3105197401251123
 50
22.3871235006355107
 51
57.5426075919139492
  0
ARC
  5
D2E3
  8
0
 10
3686.8524189504651076
 20
365.580400517966325
 30
0.0
 40
0.0817760821445881
 50
215.8568640928922946
 51
239.9029867870019928
  0
ARC
  5
D2E4
  8
0
 10
3686.7551257354430163
 20
365.6649140584328279
 30
0.0
 40
0.0652086604655999
 50
190.1719448912363077
 51
217.6326283104517927
  0
LINE
  5
D2E5
  8
0
 10
3686.6945667721661266
 20
365.6027647366692008
 30
0.0
 11
3686.7491950486441965
 21
365.522635041745616
 31
0.0
  0
ARC
  5
D2E6
  8
0
 10
3686.704316572308926
 20
365.6094116455128074
 30
0.0
 40
0.0118
 50
134.3433290618469016
 51
214.2841402697657998
  0
ARC
  5
D2E7
  8
0
 10
3686.7589448487869959
 20
365.5292819505889952
 30
0.0
 40
0.0118
 50
214.2841402697710862
 51
302.2702080794474
  0
LINE
  5
D2E8
  8
0
 10
3686.6308218044828209
 20
365.6215107490165224
 30
0.0
 11
3686.6518773550519654
 21
365.6396463389053224
 31
0.0
  0
LINE
  5
D2E9
  8
0
 10
3686.6999979361789883
 20
365.5229647477452772
 30
0.0
 11
3686.7328659639638317
 21
365.5413947968365846
 31
0.0
  0
ARC
  5
D2EA
  8
0
 10
3686.4370999937491433
 20
365.3801004902916816
 30
0.0
 40
0.3368877594409663
 50
23.7563194932308797
 51
55.3620325229189731
  0
ARC
  5
D2EB
  8
0
 10
3686.8535182638879633
 20
365.671207373572372
 30
0.0
 40
0.1892808338992312
 50
225.925534943128298
 51
235.181247871351303
  0
ARC
  5
D2EC
  8
0
 10
3686.7935505863438266
 20
365.6972243978298138
 30
0.0
 40
0.1697347824492712
 50
193.6119377179824994
 51
204.0190656501497131
  0
LINE
  5
D2ED
  8
0
 10
3686.6293196888850616
 20
365.6064249006877276
 30
0.0
 11
3686.6839479653631315
 21
365.5262952057639723
 31
0.0
  0
ARC
  5
D2EE
  8
0
 10
3686.6390694890292252
 20
365.6130718095311067
 30
0.0
 40
0.0118
 50
134.3433290618469016
 51
214.2841402697657998
  0
ARC
  5
D2EF
  8
0
 10
3686.6936977655068404
 20
365.5329421146074083
 30
0.0
 40
0.0118
 50
214.2841402697710862
 51
302.2702080794474
  0
LINE
  5
D2F0
  8
0
 10
3686.5074110729310632
 20
365.8010025074734131
 30
0.0
 11
3686.5254052676541505
 21
365.8185888928223903
 31
0.0
  0
LINE
  5
D2F1
  8
0
 10
3686.5765872046258664
 20
365.7024565062022248
 30
0.0
 11
3686.6106197197318579
 21
365.723946209500582
 31
0.0
  0
ARC
  5
D2F2
  8
0
 10
3686.3198091640638268
 20
365.5477900461302738
 30
0.0
 40
0.3400026076085509
 50
25.7032690875437808
 51
58.2096874854729833
  0
ARC
  5
D2F3
  8
0
 10
3686.8185586804120248
 20
365.9961806046687229
 30
0.0
 40
0.3571711839993365
 50
231.7595714722330911
 51
237.4083791113928044
  0
ARC
  5
D2F4
  8
0
 10
3686.8185586804120248
 20
365.9961806046687229
 30
0.0
 40
0.3571711839993365
 50
206.5045774616355061
 51
211.7466680534278964
  0
LINE
  5
D2F5
  8
0
 10
3686.5059089573319397
 20
365.7859166591445046
 30
0.0
 11
3686.5605372338109191
 21
365.7057869642208061
 31
0.0
  0
ARC
  5
D2F6
  8
0
 10
3686.5156587574761033
 20
365.7925635679879974
 30
0.0
 40
0.0118
 50
134.3433290618469016
 51
214.2841402697657998
  0
ARC
  5
D2F7
  8
0
 10
3686.5702870339541732
 20
365.712433873064299
 30
0.0
 40
0.0118
 50
214.2841402697710862
 51
302.2702080794474
  0
LINE
  5
D2F8
  8
0
 10
3686.5351112928651673
 20
365.8528913954996256
 30
0.0
 11
3686.5531054875891641
 21
365.8704777808487165
 31
0.0
  0
LINE
  5
D2F9
  8
0
 10
3686.60428742456088
 20
365.7543453942283804
 30
0.0
 11
3686.6383199396668715
 21
365.7758350975269082
 31
0.0
  0
ARC
  5
D2FA
  8
0
 10
3686.3475093840002046
 20
365.5996789341564863
 30
0.0
 40
0.3400026076085509
 50
25.7032690875437808
 51
58.2096874854729833
  0
ARC
  5
D2FB
  8
0
 10
3686.8462589003470384
 20
366.0480694926948786
 30
0.0
 40
0.3571711839993365
 50
231.7595714722330911
 51
237.4083791113928044
  0
ARC
  5
D2FC
  8
0
 10
3686.8462589003470384
 20
366.0480694926948786
 30
0.0
 40
0.3571711839993365
 50
206.5045774616355061
 51
211.7466680534278964
  0
LINE
  5
D2FD
  8
0
 10
3686.5336091772678628
 20
365.8378055471707171
 30
0.0
 11
3686.5882374537459327
 21
365.7576758522470186
 31
0.0
  0
ARC
  5
D2FE
  8
0
 10
3686.5433589774120264
 20
365.8444524560142099
 30
0.0
 40
0.0118
 50
134.3433290618469016
 51
214.2841402697657998
  0
ARC
  5
D2FF
  8
0
 10
3686.5979872538900963
 20
365.7643227610905114
 30
0.0
 40
0.0118
 50
214.2841402697710862
 51
302.2702080794474
  0
LINE
  5
D300
  8
0
 10
3686.3753739827820937
 20
365.9986597627935225
 30
0.0
 11
3686.3933681775060904
 21
366.0162461481426135
 31
0.0
  0
LINE
  5
D301
  8
0
 10
3686.4445501144791706
 20
365.9001137615223911
 30
0.0
 11
3686.4785826295837978
 21
365.9216034648208051
 31
0.0
  0
ARC
  5
D302
  8
0
 10
3686.1877720739171309
 20
365.7454473014503833
 30
0.0
 40
0.3400026076085509
 50
25.7032690875437808
 51
58.2096874854729833
  0
ARC
  5
D303
  8
0
 10
3686.6865215902639648
 20
366.1938378599887756
 30
0.0
 40
0.3571711839993365
 50
231.7595714722330911
 51
237.4083791113928044
  0
ARC
  5
D304
  8
0
 10
3686.6865215902639648
 20
366.1938378599887756
 30
0.0
 40
0.3571711839993365
 50
206.5045774616355061
 51
211.7466680534278964
  0
LINE
  5
D305
  8
0
 10
3686.3738718671847892
 20
365.9835739144646141
 30
0.0
 11
3686.428500143662859
 21
365.9034442195409724
 31
0.0
  0
ARC
  5
D306
  8
0
 10
3686.3836216673280433
 20
365.9902208233082206
 30
0.0
 40
0.0118
 50
134.3433290618469016
 51
214.2841402697657998
  0
ARC
  5
D307
  8
0
 10
3686.4382499438070226
 20
365.9100911283845221
 30
0.0
 40
0.0118
 50
214.2841402697710862
 51
302.2702080794474
  0
ARC
  5
D308
  8
0
 10
3693.0958718404399406
 20
370.8809656382239268
 30
0.0
 40
8.3736122993091282
 50
220.220850686359114
 51
221.4230781482623058
  0
ARC
  5
D309
  8
0
 10
3693.0958718404399406
 20
370.8809656382239268
 30
0.0
 40
8.3736122993091282
 50
216.9119333958844891
 51
219.2466437641498089
  0
LINE
  5
D30A
  8
0
 10
3686.682027114417906
 20
365.4403483534406973
 30
0.0
 11
3686.6040767522908936
 21
365.5546872845798134
 31
0.0
  0
LINE
  5
D30B
  8
0
 10
3686.614166038798885
 20
365.5854081775974009
 30
0.0
 11
3686.6092570031360083
 21
365.5820614513460782
 31
0.0
  0
LINE
  5
D30C
  8
0
 10
3686.7094012810889581
 20
365.4351681026834058
 30
0.0
 11
3686.7255767939132056
 21
365.4461957296315973
 31
0.0
  0
LINE
  5
D30D
  8
0
 10
3686.7051697887418413
 20
365.4759139008870079
 30
0.0
 11
3686.6890944239539749
 21
365.4649545497322833
 31
0.0
  0
ARC
  5
D30E
  8
0
 10
3685.8165633673920638
 20
364.8299333152064037
 30
0.0
 40
1.098595598543902
 50
36.0156211833790181
 51
43.4462115603184529
  0
ARC
  5
D30F
  8
0
 10
3686.6779974660348671
 20
365.4812317584896277
 30
0.0
 40
0.0197
 50
214.2841402439190972
 51
304.2841400415550766
  0
ARC
  5
D310
  8
0
 10
3686.6203539610078224
 20
365.5657842425569015
 30
0.0
 40
0.0197
 50
124.2841398771026036
 51
214.2841402439190972
  0
ARC
  5
D311
  8
0
 10
3686.6983043231348347
 20
365.4514453114177854
 30
0.0
 40
0.0197
 50
214.2841402439111107
 51
304.2841401596784863
  0
LINE
  5
D312
  8
0
 10
3686.4585416990239537
 20
365.732313254125188
 30
0.0
 11
3686.2581265036460536
 21
366.0262857079952141
 31
0.0
  0
LINE
  5
D313
  8
0
 10
3686.4008044717379562
 20
365.8519758589904995
 30
0.0
 11
3686.4062180998298572
 21
365.8556665902270879
 31
0.0
  0
LINE
  5
D314
  8
0
 10
3686.4182754152348025
 20
365.8894830395969962
 30
0.0
 11
3686.405575540098198
 21
365.8808249223865801
 31
0.0
  0
LINE
  5
D315
  8
0
 10
3686.3349506792560533
 20
366.0042124703397803
 30
0.0
 11
3686.3257381190592241
 21
365.9979318238500241
 31
0.0
  0
ARC
  5
D316
  8
0
 10
3686.0479912803648403
 20
365.7081790734901006
 30
0.0
 40
0.4122880894012919
 50
26.0879743833866797
 51
45.8917088058271432
  0
LINE
  5
D317
  8
0
 10
3686.3205578683509884
 20
365.9705576571734014
 30
0.0
 11
3686.3782013733921303
 21
365.8860051731164162
 31
0.0
  0
ARC
  5
D318
  8
0
 10
3686.3368350770670077
 20
365.9816546151533885
 30
0.0
 40
0.0197
 50
124.2841403550669952
 51
214.28414025412971
  0
ARC
  5
D319
  8
0
 10
3686.3944785821090591
 20
365.8971021310962897
 30
0.0
 40
0.0197
 50
214.2841402541405103
 51
304.2841402875200743
  0
ARC
  5
D31A
  8
0
 10
3686.3897075138597756
 20
365.8682530677771183
 30
0.0
 40
0.0197
 50
214.284140231041988
 51
304.284139890347376
  0
ARC
  5
D31B
  8
0
 10
3686.2744037123670751
 20
366.0373826659686074
 30
0.0
 40
0.0197
 50
123.5895290158383943
 51
214.284140231041988
  0
ARC
  5
D31C
  8
0
 10
3686.2976394617858205
 20
365.8081614269613056
 30
0.0
 40
0.1185160798223079
 50
23.6302675904105115
 51
35.7552500797630515
  0
ARC
  5
D31D
  8
0
 10
3685.7770876684439827
 20
365.6112287616226126
 30
0.0
 40
0.6576207180496146
 50
34.7249499303925191
 51
42.2973463934880485
  0
LINE
  5
D31E
  8
0
 10
3686.4859158656508953
 20
365.7271330033327104
 30
0.0
 11
3686.4926423526580948
 21
365.7317187737954214
 31
0.0
  0
ARC
  5
D31F
  8
0
 10
3686.4748189077440657
 20
365.743410212098695
 30
0.0
 40
0.0197
 50
214.2841402310581884
 51
304.2841399968032192
  0
ARC
  5
D320
  8
0
 10
3685.8750264480290753
 20
365.3560834737635901
 30
0.0
 40
0.7233324526177346
 50
34.2358764595206608
 51
40.1776182395943309
  0
ARC
  5
D321
  8
0
 10
3686.9846069345471733
 20
366.1985068732154218
 30
0.0
 40
0.6718289897748219
 50
214.0078963732557042
 51
220.4055983258475919
  0
LINE
  5
D322
  8
0
 10
3686.2875928424650738
 20
366.1097912596387118
 30
0.0
 11
3686.2329631948591668
 21
366.1899202810304814
 31
0.0
  0
LINE
  5
D323
  8
0
 10
3686.3029319177621801
 20
366.1060460712661779
 30
0.0
 11
3686.3317426507969685
 21
366.1215416677179064
 31
0.0
  0
LINE
  5
D324
  8
0
 10
3686.2350815416261867
 20
366.2055674808768799
 30
0.0
 11
3686.2599091733468413
 21
366.226619193655381
 31
0.0
  0
ARC
  5
D325
  8
0
 10
3686.0627593690392132
 20
366.0147506395268238
 30
0.0
 40
0.289406858189857
 50
15.9581828846694105
 51
52.7644674339416468
  0
ARC
  5
D326
  8
0
 10
3686.4613752653208394
 20
366.2872936078485964
 30
0.0
 40
0.2274340493725645
 50
190.6752331481451108
 51
198.616177795163992
  0
ARC
  5
D327
  8
0
 10
3686.4613752653208394
 20
366.2872936078485964
 30
0.0
 40
0.2274340493725645
 50
230.1035854897417892
 51
238.0474171704802018
  0
ARC
  5
D328
  8
0
 10
3686.2973425389550357
 20
366.1164383205194781
 30
0.0
 40
0.0118
 50
214.2850337386819035
 51
298.2731905458211941
  0
ARC
  5
D329
  8
0
 10
3686.2427128913491288
 20
366.1965673419114182
 30
0.0
 40
0.0118
 50
130.2950999959205092
 51
214.2850337386900037
  0
LINE
  5
D32A
  8
0
 10
3686.3635187734748797
 20
366.1045635621911174
 30
0.0
 11
3686.3880304738090672
 21
366.1256942517978246
 31
0.0
  0
LINE
  5
D32B
  8
0
 10
3686.4326949051719566
 20
366.0060175609198723
 30
0.0
 11
3686.4614100460889858
 21
366.021563950803511
 31
0.0
  0
ARC
  5
D32C
  8
0
 10
3686.1650020708138982
 20
365.8906083143651813
 30
0.0
 40
0.3240479386164938
 50
18.3982217948910112
 51
51.8741703251630213
  0
ARC
  5
D32D
  8
0
 10
3686.5233880667938138
 20
366.082047917363127
 30
0.0
 40
0.1026700218186422
 50
221.7666413285278963
 51
240.2789549374612932
  0
ARC
  5
D32E
  8
0
 10
3686.4217144708532032
 20
366.1380163969923842
 30
0.0
 40
0.0571434290229323
 50
172.451748062401208
 51
207.9628804852785038
  0
LINE
  5
D32F
  8
0
 10
3686.3620166578780299
 20
366.0894777138623226
 30
0.0
 11
3686.4166449343560998
 21
366.0093480189386241
 31
0.0
  0
ARC
  5
D330
  8
0
 10
3686.3717664580208293
 20
366.0961246227057018
 30
0.0
 40
0.0118
 50
134.3433290618536944
 51
214.2841402697764863
  0
ARC
  5
D331
  8
0
 10
3686.4263947344998087
 20
366.0159949277820033
 30
0.0
 40
0.0118
 50
214.2841402697791864
 51
302.2702080794509243
  0
LINE
  5
D332
  8
0
 10
3686.2468022935418048
 20
366.0787436101264234
 30
0.0
 11
3686.1891587809568591
 21
366.1632960891399193
 31
0.0
  0
LINE
  5
D333
  8
0
 10
3686.1943390293317862
 20
366.1906702563406952
 30
0.0
 11
3686.2050505268762208
 21
366.1979728019941831
 31
0.0
  0
LINE
  5
D334
  8
0
 10
3686.2741764607380901
 20
366.0735633618451175
 30
0.0
 11
3686.2845874243807884
 21
366.08066101911038
 31
0.0
  0
ARC
  5
D335
  8
0
 10
3685.9457471029591034
 20
365.936547433366286
 30
0.0
 40
0.3682139174688033
 50
23.0407363477885916
 51
45.2334762453059298
  0
ARC
  5
D336
  8
0
 10
3686.263079501275115
 20
366.0898405695498923
 30
0.0
 40
0.0197
 50
214.2841453351030054
 51
304.284145476537276
  0
ARC
  5
D337
  8
0
 10
3686.2054359886888051
 20
366.1743930485632745
 30
0.0
 40
0.0197
 50
124.2841451012109957
 51
214.2841453350721963
  0
ARC
  5
D338
  8
0
 10
3692.7189454893559741
 20
370.5530419429933886
 30
0.0
 40
7.8740157479698576
 50
213.6884711101617995
 51
214.8798194758124112
  0
LINE
  5
D339
  8
0
 10
3687.3333745279578579
 20
364.8088941342002158
 30
0.0
 11
3685.4043274631430904
 21
367.638452988984227
 31
0.0
  0
LINE
  5
D33A
  8
0
 10
3689.0991438768419357
 20
339.0195805334798251
 30
0.0
 11
3689.0991438768419357
 21
359.0332821735103153
 31
0.0
  0
LINE
  5
D33B
  8
0
 10
3689.6503249791421695
 20
339.0353110026642867
 30
0.0
 11
3689.6503249791421695
 21
359.0332821735103153
 31
0.0
  0
LINE
  5
D33C
  8
0
 10
3690.3584598753418504
 20
339.1730380837773282
 30
0.0
 11
3690.3584598753418504
 21
343.6600109389103181
 31
0.0
  0
LINE
  5
D33D
  8
0
 10
3690.9096409777421286
 20
339.2331243536955867
 30
0.0
 11
3690.9096409777421286
 21
343.6600109389103181
 31
0.0
  0
ARC
  5
D33E
  8
0
 10
3687.5352628309169631
 20
339.1526855989827141
 30
0.0
 40
3.3753367640908678
 50
342.5234005686294267
 51
1.3655637454105389
  0
ARC
  5
D33F
  8
0
 10
3689.4038912739451916
 20
338.5643482558297137
 30
0.0
 40
1.4162775287852201
 50
321.1200083813997139
 51
342.5234005686294267
  0
ARC
  5
D340
  8
0
 10
3689.8825970229249833
 20
338.1783573444195099
 30
0.0
 40
0.8013399890316009
 50
293.2460054064470114
 51
321.1200083813997139
  0
ARC
  5
D341
  8
0
 10
3689.9696874123392263
 20
338.0031080895848277
 30
0.0
 40
0.6060420585877317
 50
271.9652411671289087
 51
292.2199034902615722
  0
ARC
  5
D342
  8
0
 10
3690.020557990315865
 20
338.0766857360259792
 30
0.0
 40
0.6799292642953367
 50
230.5953899833081095
 51
267.4637843570993141
  0
ARC
  5
D343
  8
0
 10
3690.4869390596609264
 20
338.5011913828249135
 30
0.0
 40
1.307156476769995
 50
194.6749862866809053
 51
226.6081857000550031
  0
ARC
  5
D344
  8
0
 10
3691.7925209417458063
 20
338.9295419420089956
 30
0.0
 40
2.6799697842825538
 50
187.8102432051514938
 51
196.4631533117104993
  0
ARC
  5
D345
  8
0
 10
3693.6476000186830788
 20
339.1740548809696065
 30
0.0
 40
4.5510785093520587
 50
181.9451276178049
 51
187.6862748148315063
  0
ARC
  5
D346
  8
0
 10
3691.9627470080990861
 20
339.0078689084289749
 30
0.0
 40
2.3125848543437959
 50
179.3200884801323127
 51
200.4684510986139117
  0
ARC
  5
D347
  8
0
 10
3690.4009933295478731
 20
338.4249330975721932
 30
0.0
 40
0.645584940712597
 50
200.4684510986139117
 51
214.2299434282631125
  0
ARC
  5
D348
  8
0
 10
3690.1939660262860343
 20
338.2895585474209952
 30
0.0
 40
0.398292993308609
 50
214.8816414615924941
 51
238.4224597111063133
  0
ARC
  5
D349
  8
0
 10
3689.667225729862821
 20
338.42205351870399
 30
0.0
 40
0.569071519560871
 50
303.9942463083229995
 51
343.9323288717992
  0
ARC
  5
D34A
  8
0
 10
3687.538876212417108
 20
339.1554579870490898
 30
0.0
 40
2.8196384683210458
 50
341.580904288877889
 51
0.3572344055479299
  0
LINE
  5
D34B
  8
0
 10
3690.9286735205919285
 20
344.2748396591102846
 30
0.0
 11
3690.9286735205919285
 21
343.6600109389103181
 31
0.0
  0
LINE
  5
D34C
  8
0
 10
3690.9286735205919285
 20
343.6600109389103181
 30
0.0
 11
3690.339427332491141
 21
343.6600109389103181
 31
0.0
  0
LINE
  5
D34D
  8
0
 10
3690.339427332491141
 20
343.6600109389103181
 30
0.0
 11
3690.339427332491141
 21
344.2748396591102846
 31
0.0
  0
LINE
  5
D34E
  8
0
 10
3690.1990512670918179
 20
344.8076912166102943
 30
0.0
 11
3691.0690495859921612
 21
344.8076912166102943
 31
0.0
  0
LINE
  5
D34F
  8
0
 10
3691.0690495859921612
 20
344.8076912166102943
 30
0.0
 11
3691.0690495859921612
 21
344.7257140539102807
 31
0.0
  0
LINE
  5
D350
  8
0
 10
3691.0690495859921612
 20
344.3568168218102983
 30
0.0
 11
3691.0690495859921612
 21
344.2748396591102846
 31
0.0
  0
LINE
  5
D351
  8
0
 10
3691.0690495859921612
 20
344.2748396591102846
 30
0.0
 11
3690.1990512670918179
 21
344.2748396591102846
 31
0.0
  0
LINE
  5
D352
  8
0
 10
3690.1990512670918179
 20
344.2748396591102846
 30
0.0
 11
3690.1990512670918179
 21
344.3568168218102983
 31
0.0
  0
LINE
  5
D353
  8
0
 10
3690.1990512670918179
 20
344.7257140539102807
 30
0.0
 11
3690.1990512670918179
 21
344.8076912166102943
 31
0.0
  0
LINE
  5
D354
  8
0
 10
3690.181294521091786
 20
344.7257140539102807
 30
0.0
 11
3691.0868063320917827
 21
344.7257140539102807
 31
0.0
  0
LINE
  5
D355
  8
0
 10
3691.0868063320917827
 20
344.7257140539102807
 30
0.0
 11
3691.0868063320917827
 21
344.3568168218102983
 31
0.0
  0
LINE
  5
D356
  8
0
 10
3691.0868063320917827
 20
344.3568168218102983
 30
0.0
 11
3690.181294521091786
 21
344.3568168218102983
 31
0.0
  0
LINE
  5
D357
  8
0
 10
3690.181294521091786
 20
344.3568168218102983
 30
0.0
 11
3690.181294521091786
 21
344.7257140539102807
 31
0.0
  0
LINE
  5
D358
  8
0
 10
3690.3584598753918726
 20
344.3568168218102983
 30
0.0
 11
3690.3584598753918726
 21
344.7257140539102807
 31
0.0
  0
LINE
  5
D359
  8
0
 10
3690.9096409777921508
 20
344.3568168218102983
 30
0.0
 11
3690.9096409777921508
 21
344.7257140539102807
 31
0.0
  0
LINE
  5
D35A
  8
0
 10
3690.6330653809918658
 20
344.7257140539102807
 30
0.0
 11
3690.6330653809918658
 21
344.3568168218102983
 31
0.0
  0
LINE
  5
D35B
  8
0
 10
3690.6202167780920718
 20
344.3568168218102983
 30
0.0
 11
3690.6202167780920718
 21
344.7257140539102807
 31
0.0
  0
LINE
  5
D35C
  8
0
 10
3690.616282168592079
 20
344.3568168218102983
 30
0.0
 11
3690.616282168592079
 21
344.7257140539102807
 31
0.0
  0
LINE
  5
D35D
  8
0
 10
3690.6046890843917936
 20
344.3568168218102983
 30
0.0
 11
3690.6046890843917936
 21
344.7257140539102807
 31
0.0
  0
LINE
  5
D35E
  8
0
 10
3690.6027237921921369
 20
344.3568168218102983
 30
0.0
 11
3690.6027237921921369
 21
344.7257140539102807
 31
0.0
  0
LINE
  5
D35F
  8
0
 10
3690.5886822677921373
 20
344.3568168218102983
 30
0.0
 11
3690.5886822677921373
 21
344.7257140539102807
 31
0.0
  0
LINE
  5
D360
  8
0
 10
3690.5847668272917872
 20
344.3568168218102983
 30
0.0
 11
3690.5847668272917872
 21
344.7257140539102807
 31
0.0
  0
LINE
  5
D361
  8
0
 10
3690.5744857420918379
 20
344.3568168218102983
 30
0.0
 11
3690.5744857420918379
 21
344.7257140539102807
 31
0.0
  0
LINE
  5
D362
  8
0
 10
3690.5725348236910577
 20
344.3568168218102983
 30
0.0
 11
3690.5725348236910577
 21
344.7257140539102807
 31
0.0
  0
LINE
  5
D363
  8
0
 10
3690.5573687865921784
 20
344.3568168218102983
 30
0.0
 11
3690.5573687865921784
 21
344.7257140539102807
 31
0.0
  0
LINE
  5
D364
  8
0
 10
3690.5534915906919196
 20
344.3568168218102983
 30
0.0
 11
3690.5534915906919196
 21
344.7257140539102807
 31
0.0
  0
LINE
  5
D365
  8
0
 10
3690.5445725928921092
 20
344.3568168218102983
 30
0.0
 11
3690.5445725928921092
 21
344.7257140539102807
 31
0.0
  0
LINE
  5
D366
  8
0
 10
3690.5426455529918712
 20
344.3568168218102983
 30
0.0
 11
3690.5426455529918712
 21
344.7257140539102807
 31
0.0
  0
LINE
  5
D367
  8
0
 10
3690.5264288905918875
 20
344.3568168218102983
 30
0.0
 11
3690.5264288905918875
 21
344.7257140539102807
 31
0.0
  0
LINE
  5
D368
  8
0
 10
3690.5226088286917729
 20
344.3568168218102983
 30
0.0
 11
3690.5226088286917729
 21
344.7257140539102807
 31
0.0
  0
LINE
  5
D369
  8
0
 10
3690.5150953707920962
 20
344.3568168218102983
 30
0.0
 11
3690.5150953707920962
 21
344.7257140539102807
 31
0.0
  0
LINE
  5
D36A
  8
0
 10
3690.5132015975918875
 20
344.3568168218102983
 30
0.0
 11
3690.5132015975918875
 21
344.7257140539102807
 31
0.0
  0
LINE
  5
D36B
  8
0
 10
3690.4960133159920588
 20
344.3568168218102983
 30
0.0
 11
3690.4960133159920588
 21
344.7257140539102807
 31
0.0
  0
LINE
  5
D36C
  8
0
 10
3690.4922689989921309
 20
344.3568168218102983
 30
0.0
 11
3690.4922689989921309
 21
344.7257140539102807
 31
0.0
  0
LINE
  5
D36D
  8
0
 10
3690.4861976857928312
 20
344.3568168218102983
 30
0.0
 11
3690.4861976857928312
 21
344.7257140539102807
 31
0.0
  0
LINE
  5
D36E
  8
0
 10
3690.4843464055920776
 20
344.3568168218102983
 30
0.0
 11
3690.4843464055920776
 21
344.7257140539102807
 31
0.0
  0
LINE
  5
D36F
  8
0
 10
3690.4662702441919464
 20
344.3568168218102983
 30
0.0
 11
3690.4662702441919464
 21
344.7257140539102807
 31
0.0
  0
LINE
  5
D370
  8
0
 10
3690.4626199140921017
 20
344.3568168218102983
 30
0.0
 11
3690.4626199140921017
 21
344.7257140539102807
 31
0.0
  0
LINE
  5
D371
  8
0
 10
3690.4580203243917822
 20
344.3568168218102983
 30
0.0
 11
3690.4580203243917822
 21
344.7257140539102807
 31
0.0
  0
LINE
  5
D372
  8
0
 10
3690.4562205565921431
 20
344.3568168218102983
 30
0.0
 11
3690.4562205565921431
 21
344.7257140539102807
 31
0.0
  0
LINE
  5
D373
  8
0
 10
3690.4373445806918426
 20
344.3568168218102983
 30
0.0
 11
3690.4373445806918426
 21
344.7257140539102807
 31
0.0
  0
LINE
  5
D374
  8
0
 10
3690.4338060213917743
 20
344.3568168218102983
 30
0.0
 11
3690.4338060213917743
 21
344.7257140539102807
 31
0.0
  0
LINE
  5
D375
  8
0
 10
3690.4307005639921044
 20
344.3568168218102983
 30
0.0
 11
3690.4307005639921044
 21
344.7257140539102807
 31
0.0
  0
LINE
  5
D376
  8
0
 10
3690.4289610766918486
 20
344.3568168218102983
 30
0.0
 11
3690.4289610766918486
 21
344.7257140539102807
 31
0.0
  0
LINE
  5
D377
  8
0
 10
3690.4093772481919586
 20
344.3568168218102983
 30
0.0
 11
3690.4093772481919586
 21
344.7257140539102807
 31
0.0
  0
LINE
  5
D378
  8
0
 10
3690.405967699392022
 20
344.3568168218102983
 30
0.0
 11
3690.405967699392022
 21
344.7257140539102807
 31
0.0
  0
LINE
  5
D379
  8
0
 10
3690.4043715036918911
 20
344.3568168218102983
 30
0.0
 11
3690.4043715036918911
 21
344.7257140539102807
 31
0.0
  0
LINE
  5
D37A
  8
0
 10
3690.4027007715922082
 20
344.3568168218102983
 30
0.0
 11
3690.4027007715922082
 21
344.7257140539102807
 31
0.0
  0
LINE
  5
D37B
  8
0
 10
3690.3825045008920824
 20
344.3568168218102983
 30
0.0
 11
3690.3825045008920824
 21
344.7257140539102807
 31
0.0
  0
LINE
  5
D37C
  8
0
 10
3690.3792405734920976
 20
344.3568168218102983
 30
0.0
 11
3690.3792405734920976
 21
344.7257140539102807
 31
0.0
  0
LINE
  5
D37D
  8
0
 10
3690.3775675787919681
 20
344.3568168218102983
 30
0.0
 11
3690.3775675787919681
 21
344.7257140539102807
 31
0.0
  0
LINE
  5
D37E
  8
0
 10
3690.3568572600920561
 20
344.3568168218102983
 30
0.0
 11
3690.3568572600920561
 21
344.7257140539102807
 31
0.0
  0
LINE
  5
D37F
  8
0
 10
3690.3537548555918875
 20
344.3568168218102983
 30
0.0
 11
3690.3537548555918875
 21
344.7257140539102807
 31
0.0
  0
LINE
  5
D380
  8
0
 10
3690.3325604764918353
 20
344.3568168218102983
 30
0.0
 11
3690.3325604764918353
 21
344.7257140539102807
 31
0.0
  0
LINE
  5
D381
  8
0
 10
3690.3296347094919838
 20
344.3568168218102983
 30
0.0
 11
3690.3296347094919838
 21
344.7257140539102807
 31
0.0
  0
LINE
  5
D382
  8
0
 10
3690.3097325215921956
 20
344.3568168218102983
 30
0.0
 11
3690.3097325215921956
 21
344.7257140539102807
 31
0.0
  0
LINE
  5
D383
  8
0
 10
3690.306997646191121
 20
344.3568168218102983
 30
0.0
 11
3690.306997646191121
 21
344.7257140539102807
 31
0.0
  0
LINE
  5
D384
  8
0
 10
3690.2884846109918726
 20
344.3568168218102983
 30
0.0
 11
3690.2884846109918726
 21
344.7257140539102807
 31
0.0
  0
LINE
  5
D385
  8
0
 10
3690.2859539510918694
 20
344.3568168218102983
 30
0.0
 11
3690.2859539510918694
 21
344.7257140539102807
 31
0.0
  0
LINE
  5
D386
  8
0
 10
3690.2689202622918856
 20
344.3568168218102983
 30
0.0
 11
3690.2689202622918856
 21
344.7257140539102807
 31
0.0
  0
LINE
  5
D387
  8
0
 10
3690.2666061470918066
 20
344.3568168218102983
 30
0.0
 11
3690.2666061470918066
 21
344.7257140539102807
 31
0.0
  0
LINE
  5
D388
  8
0
 10
3690.2511347909921824
 20
344.3568168218102983
 30
0.0
 11
3690.2511347909921824
 21
344.7257140539102807
 31
0.0
  0
LINE
  5
D389
  8
0
 10
3690.2490484946920333
 20
344.3568168218102983
 30
0.0
 11
3690.2490484946920333
 21
344.7257140539102807
 31
0.0
  0
LINE
  5
D38A
  8
0
 10
3690.2352148462919104
 20
344.3568168218102983
 30
0.0
 11
3690.2352148462919104
 21
344.7257140539102807
 31
0.0
  0
LINE
  5
D38B
  8
0
 10
3690.2333665329920223
 20
344.3568168218102983
 30
0.0
 11
3690.2333665329920223
 21
344.7257140539102807
 31
0.0
  0
LINE
  5
D38C
  8
0
 10
3690.221237988392204
 20
344.3568168218102983
 30
0.0
 11
3690.221237988392204
 21
344.7257140539102807
 31
0.0
  0
LINE
  5
D38D
  8
0
 10
3690.2196366629918884
 20
344.3568168218102983
 30
0.0
 11
3690.2196366629918884
 21
344.7257140539102807
 31
0.0
  0
LINE
  5
D38E
  8
0
 10
3690.2092723111918531
 20
344.3568168218102983
 30
0.0
 11
3690.2092723111918531
 21
344.7257140539102807
 31
0.0
  0
LINE
  5
D38F
  8
0
 10
3690.2079257751920522
 20
344.3568168218102983
 30
0.0
 11
3690.2079257751920522
 21
344.7257140539102807
 31
0.0
  0
LINE
  5
D390
  8
0
 10
3690.1993761101921336
 20
344.3568168218102983
 30
0.0
 11
3690.1993761101921336
 21
344.7257140539102807
 31
0.0
  0
LINE
  5
D391
  8
0
 10
3690.1982909237917738
 20
344.3568168218102983
 30
0.0
 11
3690.1982909237917738
 21
344.7257140539102807
 31
0.0
  0
LINE
  5
D392
  8
0
 10
3690.1915975988918035
 20
344.3568168218102983
 30
0.0
 11
3690.1915975988918035
 21
344.7257140539102807
 31
0.0
  0
LINE
  5
D393
  8
0
 10
3690.1907790488921819
 20
344.3568168218102983
 30
0.0
 11
3690.1907790488921819
 21
344.7257140539102807
 31
0.0
  0
LINE
  5
D394
  8
0
 10
3690.18597467319114
 20
344.3568168218102983
 30
0.0
 11
3690.18597467319114
 21
344.7257140539102807
 31
0.0
  0
LINE
  5
D395
  8
0
 10
3690.1854267475919187
 20
344.3568168218102983
 30
0.0
 11
3690.1854267475919187
 21
344.7257140539102807
 31
0.0
  0
LINE
  5
D396
  8
0
 10
3690.1825347275921558
 20
344.3568168218102983
 30
0.0
 11
3690.1825347275921558
 21
344.7257140539102807
 31
0.0
  0
LINE
  5
D397
  8
0
 10
3690.1822600957921168
 20
344.3568168218102983
 30
0.0
 11
3690.1822600957921168
 21
344.7257140539102807
 31
0.0
  0
LINE
  5
D398
  8
0
 10
3690.6350354721921576
 20
344.7257140539102807
 30
0.0
 11
3690.6350354721921576
 21
344.3568168218102983
 31
0.0
  0
LINE
  5
D399
  8
0
 10
3690.6478840750919517
 20
344.3568168218102983
 30
0.0
 11
3690.6478840750919517
 21
344.7257140539102807
 31
0.0
  0
LINE
  5
D39A
  8
0
 10
3690.6518186845919445
 20
344.3568168218102983
 30
0.0
 11
3690.6518186845919445
 21
344.7257140539102807
 31
0.0
  0
LINE
  5
D39B
  8
0
 10
3690.6634117687917751
 20
344.3568168218102983
 30
0.0
 11
3690.6634117687917751
 21
344.7257140539102807
 31
0.0
  0
LINE
  5
D39C
  8
0
 10
3690.6653770609918865
 20
344.3568168218102983
 30
0.0
 11
3690.6653770609918865
 21
344.7257140539102807
 31
0.0
  0
LINE
  5
D39D
  8
0
 10
3690.6794185853918862
 20
344.3568168218102983
 30
0.0
 11
3690.6794185853918862
 21
344.7257140539102807
 31
0.0
  0
LINE
  5
D39E
  8
0
 10
3690.6833340258917815
 20
344.3568168218102983
 30
0.0
 11
3690.6833340258917815
 21
344.7257140539102807
 31
0.0
  0
LINE
  5
D39F
  8
0
 10
3690.6936151110921855
 20
344.3568168218102983
 30
0.0
 11
3690.6936151110921855
 21
344.7257140539102807
 31
0.0
  0
LINE
  5
D3A0
  8
0
 10
3690.6955660294920563
 20
344.3568168218102983
 30
0.0
 11
3690.6955660294920563
 21
344.7257140539102807
 31
0.0
  0
LINE
  5
D3A1
  8
0
 10
3690.7107320665918451
 20
344.3568168218102983
 30
0.0
 11
3690.7107320665918451
 21
344.7257140539102807
 31
0.0
  0
LINE
  5
D3A2
  8
0
 10
3690.7146092624921039
 20
344.3568168218102983
 30
0.0
 11
3690.7146092624921039
 21
344.7257140539102807
 31
0.0
  0
LINE
  5
D3A3
  8
0
 10
3690.7235282602919142
 20
344.3568168218102983
 30
0.0
 11
3690.7235282602919142
 21
344.7257140539102807
 31
0.0
  0
LINE
  5
D3A4
  8
0
 10
3690.7254553001921522
 20
344.3568168218102983
 30
0.0
 11
3690.7254553001921522
 21
344.7257140539102807
 31
0.0
  0
LINE
  5
D3A5
  8
0
 10
3690.741671962592136
 20
344.3568168218102983
 30
0.0
 11
3690.741671962592136
 21
344.7257140539102807
 31
0.0
  0
LINE
  5
D3A6
  8
0
 10
3690.7454920244917957
 20
344.3568168218102983
 30
0.0
 11
3690.7454920244917957
 21
344.7257140539102807
 31
0.0
  0
LINE
  5
D3A7
  8
0
 10
3690.7530054823919272
 20
344.3568168218102983
 30
0.0
 11
3690.7530054823919272
 21
344.7257140539102807
 31
0.0
  0
LINE
  5
D3A8
  8
0
 10
3690.7548992555921359
 20
344.3568168218102983
 30
0.0
 11
3690.7548992555921359
 21
344.7257140539102807
 31
0.0
  0
LINE
  5
D3A9
  8
0
 10
3690.7720875371919647
 20
344.3568168218102983
 30
0.0
 11
3690.7720875371919647
 21
344.7257140539102807
 31
0.0
  0
LINE
  5
D3AA
  8
0
 10
3690.775831854192802
 20
344.3568168218102983
 30
0.0
 11
3690.775831854192802
 21
344.7257140539102807
 31
0.0
  0
LINE
  5
D3AB
  8
0
 10
3690.7819031673921018
 20
344.3568168218102983
 30
0.0
 11
3690.7819031673921018
 21
344.7257140539102807
 31
0.0
  0
LINE
  5
D3AC
  8
0
 10
3690.7837544475919458
 20
344.3568168218102983
 30
0.0
 11
3690.7837544475919458
 21
344.7257140539102807
 31
0.0
  0
LINE
  5
D3AD
  8
0
 10
3690.801830608992077
 20
344.3568168218102983
 30
0.0
 11
3690.801830608992077
 21
344.7257140539102807
 31
0.0
  0
LINE
  5
D3AE
  8
0
 10
3690.8054809390919218
 20
344.3568168218102983
 30
0.0
 11
3690.8054809390919218
 21
344.7257140539102807
 31
0.0
  0
LINE
  5
D3AF
  8
0
 10
3690.8100805287917865
 20
344.3568168218102983
 30
0.0
 11
3690.8100805287917865
 21
344.7257140539102807
 31
0.0
  0
LINE
  5
D3B0
  8
0
 10
3690.8118802965927898
 20
344.3568168218102983
 30
0.0
 11
3690.8118802965927898
 21
344.7257140539102807
 31
0.0
  0
LINE
  5
D3B1
  8
0
 10
3690.8307562724921809
 20
344.3568168218102983
 30
0.0
 11
3690.8307562724921809
 21
344.7257140539102807
 31
0.0
  0
LINE
  5
D3B2
  8
0
 10
3690.8342948317917944
 20
344.3568168218102983
 30
0.0
 11
3690.8342948317917944
 21
344.7257140539102807
 31
0.0
  0
LINE
  5
D3B3
  8
0
 10
3690.837400289191919
 20
344.3568168218102983
 30
0.0
 11
3690.837400289191919
 21
344.7257140539102807
 31
0.0
  0
LINE
  5
D3B4
  8
0
 10
3690.8391397764921749
 20
344.3568168218102983
 30
0.0
 11
3690.8391397764921749
 21
344.7257140539102807
 31
0.0
  0
LINE
  5
D3B5
  8
0
 10
3690.8587236049920648
 20
344.3568168218102983
 30
0.0
 11
3690.8587236049920648
 21
344.7257140539102807
 31
0.0
  0
LINE
  5
D3B6
  8
0
 10
3690.8621331537920014
 20
344.3568168218102983
 30
0.0
 11
3690.8621331537920014
 21
344.7257140539102807
 31
0.0
  0
LINE
  5
D3B7
  8
0
 10
3690.8637293494921323
 20
344.3568168218102983
 30
0.0
 11
3690.8637293494921323
 21
344.7257140539102807
 31
0.0
  0
LINE
  5
D3B8
  8
0
 10
3690.8654000815918153
 20
344.3568168218102983
 30
0.0
 11
3690.8654000815918153
 21
344.7257140539102807
 31
0.0
  0
LINE
  5
D3B9
  8
0
 10
3690.885596352291941
 20
344.3568168218102983
 30
0.0
 11
3690.885596352291941
 21
344.7257140539102807
 31
0.0
  0
LINE
  5
D3BA
  8
0
 10
3690.8888602796919258
 20
344.3568168218102983
 30
0.0
 11
3690.8888602796919258
 21
344.7257140539102807
 31
0.0
  0
LINE
  5
D3BB
  8
0
 10
3690.8905332743920553
 20
344.3568168218102983
 30
0.0
 11
3690.8905332743920553
 21
344.7257140539102807
 31
0.0
  0
LINE
  5
D3BC
  8
0
 10
3690.9112435930919673
 20
344.3568168218102983
 30
0.0
 11
3690.9112435930919673
 21
344.7257140539102807
 31
0.0
  0
LINE
  5
D3BD
  8
0
 10
3690.914345997592136
 20
344.3568168218102983
 30
0.0
 11
3690.914345997592136
 21
344.7257140539102807
 31
0.0
  0
LINE
  5
D3BE
  8
0
 10
3690.9355403766921881
 20
344.3568168218102983
 30
0.0
 11
3690.9355403766921881
 21
344.7257140539102807
 31
0.0
  0
LINE
  5
D3BF
  8
0
 10
3690.9384661436920396
 20
344.3568168218102983
 30
0.0
 11
3690.9384661436920396
 21
344.7257140539102807
 31
0.0
  0
LINE
  5
D3C0
  8
0
 10
3690.9583683315918279
 20
344.3568168218102983
 30
0.0
 11
3690.9583683315918279
 21
344.7257140539102807
 31
0.0
  0
LINE
  5
D3C1
  8
0
 10
3690.9611032069919929
 20
344.3568168218102983
 30
0.0
 11
3690.9611032069919929
 21
344.7257140539102807
 31
0.0
  0
LINE
  5
D3C2
  8
0
 10
3690.9796162421921508
 20
344.3568168218102983
 30
0.0
 11
3690.9796162421921508
 21
344.7257140539102807
 31
0.0
  0
LINE
  5
D3C3
  8
0
 10
3690.9821469020921541
 20
344.3568168218102983
 30
0.0
 11
3690.9821469020921541
 21
344.7257140539102807
 31
0.0
  0
LINE
  5
D3C4
  8
0
 10
3690.9991805908921378
 20
344.3568168218102983
 30
0.0
 11
3690.9991805908921378
 21
344.7257140539102807
 31
0.0
  0
LINE
  5
D3C5
  8
0
 10
3691.0014947060922168
 20
344.3568168218102983
 30
0.0
 11
3691.0014947060922168
 21
344.7257140539102807
 31
0.0
  0
LINE
  5
D3C6
  8
0
 10
3691.016966062191841
 20
344.3568168218102983
 30
0.0
 11
3691.016966062191841
 21
344.7257140539102807
 31
0.0
  0
LINE
  5
D3C7
  8
0
 10
3691.0190523584919902
 20
344.3568168218102983
 30
0.0
 11
3691.0190523584919902
 21
344.7257140539102807
 31
0.0
  0
LINE
  5
D3C8
  8
0
 10
3691.0328860068921131
 20
344.3568168218102983
 30
0.0
 11
3691.0328860068921131
 21
344.7257140539102807
 31
0.0
  0
LINE
  5
D3C9
  8
0
 10
3691.0347343201910917
 20
344.3568168218102983
 30
0.0
 11
3691.0347343201910917
 21
344.7257140539102807
 31
0.0
  0
LINE
  5
D3CA
  8
0
 10
3691.0468628647918194
 20
344.3568168218102983
 30
0.0
 11
3691.0468628647918194
 21
344.7257140539102807
 31
0.0
  0
LINE
  5
D3CB
  8
0
 10
3691.048464190192135
 20
344.3568168218102983
 30
0.0
 11
3691.048464190192135
 21
344.7257140539102807
 31
0.0
  0
LINE
  5
D3CC
  8
0
 10
3691.0588285419921704
 20
344.3568168218102983
 30
0.0
 11
3691.0588285419921704
 21
344.7257140539102807
 31
0.0
  0
LINE
  5
D3CD
  8
0
 10
3691.0601750779919712
 20
344.3568168218102983
 30
0.0
 11
3691.0601750779919712
 21
344.7257140539102807
 31
0.0
  0
LINE
  5
D3CE
  8
0
 10
3691.0687247429918898
 20
344.3568168218102983
 30
0.0
 11
3691.0687247429918898
 21
344.7257140539102807
 31
0.0
  0
LINE
  5
D3CF
  8
0
 10
3691.0698099293917949
 20
344.3568168218102983
 30
0.0
 11
3691.0698099293917949
 21
344.7257140539102807
 31
0.0
  0
LINE
  5
D3D0
  8
0
 10
3691.0765032542922199
 20
344.3568168218102983
 30
0.0
 11
3691.0765032542922199
 21
344.7257140539102807
 31
0.0
  0
LINE
  5
D3D1
  8
0
 10
3691.0773218042918415
 20
344.3568168218102983
 30
0.0
 11
3691.0773218042918415
 21
344.7257140539102807
 31
0.0
  0
LINE
  5
D3D2
  8
0
 10
3691.0821261799919739
 20
344.3568168218102983
 30
0.0
 11
3691.0821261799919739
 21
344.7257140539102807
 31
0.0
  0
LINE
  5
D3D3
  8
0
 10
3691.0826741055921048
 20
344.3568168218102983
 30
0.0
 11
3691.0826741055921048
 21
344.7257140539102807
 31
0.0
  0
LINE
  5
D3D4
  8
0
 10
3691.0855661255918676
 20
344.3568168218102983
 30
0.0
 11
3691.0855661255918676
 21
344.7257140539102807
 31
0.0
  0
LINE
  5
D3D5
  8
0
 10
3691.0858407573919067
 20
344.3568168218102983
 30
0.0
 11
3691.0858407573919067
 21
344.7257140539102807
 31
0.0
  0
LINE
  5
D3D6
  8
0
 10
3691.0069073837389624
 20
344.8076912166102943
 30
0.0
 11
3690.9928778575422257
 21
344.8150078175708018
 31
0.0
  0
LINE
  5
D3D7
  8
0
 10
3690.9928778575422257
 20
344.8241514861356904
 30
0.0
 11
3691.0434992454420353
 21
344.8505467292545745
 31
0.0
  0
LINE
  5
D3D8
  8
0
 10
3691.0434992454420353
 20
344.8600502886496884
 30
0.0
 11
3690.9928778575422257
 21
344.8864446499625274
 31
0.0
  0
LINE
  5
D3D9
  8
0
 10
3691.0434992454420353
 20
344.9219457476485786
 30
0.0
 11
3690.9928778575422257
 21
344.895551928425391
 31
0.0
  0
LINE
  5
D3DA
  8
0
 10
3691.0434992454420353
 20
344.9314417186296282
 30
0.0
 11
3690.9928778575422257
 21
344.9578373860475722
 31
0.0
  0
LINE
  5
D3DB
  8
0
 10
3690.9928778575422257
 20
344.966975667260499
 30
0.0
 11
3691.0283264883610173
 21
344.985462804591009
 31
0.0
  0
LINE
  5
D3DC
  8
0
 10
3691.0283264883610173
 20
344.985462804591009
 30
0.0
 11
3691.0041291667421319
 21
345.0096601262102922
 31
0.0
  0
LINE
  5
D3DD
  8
0
 10
3690.2622947625909546
 20
345.0096601262102922
 30
0.0
 11
3691.0041291667421319
 21
345.0096601262102922
 31
0.0
  0
LINE
  5
D3DE
  8
0
 10
3690.9928778575422257
 20
344.8241514861356904
 30
0.0
 11
3690.9928778575422257
 21
344.8150078175708018
 31
0.0
  0
LINE
  5
D3DF
  8
0
 10
3690.9928778575422257
 20
344.8864446499625274
 30
0.0
 11
3690.9928778575422257
 21
344.895551928425391
 31
0.0
  0
LINE
  5
D3E0
  8
0
 10
3690.9928778575422257
 20
344.9578373860475722
 30
0.0
 11
3690.9928778575422257
 21
344.966975667260499
 31
0.0
  0
LINE
  5
D3E1
  8
0
 10
3691.0434992454420353
 20
344.8600502886496884
 30
0.0
 11
3691.0434992454420353
 21
344.8505467292545745
 31
0.0
  0
LINE
  5
D3E2
  8
0
 10
3691.0434992454420353
 20
344.9219457476485786
 30
0.0
 11
3691.0434992454420353
 21
344.9314417186296282
 31
0.0
  0
LINE
  5
D3E3
  8
0
 10
3690.2246016076419437
 20
344.814821568225625
 30
0.0
 11
3690.2382765479560476
 21
344.8076912166102943
 31
0.0
  0
LINE
  5
D3E4
  8
0
 10
3690.2246016076419437
 20
344.8242873522830223
 30
0.0
 11
3690.2751885952420707
 21
344.8506693853549905
 31
0.0
  0
LINE
  5
D3E5
  8
0
 10
3690.2751885952420707
 20
344.8598681636615879
 30
0.0
 11
3690.2246016076419437
 21
344.8862443768871913
 31
0.0
  0
LINE
  5
D3E6
  8
0
 10
3690.2246016076419437
 20
344.895705002060879
 30
0.0
 11
3690.2751885952420707
 21
344.9220891869575212
 31
0.0
  0
LINE
  5
D3E7
  8
0
 10
3690.2751885952420707
 20
344.9312779687762145
 30
0.0
 11
3690.2246016076419437
 21
344.9576558326355098
 31
0.0
  0
LINE
  5
D3E8
  8
0
 10
3690.2246016076419437
 20
344.9671505041018236
 30
0.0
 11
3690.2752253745420603
 21
344.9935541885325847
 31
0.0
  0
LINE
  5
D3E9
  8
0
 10
3690.2751885952420707
 20
344.8598681636615879
 30
0.0
 11
3690.2751885952420707
 21
344.8506693853549905
 31
0.0
  0
LINE
  5
D3EA
  8
0
 10
3690.2751885952420707
 20
344.9220891869575212
 30
0.0
 11
3690.2751885952420707
 21
344.9312779687762145
 31
0.0
  0
LINE
  5
D3EB
  8
0
 10
3690.2246016076419437
 20
344.8242873522830223
 30
0.0
 11
3690.2246016076419437
 21
344.814821568225625
 31
0.0
  0
LINE
  5
D3EC
  8
0
 10
3690.2246016076419437
 20
344.8862443768871913
 30
0.0
 11
3690.2246016076419437
 21
344.895705002060879
 31
0.0
  0
LINE
  5
D3ED
  8
0
 10
3690.283656725741821
 20
345.058330412135092
 30
0.0
 11
3690.283656725741821
 21
345.0096601262102922
 31
0.0
  0
LINE
  5
D3EE
  8
0
 10
3690.984444127342158
 20
345.0096601262102922
 30
0.0
 11
3690.984444127342158
 21
345.058330412135092
 31
0.0
  0
LINE
  5
D3EF
  8
0
 10
3690.2246016076419437
 20
344.9671505041018236
 30
0.0
 11
3690.2246016076419437
 21
344.9576558326355098
 31
0.0
  0
LINE
  5
D3F0
  8
0
 10
3691.3427118440667982
 20
344.9132034333104002
 30
0.0
 11
3691.3427118440667982
 21
348.8679278427126746
 31
0.0
  0
LINE
  5
D3F1
  8
0
 10
3691.1655464897671663
 20
347.0904089451103118
 30
0.0
 11
3691.1655464897671663
 21
344.9919034333103127
 31
0.0
  0
LINE
  5
D3F2
  8
0
 10
3690.1616244424672004
 20
345.0529672128104153
 30
0.0
 11
3690.2698771982418293
 21
345.0529672128104153
 31
0.0
  0
LINE
  5
D3F3
  8
0
 10
3690.9982236548421497
 20
345.0529672128104153
 30
0.0
 11
3691.1655464897671663
 21
345.0529672128104153
 31
0.0
  0
LINE
  5
D3F4
  8
0
 10
3690.1616244424672004
 20
347.029345165610323
 30
0.0
 11
3691.1655464897671663
 21
347.029345165610323
 31
0.0
  0
LINE
  5
D3F5
  8
0
 10
3690.1419244424669159
 20
347.0096451656103227
 30
0.0
 11
3690.1419244424669159
 21
345.0726672128103019
 31
0.0
  0
ARC
  5
D3F6
  8
0
 10
3690.1616244424672004
 20
347.0096451656103227
 30
0.0
 40
0.0197
 50
90.0
 51
179.9999999999901945
  0
ARC
  5
D3F7
  8
0
 10
3690.1616244424672004
 20
345.0726672128104155
 30
0.0
 40
0.0197
 50
180.0000000000163141
 51
270.0
  0
LINE
  5
D3F8
  8
0
 10
3691.2442464897671925
 20
344.9132034333104002
 30
0.0
 11
3691.3427118440667982
 21
344.9132034333104002
 31
0.0
  0
LINE
  5
D3F9
  8
0
 10
3691.2442464897671925
 20
347.1691089451102812
 30
0.0
 11
3691.3427118440667982
 21
347.1691089451102812
 31
0.0
  0
ARC
  5
D3FA
  8
0
 10
3691.2442464897671925
 20
347.0904089451103118
 30
0.0
 40
0.0787
 50
90.0
 51
180.0000000000032117
  0
ARC
  5
D3FB
  8
0
 10
3691.2442464897671925
 20
344.9919034333103127
 30
0.0
 40
0.0787
 50
179.9999999999967031
 51
270.0
  0
ARC
  5
D3FC
  8
0
 10
3690.6340504265422169
 20
344.1376897684456253
 30
0.0
 40
0.9850659573719998
 50
68.3032373708457357
 51
111.696762629154307
  0
LINE
  5
D3FD
  8
0
 10
3690.2752253745420603
 20
344.9935541885325847
 30
0.0
 11
3690.2752253745420603
 21
345.002915819562304
 31
0.0
  0
LINE
  5
D3FE
  8
0
 10
3690.2622947625909546
 20
345.0096601262102922
 30
0.0
 11
3690.2752253745420603
 21
345.002915819562304
 31
0.0
  0
LINE
  5
D3FF
  8
0
 10
3690.2751885952420707
 20
344.9312779687762145
 30
0.0
 11
3690.9928778575422257
 21
344.966975667260499
 31
0.0
  0
LINE
  5
D400
  8
0
 10
3690.9928778575422257
 20
344.9578373860475722
 30
0.0
 11
3690.2751885952420707
 21
344.9220891869575212
 31
0.0
  0
LINE
  5
D401
  8
0
 10
3690.2751885952420707
 20
344.8598681636615879
 30
0.0
 11
3690.9928778575422257
 21
344.895551928425391
 31
0.0
  0
LINE
  5
D402
  8
0
 10
3690.9928778575422257
 20
344.8864446499625274
 30
0.0
 11
3690.2751885952420707
 21
344.8506693853549905
 31
0.0
  0
LINE
  5
D403
  8
0
 10
3690.2246016076419437
 20
344.8242873522830223
 30
0.0
 11
3691.0434992454420353
 21
344.8600502886496884
 31
0.0
  0
LINE
  5
D404
  8
0
 10
3691.0434992454420353
 20
344.8505467292545745
 30
0.0
 11
3690.2246016076419437
 21
344.814821568225625
 31
0.0
  0
LINE
  5
D405
  8
0
 10
3690.2246016076419437
 20
344.8862443768871913
 30
0.0
 11
3691.0434992454420353
 21
344.9219457476485786
 31
0.0
  0
LINE
  5
D406
  8
0
 10
3691.0434992454420353
 20
344.9314417186296282
 30
0.0
 11
3690.2246016076419437
 21
344.895705002060879
 31
0.0
  0
LINE
  5
D407
  8
0
 10
3690.2246016076419437
 20
344.9576558326355098
 30
0.0
 11
3691.0283264883610173
 21
344.985462804591009
 31
0.0
  0
LINE
  5
D408
  8
0
 10
3690.2246016076419437
 20
344.9667221113195978
 30
0.0
 11
3691.0195633919988722
 21
344.9942259009540066
 31
0.0
  0
LINE
  5
D409
  8
0
 10
3690.2752253745420603
 20
344.9931257957504158
 30
0.0
 11
3690.7531290023807742
 21
345.0096601262102922
 31
0.0
  0
LINE
  5
D40A
  8
0
 10
3690.2752253745420603
 20
345.0024874267800783
 30
0.0
 11
3690.4825430574328493
 21
345.0096601262102922
 31
0.0
  0
LINE
  5
D40B
  8
0
 10
3690.9928778575422257
 20
344.8241514861356904
 30
0.0
 11
3690.6155730268951629
 21
344.8076912166102943
 31
0.0
  0
LINE
  5
D40C
  8
0
 10
3690.9928778575422257
 20
344.8150078175708018
 30
0.0
 11
3690.8251656045899836
 21
344.8076912166102943
 31
0.0
  0
LINE
  5
D40D
  8
0
 10
3691.3623968832421269
 20
348.8738333546103263
 30
0.0
 11
3691.3623968832421269
 21
347.1454868979104162
 31
0.0
  0
LINE
  5
D40E
  8
0
 10
3691.3623968832421269
 20
348.8738333546103263
 30
0.0
 11
3689.6503249791421695
 21
348.8602723890103903
 31
0.0
  0
LINE
  5
D40F
  8
0
 10
3689.6503249791421695
 20
348.8502705159103243
 30
0.0
 11
3691.3427118440667982
 21
348.8679278427126746
 31
0.0
  0
LINE
  5
D410
  8
0
 10
3691.1655464897671663
 20
347.0508786396079017
 30
0.0
 11
3689.6503249791421695
 21
347.0666875318103166
 31
0.0
  0
LINE
  5
D411
  8
0
 10
3691.1655464897671663
 20
347.0607208523080089
 30
0.0
 11
3689.6503249791421695
 21
347.0765302218102875
 31
0.0
  0
LINE
  5
D412
  8
0
 10
3688.8899559383421547
 20
348.8326390053675823
 30
0.0
 11
3688.8899559383421547
 21
348.7261955593103266
 31
0.0
  0
LINE
  5
D413
  8
0
 10
3688.8899559383421547
 20
348.4506050081103012
 30
0.0
 11
3688.8899559383421547
 21
347.4663530396102828
 31
0.0
  0
LINE
  5
D414
  8
0
 10
3688.8899559383421547
 20
347.1907624884103143
 30
0.0
 11
3688.8899559383421547
 21
347.0843190423468059
 31
0.0
  0
LINE
  5
D415
  8
0
 10
3688.8996536967160864
 20
347.0745195756954899
 30
0.0
 11
3689.0991438768419357
 21
347.0724382175021105
 31
0.0
  0
LINE
  5
D416
  8
0
 10
3688.8996536967138127
 20
348.8424384720187845
 30
0.0
 11
3689.0991438768419357
 21
348.8445198302725885
 31
0.0
  0
ARC
  5
D417
  8
0
 10
3688.8997559383419684
 20
348.8326390053675823
 30
0.0
 40
0.0098
 50
90.5977673521681766
 51
179.9999999999739089
  0
ARC
  5
D418
  8
0
 10
3688.8997559383419684
 20
347.0843190423468059
 30
0.0
 40
0.0098
 50
180.0000000000129887
 51
269.4022326651332833
  0
LINE
  5
D419
  8
0
 10
3688.8899559383421547
 20
347.4663530396102828
 30
0.0
 11
3688.8948106303419081
 21
347.4663530396102828
 31
0.0
  0
LINE
  5
D41A
  8
0
 10
3688.8948106303419081
 20
347.4663530396102828
 30
0.0
 11
3688.8948106303419081
 21
347.1907624884103143
 31
0.0
  0
LINE
  5
D41B
  8
0
 10
3688.8948106303419081
 20
347.1907624884103143
 30
0.0
 11
3688.8899559383421547
 21
347.1907624884103143
 31
0.0
  0
LINE
  5
D41C
  8
0
 10
3688.8899559383421547
 20
348.7261955593103266
 30
0.0
 11
3688.8948106303419081
 21
348.7261955593103266
 31
0.0
  0
LINE
  5
D41D
  8
0
 10
3688.8948106303419081
 20
348.7261955593103266
 30
0.0
 11
3688.8948106303419081
 21
348.4506050081103012
 31
0.0
  0
LINE
  5
D41E
  8
0
 10
3688.8948106303419081
 20
348.4506050081103012
 30
0.0
 11
3688.8899559383421547
 21
348.4506050081103012
 31
0.0
  0
LINE
  5
D41F
  8
0
 10
3689.000192158741811
 20
346.0411561892103123
 30
0.0
 11
3689.000192158741811
 21
347.0734706190423253
 31
0.0
  0
LINE
  5
D420
  8
0
 10
3689.000192158741811
 20
346.0254561892102743
 30
0.0
 11
3689.000192158741811
 21
345.9837200767069021
 31
0.0
  0
LINE
  5
D421
  8
0
 10
3689.7482236548421497
 20
346.0411561892103123
 30
0.0
 11
3689.7482236548421497
 21
347.0656661170535244
 31
0.0
  0
LINE
  5
D422
  8
0
 10
3689.7482236548421497
 20
346.0254561892102743
 30
0.0
 11
3689.7482236548421497
 21
345.9837204782239155
 31
0.0
  0
ARC
  5
D423
  8
0
 10
3689.7325236548422254
 20
346.0254561892102743
 30
0.0
 40
0.0157
 50
0.0
 51
90.0
  0
LINE
  5
D424
  8
0
 10
3689.000192158741811
 20
346.0411561892103123
 30
0.0
 11
3689.0991438768419357
 21
346.0411561892103123
 31
0.0
  0
LINE
  5
D425
  8
0
 10
3689.6503249791421695
 20
346.0411561892103123
 30
0.0
 11
3689.7482236548421497
 21
346.0411561892103123
 31
0.0
  0
ARC
  5
D426
  8
0
 10
3689.0158921587421901
 20
346.0254561892102743
 30
0.0
 40
0.0157
 50
90.0
 51
180.0
  0
ARC
  5
D427
  8
0
 10
3689.3742058890061344
 20
349.5056824556406809
 30
0.0
 40
3.5629514633309181
 50
264.3181192740287884
 51
265.5723255422861939
  0
ARC
  5
D428
  8
0
 10
3689.3742058890061344
 20
349.5056824556406809
 30
0.0
 40
3.5629514633309181
 50
274.4447243960904075
 51
275.6819463772158088
  0
ARC
  5
D429
  8
0
 10
3689.0237921587417986
 20
345.9837200767069021
 30
0.0
 40
0.0236
 50
180.0
 51
264.3181192740287884
  0
LINE
  5
D42A
  8
0
 10
3689.0214756486711849
 20
345.9602340344102913
 30
0.0
 11
3689.0991438768419357
 21
345.9602340344102913
 31
0.0
  0
LINE
  5
D42B
  8
0
 10
3689.6503249791421695
 20
345.9602340344102913
 30
0.0
 11
3689.7269361293419934
 21
345.9602340344102913
 31
0.0
  0
ARC
  5
D42C
  8
0
 10
3689.7246236548421621
 20
345.9837204782239155
 30
0.0
 40
0.0236
 50
275.6819463772158088
 51
0.0
  0
LINE
  5
D42D
  8
0
 10
3689.000192158741811
 20
348.8434874287024741
 30
0.0
 11
3689.000192158741811
 21
358.7107495642586059
 31
0.0
  0
LINE
  5
D42E
  8
0
 10
3689.000192158741811
 20
364.3274443333518207
 30
0.0
 11
3689.000192158741811
 21
370.0104784930363735
 31
0.0
  0
LINE
  5
D42F
  8
0
 10
3689.7482236548421497
 20
348.8610478240667021
 30
0.0
 11
3689.7482236548421497
 21
358.7107495642064237
 31
0.0
  0
LINE
  5
D430
  8
0
 10
3689.7482236548421497
 20
361.6921726427094086
 30
0.0
 11
3689.7482236548421497
 21
369.9929180976354246
 31
0.0
  0
LINE
  5
D431
  8
0
 10
3689.000192158741811
 20
372.8128097325102885
 30
0.0
 11
3689.000192158741811
 21
371.7810630294358134
 31
0.0
  0
LINE
  5
D432
  8
0
 10
3689.000192158741811
 20
372.8285097325103266
 30
0.0
 11
3689.000192158741811
 21
372.8702458450138124
 31
0.0
  0
LINE
  5
D433
  8
0
 10
3689.7482236548421497
 20
372.8128097325102885
 30
0.0
 11
3689.7482236548421497
 21
371.7886227137710762
 31
0.0
  0
LINE
  5
D434
  8
0
 10
3689.7482236548421497
 20
372.8285097325103266
 30
0.0
 11
3689.7482236548421497
 21
372.870245443496799
 31
0.0
  0
ARC
  5
D435
  8
0
 10
3689.7325236548422254
 20
372.8285097325103266
 30
0.0
 40
0.0157
 50
270.0
 51
0.0
  0
LINE
  5
D436
  8
0
 10
3689.000192158741811
 20
372.8128097325102885
 30
0.0
 11
3689.7482236548421497
 21
372.8128097325102885
 31
0.0
  0
ARC
  5
D437
  8
0
 10
3689.0158921587421901
 20
372.8285097325103266
 30
0.0
 40
0.0157
 50
180.0
 51
270.0
  0
ARC
  5
D438
  8
0
 10
3689.3742058890061344
 20
369.3482834660799767
 30
0.0
 40
3.5629514633309181
 50
84.3180536227842623
 51
95.6818807259711548
  0
ARC
  5
D439
  8
0
 10
3689.0237921587417986
 20
372.8702458450138124
 30
0.0
 40
0.0236
 50
95.6818807259711548
 51
180.0
  0
LINE
  5
D43A
  8
0
 10
3689.0214756486711849
 20
372.8937318873103095
 30
0.0
 11
3689.7269361293419934
 21
372.8937318873103095
 31
0.0
  0
ARC
  5
D43B
  8
0
 10
3689.7246236548421621
 20
372.870245443496799
 30
0.0
 40
0.0236
 50
0.0
 51
84.3180536227842623
  0
ARC
  5
D43C
  8
0
 10
3689.3742079068420026
 20
359.4269829609103226
 30
0.0
 40
0.8080086993999982
 50
123.669968598206907
 51
250.0974063533921878
  0
ARC
  5
D43D
  8
0
 10
3689.3742079068420026
 20
359.4269829609103226
 30
0.0
 40
0.8080086993999982
 50
289.9820278828951245
 51
56.330031399415617
  0
ARC
  5
D43E
  8
0
 10
3689.3742079068420026
 20
359.4269829609103226
 30
0.0
 40
0.7909623359999982
 50
124.2448900011712993
 51
243.3697429148398896
  0
ARC
  5
D43F
  8
0
 10
3689.3742079068420026
 20
359.4269829609103226
 30
0.0
 40
0.7909623359999982
 50
296.6302572519962837
 51
55.7551099725703168
  0
ARC
  5
D440
  8
0
 10
3689.3742079068420026
 20
359.4269829609103226
 30
0.0
 40
0.7999072741999984
 50
124.023232296465693
 51
249.887174810086691
  0
LINE
  5
D441
  8
0
 10
3689.8269638123420009
 20
360.2143845357102805
 30
0.0
 11
3689.8213409096510986
 21
360.079434870838611
 31
0.0
  0
LINE
  5
D442
  8
0
 10
3688.9270749040651936
 20
360.0794348708610073
 30
0.0
 11
3688.9214520013420042
 21
360.2143845357102805
 31
0.0
  0
LINE
  5
D443
  8
0
 10
3688.9906709517590571
 20
360.0491139119922082
 30
0.0
 11
3689.0196738975619155
 21
358.7199277627580045
 31
0.0
  0
LINE
  5
D444
  8
0
 10
3689.7577448622078009
 20
360.0491139117464741
 30
0.0
 11
3689.7287419181811856
 21
358.7199277637903947
 31
0.0
  0
ARC
  5
D445
  8
0
 10
3689.7971354860751489
 20
360.0482544053028278
 30
0.0
 40
0.0394
 50
55.7551099725089188
 51
178.7500000386312138
  0
ARC
  5
D446
  8
0
 10
3688.9512803278939828
 20
360.0482544054967207
 30
0.0
 40
0.0394
 50
1.2500000366501021
 51
124.2448900012289954
  0
LINE
  5
D447
  8
0
 10
3689.012836479795169
 20
359.0332821735103153
 30
0.0
 11
3689.7355793355131937
 21
359.0332821735103153
 31
0.0
  0
ARC
  5
D448
  8
0
 10
3689.3742079068420026
 20
359.4269829609103226
 30
0.0
 40
0.7999072742000003
 50
290.1931716738114915
 51
55.976767700925528
  0
LINE
  5
D449
  8
0
 10
3691.3623968832421269
 20
369.9801325671102745
 30
0.0
 11
3691.3623968832421269
 21
371.8049357168104052
 31
0.0
  0
LINE
  5
D44A
  8
0
 10
3691.342711843842153
 20
369.9860380790103136
 30
0.0
 11
3691.342711843842153
 21
371.7950936027082207
 31
0.0
  0
LINE
  5
D44B
  8
0
 10
3688.8899559383421547
 20
370.0213269163530754
 30
0.0
 11
3688.8899559383421547
 21
371.7702475100742276
 31
0.0
  0
LINE
  5
D44C
  8
0
 10
3691.3623968832421269
 20
371.8049357168104052
 30
0.0
 11
3688.8996569035771245
 21
371.7800470096590857
 31
0.0
  0
LINE
  5
D44D
  8
0
 10
3691.342711843842153
 20
371.7950936027082207
 30
0.0
 11
3688.8899559383421547
 21
371.7695060175933008
 31
0.0
  0
LINE
  5
D44E
  8
0
 10
3691.3623968832421269
 20
369.9801325671102745
 30
0.0
 11
3689.3742211307148864
 21
369.9958804938668209
 31
0.0
  0
LINE
  5
D44F
  8
0
 10
3691.342711843842153
 20
369.9860380790103136
 30
0.0
 11
3688.8996536967160864
 21
370.0115274497018163
 31
0.0
  0
LINE
  5
D450
  8
0
 10
3689.3742211307148864
 20
369.9958804938668209
 30
0.0
 11
3689.3742079068420026
 21
370.0065748961757777
 31
0.0
  0
ARC
  5
D451
  8
0
 10
3688.8997559383419684
 20
370.0213269163530754
 30
0.0
 40
0.0098
 50
179.9999999999575948
 51
269.4022326582543769
  0
ARC
  5
D452
  8
0
 10
3688.8997559383419684
 20
371.7702475100742276
 30
0.0
 40
0.0098
 50
90.579017413155583
 51
180.0000000000422915
  0
LINE
  5
D453
  8
0
 10
3691.3623968832421269
 20
347.1454868979104162
 30
0.0
 11
3691.3427118440667982
 21
347.1456428190109023
 31
0.0
  0
LINE
  5
D454
  8
0
 10
3691.3623968832421269
 20
371.7084790238104119
 30
0.0
 11
3691.342711843842153
 21
371.7083231027103238
 31
0.0
  0
LINE
  5
D455
  8
0
 10
3691.3623968832421269
 20
370.7576916223104035
 30
0.0
 11
3691.342711843842153
 21
370.7576916223104035
 31
0.0
  0
LINE
  5
D456
  8
0
 10
3691.3623968832421269
 20
348.096274299410311
 30
0.0
 11
3691.3427118439781225
 21
348.096274299410311
 31
0.0
  0
LINE
  5
D457
  8
0
 10
3688.3379874344418567
 20
359.5018879366932083
 30
0.0
 11
3688.5007372029858743
 21
359.5018879366932083
 31
0.0
  0
LINE
  5
D458
  8
0
 10
3688.3379874344418567
 20
359.3511172536295817
 30
0.0
 11
3688.500906918110104
 21
359.3511172536295817
 31
0.0
  0
ARC
  5
D459
  8
0
 10
3688.3379874344418567
 20
359.4265025951613097
 30
0.0
 40
0.0753853415317885
 50
90.0
 51
270.0
  0
ARC
  5
D45A
  8
0
 10
3688.5007372029858743
 20
359.5807879366931274
 30
0.0
 40
0.0789
 50
270.0
 51
350.013454160593426
  0
ARC
  5
D45B
  8
0
 10
3688.500906918110104
 20
359.272217253629492
 30
0.0
 40
0.0789
 50
10.0495716541312508
 51
90.0
  0
ENDSEC
  0
EOF
