  0
SECTION
  2
HEADER
  9
$ACADVER
  1
AC1009
  9
$INSBASE
 10
3702.4853029853479711
 20
354.6281002200523744
 30
0.0
  9
$EXTMIN
 10
3696.9436392680950121
 20
339.7785438367700976
 30
-0.0000000000112498
  9
$EXTMAX
 10
3702.5750991909121694
 20
373.6944194444095046
 30
0.0000000000002956
  9
$LIMMIN
 10
0.0
 20
0.0
  9
$LIMMAX
 10
11.6929133858000007
 20
8.2677165353999982
  9
$ORTHOMODE
 70
     0
  9
$REGENMODE
 70
     1
  9
$FILLMODE
 70
     1
  9
$QTEXTMODE
 70
     0
  9
$MIRRTEXT
 70
     0
  9
$DRAGMODE
 70
     2
  9
$LTSCALE
 40
0.6431102362
  9
$OSMODE
 70
  4095
  9
$ATTMODE
 70
     1
  9
$TEXTSIZE
 40
0.2
  9
$TRACEWID
 40
0.05
  9
$TEXTSTYLE
  7
STANDARD
  9
$CLAYER
  8
0
  9
$CELTYPE
  6
BYLAYER
  9
$CECOLOR
 62
   256
  9
$DIMSCALE
 40
1.0
  9
$DIMASZ
 40
0.1875
  9
$DIMEXO
 40
0.0625
  9
$DIMDLI
 40
0.4443307087
  9
$DIMRND
 40
0.0
  9
$DIMDLE
 40
0.0
  9
$DIMEXE
 40
0.125
  9
$DIMTP
 40
0.01
  9
$DIMTM
 40
0.01
  9
$DIMTXT
 40
2.0
  9
$DIMCEN
 40
0.1052362205
  9
$DIMTSZ
 40
0.0
  9
$DIMTOL
 70
     1
  9
$DIMLIM
 70
     0
  9
$DIMTIH
 70
     1
  9
$DIMTOH
 70
     1
  9
$DIMSE1
 70
     0
  9
$DIMSE2
 70
     0
  9
$DIMTAD
 70
     0
  9
$DIMZIN
 70
     0
  9
$DIMBLK
  1

  9
$DIMASO
 70
     1
  9
$DIMSHO
 70
     1
  9
$DIMPOST
  1
\X
  9
$DIMAPOST
  1

  9
$DIMALT
 70
     1
  9
$DIMALTD
 70
     2
  9
$DIMALTF
 40
25.3999999999999986
  9
$DIMLFAC
 40
1.0
  9
$DIMTOFL
 70
     0
  9
$DIMTVP
 40
0.0
  9
$DIMTIX
 70
     0
  9
$DIMSOXD
 70
     0
  9
$DIMSAH
 70
     0
  9
$DIMBLK1
  1

  9
$DIMBLK2
  1

  9
$DIMSTYLE
  2
STANDARD
  9
$DIMCLRD
 70
     0
  9
$DIMCLRE
 70
     0
  9
$DIMCLRT
 70
     0
  9
$DIMTFAC
 40
1.0
  9
$DIMGAP
 40
0.09
  9
$LUNITS
 70
     2
  9
$LUPREC
 70
     4
  9
$SKETCHINC
 40
0.1
  9
$FILLETRAD
 40
0.0
  9
$AUNITS
 70
     0
  9
$AUPREC
 70
     0
  9
$MENU
  1
.
  9
$ELEVATION
 40
0.0
  9
$PELEVATION
 40
0.0
  9
$THICKNESS
 40
0.0
  9
$LIMCHECK
 70
     0
  9
$BLIPMODE
 70
     0
  9
$CHAMFERA
 40
0.0
  9
$CHAMFERB
 40
0.0
  9
$SKPOLY
 70
     0
  9
$TDCREATE
 40
2458060.468368056230247
  9
$TDUPDATE
 40
2459111.82758101914078
  9
$TDINDWG
 40
0.4939453356
  9
$TDUSRTIMER
 40
0.4939453356
  9
$USRTIMER
 70
     1
  9
$ANGBASE
 50
0.0
  9
$ANGDIR
 70
     0
  9
$PDMODE
 70
     0
  9
$PDSIZE
 40
0.3125
  9
$PLINEWID
 40
0.0
  9
$COORDS
 70
     1
  9
$SPLFRAME
 70
     0
  9
$SPLINETYPE
 70
     6
  9
$SPLINESEGS
 70
     8
  9
$ATTDIA
 70
     1
  9
$ATTREQ
 70
     1
  9
$HANDLING
 70
     1
  9
$HANDSEED
  5
D7BB
  9
$SURFTAB1
 70
     6
  9
$SURFTAB2
 70
     6
  9
$SURFTYPE
 70
     6
  9
$SURFU
 70
     6
  9
$SURFV
 70
     6
  9
$UCSNAME
  2

  9
$UCSORG
 10
0.0
 20
0.0
 30
0.0
  9
$UCSXDIR
 10
1.0
 20
0.0
 30
0.0
  9
$UCSYDIR
 10
0.0
 20
1.0
 30
0.0
  9
$PUCSNAME
  2

  9
$PUCSORG
 10
0.0
 20
0.0
 30
0.0
  9
$PUCSXDIR
 10
1.0
 20
0.0
 30
0.0
  9
$PUCSYDIR
 10
0.0
 20
1.0
 30
0.0
  9
$USERI1
 70
     0
  9
$USERI2
 70
     0
  9
$USERI3
 70
     0
  9
$USERI4
 70
     0
  9
$USERI5
 70
     0
  9
$USERR1
 40
0.0
  9
$USERR2
 40
0.0
  9
$USERR3
 40
0.0
  9
$USERR4
 40
0.0
  9
$USERR5
 40
0.0
  9
$WORLDVIEW
 70
     1
  9
$SHADEDGE
 70
     3
  9
$SHADEDIF
 70
    70
  9
$TILEMODE
 70
     1
  9
$MAXACTVP
 70
    64
  9
$PLIMCHECK
 70
     0
  9
$PEXTMIN
 10
1.0000000000000000E+20
 20
1.0000000000000000E+20
 30
1.0000000000000000E+20
  9
$PEXTMAX
 10
-1.0000000000000000E+20
 20
-1.0000000000000000E+20
 30
-1.0000000000000000E+20
  9
$PLIMMIN
 10
0.0
 20
0.0
  9
$PLIMMAX
 10
12.0
 20
9.0
  9
$UNITMODE
 70
     0
  9
$VISRETAIN
 70
     1
  9
$PLINEGEN
 70
     0
  9
$PSLTSCALE
 70
     1
  0
ENDSEC
  0
SECTION
  2
TABLES
  0
TABLE
  2
VPORT
 70
     1
  0
VPORT
  2
*ACTIVE
 70
     0
 10
0.0
 20
0.0
 11
1.0
 21
1.0
 12
439.4430850498155792
 22
52.5260476806288423
 13
0.0
 23
0.0
 14
1.0
 24
1.0
 15
0.0
 25
0.0
 16
0.0
 26
0.0
 36
48.4519809769821421
 17
3260.3162841796870453
 27
304.2104339599608807
 37
0.0
 40
34.1454193003142308
 41
2.005224660397074
 42
50.0
 43
0.0
 44
0.0
 50
0.0
 51
0.0
 71
     0
 72
   100
 73
     1
 74
     1
 75
     0
 76
     0
 77
     0
 78
     0
  0
ENDTAB
  0
TABLE
  2
LTYPE
 70
     2
  0
LTYPE
  2
CONTINUOUS
 70
     0
  3
Solid line
 72
    65
 73
     0
 40
0.0
  0
LTYPE
  2
PHANTOM2
 70
     0
  3
___ _ _ ___ _ _ ___ _ _ ___ _ _
 72
    65
 73
     6
 40
1.25
 49
0.625
 49
-0.125
 49
0.125
 49
-0.125
 49
0.125
 49
-0.125
  0
ENDTAB
  0
TABLE
  2
LAYER
 70
     2
  0
LAYER
  2
0
 70
     0
 62
   255
  6
CONTINUOUS
  0
LAYER
  2
DEFPOINTS
 70
     0
 62
     7
  6
CONTINUOUS
  0
ENDTAB
  0
TABLE
  2
STYLE
 70
     1
  0
STYLE
  2
STANDARD
 70
     0
 40
0.0
 41
0.8
 50
0.0
 71
     0
 42
0.2
  3
txt
  4

  0
ENDTAB
  0
TABLE
  2
VIEW
 70
     0
  0
ENDTAB
  0
TABLE
  2
UCS
 70
     0
  0
ENDTAB
  0
TABLE
  2
APPID
 70
     9
  0
APPID
  2
ACAD
 70
     0
  0
APPID
  2
ACAD_MLEADERVER
 70
     0
  0
APPID
  2
ACAD_EXEMPT_FROM_CAD_STANDARDS
 70
     0
  0
APPID
  2
ACAD_NAV_VCDISPLAY
 70
     0
  0
APPID
  2
ACAECLAYERSTANDARD
 70
     0
  0
APPID
  2
ACCMTRANSPARENCY
 70
     0
  0
APPID
  2
ACAD_DSTYLE_DIMJAG
 70
     0
  0
APPID
  2
ACAD_DSTYLE_DIMTALN
 70
     0
  0
APPID
  2
ACDBATTR
 70
     0
  0
ENDTAB
  0
TABLE
  2
DIMSTYLE
 70
     1
  0
DIMSTYLE
  2
STANDARD
 70
     0
  3

  4

  5

  6

  7

 40
1.0
 41
0.1875
 42
0.0625
 43
0.38
 44
0.125
 45
0.0
 46
0.0
 47
0.01
 48
0.01
140
0.15625
141
0.09
142
0.0
143
25.3999999999999986
144
1.0
145
0.0
146
1.0
147
0.09
 71
     1
 72
     0
 73
     1
 74
     1
 75
     0
 76
     0
 77
     0
 78
     4
170
     0
171
     2
172
     0
173
     0
174
     0
175
     0
176
     0
177
     0
178
     0
  0
ENDTAB
  0
ENDSEC
  0
SECTION
  2
BLOCKS
  0
BLOCK
  8
0
  2
$MODEL_SPACE
 70
     0
 10
0.0
 20
0.0
 30
0.0
  3
$MODEL_SPACE
  1

  0
ENDBLK
  5
21
  8
0
  0
BLOCK
 67
     1
  8
0
  2
$PAPER_SPACE
 70
     0
 10
0.0
 20
0.0
 30
0.0
  3
$PAPER_SPACE
  1

  0
ENDBLK
  5
1D
 67
     1
  8
0
  0
ENDSEC
  0
SECTION
  2
ENTITIES
  0
ATTDEF
  5
A142
  8
DEFPOINTS
 10
3702.4822934122848892
 20
354.632964459638913
 30
0.0
 40
0.001
  1
K-76667T-E
  3

  2
MODELNUMBER
 70
     0
1001
ACDBATTR
1070
     0
1070
     1
  0
ATTDEF
  5
A143
  8
DEFPOINTS
 10
3702.4822934122848892
 20
354.631297792972191
 30
0.0
 40
0.001
  1
AWAKEN
  3

  2
TRADENAME
 70
     0
1001
ACDBATTR
1070
     0
1070
     1
  0
ATTDEF
  5
A144
  8
DEFPOINTS
 10
3702.4822934122848892
 20
354.6296311263055259
 30
0.0
 40
0.001
  1
SHOWER COLUMN KIT
  3

  2
PRODUCT
 70
     0
1001
ACDBATTR
1070
     0
1070
     1
  0
LINE
  5
D54B
  8
0
 10
3702.2051897655219364
 20
366.27376951140252
 30
0.0
 11
3700.5548171154491683
 21
366.27376951140252
 31
0.0
  0
LINE
  5
D54C
  8
0
 10
3700.7234345787169332
 20
363.9589663618024815
 30
0.0
 11
3700.7021189385832258
 21
363.9589663618024815
 31
0.0
  0
LINE
  5
D54D
  8
0
 10
3699.5878090701748988
 20
363.7589663618023792
 30
0.0
 11
3699.7277983449621388
 21
363.7589663618023792
 31
0.0
  0
LINE
  5
D54E
  8
0
 10
3699.6033440779779085
 20
362.7989663618023997
 30
0.0
 11
3699.7433333527019386
 21
362.7989663618023997
 31
0.0
  0
LINE
  5
D54F
  8
0
 10
3699.5329443013788477
 20
362.1989663618023769
 30
0.0
 11
3699.8262037010890708
 21
362.1989663618023769
 31
0.0
  0
LINE
  5
D550
  8
0
 10
3700.6841218830468279
 20
369.4182763308024846
 30
0.0
 11
3700.6841218830468279
 21
367.4071033697024973
 31
0.0
  0
LINE
  5
D551
  8
0
 10
3700.6546218830480939
 20
369.447776330802526
 30
0.0
 11
3699.9916967924891651
 21
369.447776330802526
 31
0.0
  0
ARC
  5
D552
  8
0
 10
3700.6546218830480939
 20
369.4182763308024846
 30
0.0
 40
0.0295
 50
359.9999999999968168
 51
90.0
  0
ARC
  5
D553
  8
0
 10
3700.1171927491482165
 20
349.0984009992300798
 30
0.0
 40
20.3564708743723983
 50
88.487164127639204
 51
90.3586171488631038
  0
LINE
  5
D554
  8
0
 10
3702.4853029853479711
 20
367.8840057318025174
 30
0.0
 11
3702.4853029853479711
 21
365.6005411650024826
 31
0.0
  0
LINE
  5
D555
  8
0
 10
3702.2051897655219364
 20
366.2737695114071812
 30
0.0
 11
3702.2051897655219364
 21
367.2029380828449234
 31
0.0
  0
ARC
  5
D556
  8
0
 10
3786.9137436540731869
 20
366.9430023675665211
 30
0.0
 40
84.7089527055176177
 50
179.385884499839392
 51
179.8241833675504893
  0
ARC
  5
D557
  8
0
 10
3702.2391550065258343
 20
367.850607939772317
 30
0.0
 40
0.0295
 50
90.9063528514247992
 51
179.3858844998360951
  0
ARC
  5
D558
  8
0
 10
3781.9944928854902173
 20
366.511470649722412
 30
0.0
 40
79.78965718814311
 50
180.1706899444911016
 51
180.6298114968545008
  0
ARC
  5
D559
  8
0
 10
3702.2391543712401472
 20
365.6347419832814012
 30
0.0
 40
0.0295
 50
180.6298114967893014
 51
268.9071767427070085
  0
LINE
  5
D55A
  8
0
 10
3702.4853029853479711
 20
365.6005411650024826
 30
0.0
 11
3702.2385917411161245
 21
365.605247349068577
 31
0.0
  0
LINE
  5
D55B
  8
0
 10
3702.4853029853479711
 20
367.8840057318025174
 30
0.0
 11
3702.2386883701651641
 21
367.8801042488719872
 31
0.0
  0
LINE
  5
D55C
  8
0
 10
3702.2051897655219364
 20
367.2029033697024829
 30
0.0
 11
3702.0738856625480366
 21
367.2029033697024829
 31
0.0
  0
LINE
  5
D55D
  8
0
 10
3701.8061691270481788
 20
367.2029033697024829
 30
0.0
 11
3700.8883218830478654
 21
367.2029033697024829
 31
0.0
  0
ARC
  5
D55E
  8
0
 10
3701.9400273947981077
 20
367.7539786326618128
 30
0.0
 40
0.5670996220160414
 50
256.3470572780998964
 51
283.652942721926081
  0
ARC
  5
D55F
  8
0
 10
3700.8883218830478654
 20
367.4071033697024973
 30
0.0
 40
0.2042
 50
180.0
 51
270.0
  0
LINE
  5
D560
  8
0
 10
3700.7621927491118186
 20
363.708966361699197
 30
0.0
 11
3700.7364358662471204
 21
362.2333555275785102
 31
0.0
  0
LINE
  5
D561
  8
0
 10
3699.4721927491827955
 20
363.7089663616994244
 30
0.0
 11
3699.4979496320488579
 21
362.2333555275785102
 31
0.0
  0
LINE
  5
D562
  8
0
 10
3700.7621927491118186
 20
363.708966361699197
 30
0.0
 11
3700.758429248046923
 21
363.9245771960199818
 31
0.0
  0
LINE
  5
D563
  8
0
 10
3699.4721927491827955
 20
363.7089663616994244
 30
0.0
 11
3699.4759562502481458
 21
363.9245771960199818
 31
0.0
  0
ARC
  5
D564
  8
0
 10
3700.7234345787169332
 20
363.9239663618023997
 30
0.0
 40
0.035
 50
0.9999999873924458
 51
90.0
  0
ARC
  5
D565
  8
0
 10
3699.5109509195790451
 20
363.9239663618023997
 30
0.0
 40
0.035
 50
90.0
 51
179.0000000126107977
  0
ARC
  5
D566
  8
0
 10
3699.5329443013788477
 20
362.2339663618025156
 30
0.0
 40
0.035
 50
180.9999999979202983
 51
270.0
  0
ARC
  5
D567
  8
0
 10
3700.7014411969171306
 20
362.2339663618025156
 30
0.0
 40
0.035
 50
270.0
 51
359.0000000020764901
  0
LINE
  5
D568
  8
0
 10
3699.552814400844909
 20
363.7233555275764161
 30
0.0
 11
3699.5683494086479186
 21
362.8333555275764866
 31
0.0
  0
LINE
  5
D569
  8
0
 10
3699.7627930142921286
 20
363.7245771960259049
 30
0.0
 11
3699.7783280220319284
 21
362.8345771960259185
 31
0.0
  0
ARC
  5
D56A
  8
0
 10
3699.5878090701748988
 20
363.723966361802411
 30
0.0
 40
0.035
 50
90.0
 51
181.0000000011092993
  0
ARC
  5
D56B
  8
0
 10
3699.7277983449621388
 20
363.723966361802411
 30
0.0
 40
0.035
 50
0.9999999969952167
 51
90.0
  0
ARC
  5
D56C
  8
0
 10
3699.6033440779779085
 20
362.8339663618024815
 30
0.0
 40
0.035
 50
181.000000001122288
 51
270.0
  0
ARC
  5
D56D
  8
0
 10
3699.7433333527019386
 20
362.8339663618024815
 30
0.0
 40
0.035
 50
270.0
 51
0.9999999970017295
  0
LINE
  5
D56E
  8
0
 10
3700.420986400944912
 20
362.4597537634024889
 30
0.0
 11
3699.8133990973501568
 21
362.4597537634024889
 31
0.0
  0
LINE
  5
D56F
  8
0
 10
3700.5134472913478021
 20
362.7989663618023997
 30
0.0
 11
3700.4995785453302233
 21
362.5343349236416088
 31
0.0
  0
LINE
  5
D570
  8
0
 10
3699.720938206946812
 20
362.7989663618023997
 30
0.0
 11
3699.7348069529662098
 21
362.5343349236416088
 31
0.0
  0
LINE
  5
D571
  8
0
 10
3699.5281014924407827
 20
362.7645771960025058
 30
0.0
 11
3699.7227404667610244
 21
362.7645771960025058
 31
0.0
  0
LINE
  5
D572
  8
0
 10
3699.5112704967827995
 20
363.7933555276025004
 30
0.0
 11
3699.5281014924407827
 21
362.7645771960025058
 31
0.0
  0
LINE
  5
D573
  8
0
 10
3699.5112704967827995
 20
363.7933555276025004
 30
0.0
 11
3699.6688244790329918
 21
363.7933555276025004
 31
0.0
  0
LINE
  5
D574
  8
0
 10
3699.6706267388481137
 20
363.7589663618023792
 30
0.0
 11
3699.664436843646854
 21
363.8770765980024748
 31
0.0
  0
LINE
  5
D575
  8
0
 10
3699.5628453044550952
 20
363.7484981860527
 30
0.0
 11
3699.5112704967827995
 21
363.7933555276025004
 31
0.0
  0
LINE
  5
D576
  8
0
 10
3699.5281014938482258
 20
362.7645771959024046
 30
0.0
 11
3699.5832169735990647
 21
362.805332471558188
 31
0.0
  0
LINE
  5
D577
  8
0
 10
3700.64657642812017
 20
363.7589663618023792
 30
0.0
 11
3700.50658715333293
 21
363.7589663618023792
 31
0.0
  0
LINE
  5
D578
  8
0
 10
3700.6310414203171604
 20
362.7989663618023997
 30
0.0
 11
3700.4910521455940398
 21
362.7989663618023997
 31
0.0
  0
LINE
  5
D579
  8
0
 10
3700.6815710974510694
 20
363.7233555275764161
 30
0.0
 11
3700.6660360896480597
 21
362.8333555275764866
 31
0.0
  0
LINE
  5
D57A
  8
0
 10
3700.4715924840029402
 20
363.7245771960259049
 30
0.0
 11
3700.4560574762640499
 21
362.8345771960259185
 31
0.0
  0
ARC
  5
D57B
  8
0
 10
3700.64657642812017
 20
363.723966361802411
 30
0.0
 40
0.035
 50
358.9999999988907007
 51
90.0
  0
ARC
  5
D57C
  8
0
 10
3700.50658715333293
 20
363.723966361802411
 30
0.0
 40
0.035
 50
90.0
 51
179.0000000030048
  0
ARC
  5
D57D
  8
0
 10
3700.6310414203171604
 20
362.8339663618024815
 30
0.0
 40
0.035
 50
270.0
 51
358.9999999988776835
  0
ARC
  5
D57E
  8
0
 10
3700.4910521455940398
 20
362.8339663618024815
 30
0.0
 40
0.035
 50
179.0000000029982914
 51
270.0
  0
LINE
  5
D57F
  8
0
 10
3700.7062840058551956
 20
362.7645771960025058
 30
0.0
 11
3700.5116450315349539
 21
362.7645771960025058
 31
0.0
  0
LINE
  5
D580
  8
0
 10
3700.7231150015118146
 20
363.7933555276025004
 30
0.0
 11
3700.7062840058551956
 21
362.7645771960025058
 31
0.0
  0
LINE
  5
D581
  8
0
 10
3700.7231150015118146
 20
363.7933555276025004
 30
0.0
 11
3700.5655610192611675
 21
363.7933555276025004
 31
0.0
  0
LINE
  5
D582
  8
0
 10
3700.5637587594478646
 20
363.7589663618023792
 30
0.0
 11
3700.5699486546482149
 21
363.8770765980024748
 31
0.0
  0
LINE
  5
D583
  8
0
 10
3700.6715401938408831
 20
363.7484981860527
 30
0.0
 11
3700.7231150015118146
 21
363.7933555276025004
 31
0.0
  0
LINE
  5
D584
  8
0
 10
3700.7062840044482073
 20
362.7645771959024046
 30
0.0
 11
3700.6511685246960042
 21
362.805332471558188
 31
0.0
  0
ARC
  5
D585
  8
0
 10
3700.420986400944912
 20
362.5384537634025151
 30
0.0
 40
0.0787
 50
270.0
 51
356.9999999966681798
  0
ARC
  5
D586
  8
0
 10
3699.8133990973501568
 20
362.5384537634025151
 30
0.0
 40
0.0787
 50
183.0000000033317065
 51
270.0
  0
LINE
  5
D587
  8
0
 10
3702.2392124341467934
 20
347.5926671492023843
 30
0.0
 11
3702.4853029853479711
 21
347.5926671492023843
 31
0.0
  0
LINE
  5
D588
  8
0
 10
3702.2392124341467934
 20
345.3092025823024755
 30
0.0
 11
3702.4853029853479711
 21
345.3092025823024755
 31
0.0
  0
LINE
  5
D589
  8
0
 10
3702.2097124341480594
 20
345.6943435709025039
 30
0.0
 11
3700.1919683396467917
 21
345.6943435709025039
 31
0.0
  0
LINE
  5
D58A
  8
0
 10
3702.2097124341480594
 20
347.2075261605024821
 30
0.0
 11
3700.1919683396467917
 21
347.2075261605024821
 31
0.0
  0
LINE
  5
D58B
  8
0
 10
3702.4853029853479711
 20
347.5926671492023843
 30
0.0
 11
3702.4853029853479711
 21
345.3092025823024755
 31
0.0
  0
LINE
  5
D58C
  8
0
 10
3702.2097124341480594
 20
345.3387025823025169
 30
0.0
 11
3702.2097124341480594
 21
347.5631671492025134
 31
0.0
  0
ARC
  5
D58D
  8
0
 10
3702.2392124341467934
 20
345.3387025823025169
 30
0.0
 40
0.0295
 50
180.0
 51
270.0
  0
ARC
  5
D58E
  8
0
 10
3702.2392124341467934
 20
347.5631671492025134
 30
0.0
 40
0.0295
 50
90.0000000000260485
 51
179.9999999999967031
  0
LINE
  5
D58F
  8
0
 10
3700.1624683396480577
 20
345.7238435709024884
 30
0.0
 11
3700.1624683396480577
 21
347.1780261605024975
 31
0.0
  0
ARC
  5
D590
  8
0
 10
3700.1919683396467917
 20
345.7238435709024884
 30
0.0
 40
0.0295
 50
179.9999999999967031
 51
270.0
  0
ARC
  5
D591
  8
0
 10
3700.1919683396467917
 20
347.1780261605024975
 30
0.0
 40
0.0295
 50
90.0
 51
179.9999999999967031
  0
LINE
  5
D592
  8
0
 10
3701.0764965574940106
 20
344.2770207363025179
 30
0.0
 11
3700.4689092538001205
 21
344.2770207363025179
 31
0.0
  0
LINE
  5
D593
  8
0
 10
3700.3903171094148092
 20
344.3516018965452758
 30
0.0
 11
3700.3199470000968176
 21
345.6943435709025039
 31
0.0
  0
LINE
  5
D594
  8
0
 10
3701.1550887018797766
 20
344.3516018965452758
 30
0.0
 11
3701.2254588111968587
 21
345.6943435709025039
 31
0.0
  0
ARC
  5
D595
  8
0
 10
3701.0764965574940106
 20
344.3557207363023736
 30
0.0
 40
0.0787
 50
270.0
 51
356.9999999994101927
  0
ARC
  5
D596
  8
0
 10
3700.4689092538001205
 20
344.3557207363023736
 30
0.0
 40
0.0787
 50
183.0000000005896936
 51
270.0
  0
LINE
  5
D597
  8
0
 10
3702.2051897655219364
 20
342.0532970704024933
 30
0.0
 11
3701.0241620512351801
 21
342.0532970704024933
 31
0.0
  0
LINE
  5
D598
  8
0
 10
3702.4853029853479711
 20
343.6556592751024937
 30
0.0
 11
3702.4853029853479711
 21
341.3721947083025157
 31
0.0
  0
LINE
  5
D599
  8
0
 10
3702.2051897655219364
 20
342.0454230547072143
 30
0.0
 11
3702.2051897655219364
 21
342.9745916261448997
 31
0.0
  0
ARC
  5
D59A
  8
0
 10
3786.9137436540731869
 20
342.7146559108666111
 30
0.0
 40
84.7089527055176177
 50
179.385884499839392
 51
179.8241833675504893
  0
ARC
  5
D59B
  8
0
 10
3702.2391550065258343
 20
343.6222614830722932
 30
0.0
 40
0.0295
 50
90.9063528514247992
 51
179.3858844998360951
  0
ARC
  5
D59C
  8
0
 10
3781.9944928854902173
 20
342.2831241930223882
 30
0.0
 40
79.78965718814311
 50
180.1706899444911016
 51
180.6298114968545008
  0
ARC
  5
D59D
  8
0
 10
3702.2391543712401472
 20
341.4063955265813775
 30
0.0
 40
0.0295
 50
180.6298114967893014
 51
268.9071767427070085
  0
LINE
  5
D59E
  8
0
 10
3702.4853029853479711
 20
341.3721947083025157
 30
0.0
 11
3702.2385917411161245
 21
341.3769008923686101
 31
0.0
  0
LINE
  5
D59F
  8
0
 10
3702.4853029853479711
 20
343.6556592751024937
 30
0.0
 11
3702.2386883701651641
 21
343.6517577921720203
 31
0.0
  0
LINE
  5
D5A0
  8
0
 10
3702.2052141838621537
 20
342.9824309287023993
 30
0.0
 11
3701.053655398518913
 21
342.9824309287023993
 31
0.0
  0
LINE
  5
D5A1
  8
0
 10
3699.5502636152468767
 20
339.8379241093024916
 30
0.0
 11
3699.5502636152468767
 21
342.9529309287024716
 31
0.0
  0
LINE
  5
D5A2
  8
0
 10
3700.6841218830468279
 20
339.8379241093024916
 30
0.0
 11
3700.6841218830468279
 21
341.1038648906351796
 31
0.0
  0
LINE
  5
D5A3
  8
0
 10
3700.6546218830480939
 20
339.8084241093023934
 30
0.0
 11
3699.579763615246975
 21
339.8084241093023934
 31
0.0
  0
ARC
  5
D5A4
  8
0
 10
3700.6546218830480939
 20
339.8379241093024916
 30
0.0
 40
0.0295
 50
270.0
 51
0.0000000000032569
  0
ARC
  5
D5A5
  8
0
 10
3699.579763615246975
 20
339.8379241093024916
 30
0.0
 40
0.0295
 50
180.0
 51
270.0
  0
ARC
  5
D5A6
  8
0
 10
3700.1171927491482165
 20
360.1577994408747827
 30
0.0
 40
20.3564708743723983
 50
268.4871641276391756
 51
271.5128358723608244
  0
ARC
  5
D5A7
  8
0
 10
3644.8539587359809957
 20
344.0672315002643131
 30
0.0
 40
56.2101654262059682
 50
358.3200484937896135
 51
0.2138414933842326
  0
ARC
  5
D5A8
  8
0
 10
3690.8513865255968085
 20
342.6758066098565223
 30
0.0
 40
10.1918045517824805
 50
353.979639776055194
 51
358.5580963952219804
  0
ARC
  5
D5A9
  8
0
 10
3699.9975181552299546
 20
341.6763232241108881
 30
0.0
 40
0.9918964268993116
 50
337.4145620789608984
 51
355.9848944716795813
  0
ARC
  5
D5AA
  8
0
 10
3700.6143649908890438
 20
341.4197385895952266
 30
0.0
 40
0.3238128293359874
 50
293.9148060337802235
 51
337.4145620789608984
  0
ARC
  5
D5AB
  8
0
 10
3700.6155568678359487
 20
341.4213978389266799
 30
0.0
 40
0.324851249900201
 50
270.9189654739381012
 51
293.603999906053275
  0
ARC
  5
D5AC
  8
0
 10
3700.6227599018297951
 20
341.4073033879275272
 30
0.0
 40
0.310721407595868
 50
213.3523396098806018
 51
269.6325005485268775
  0
ARC
  5
D5AD
  8
0
 10
3701.1747272692000479
 20
341.6653038102932101
 30
0.0
 40
0.9178517550120654
 50
183.6673642028655991
 51
207.8534291881447871
  0
ARC
  5
D5AE
  8
0
 10
3711.6993112363711589
 20
342.9078772212325248
 30
0.0
 40
11.5143242123678
 50
182.442312922590304
 51
186.4891035357231033
  0
ARC
  5
D5AF
  8
0
 10
3756.4989483020249281
 20
345.0995541669850013
 30
0.0
 40
56.3673602667226774
 50
181.1987392955122118
 51
182.7275531265030963
  0
ARC
  5
D5B0
  8
0
 10
3967.3264320530502118
 20
349.7908219658277176
 30
0.0
 40
267.2469927698780907
 50
180.7731990409278922
 51
181.2586923367443035
  0
ARC
  5
D5B1
  8
0
 10
3045.6015125285980503
 20
337.3515097651925885
 30
0.0
 40
654.5618614728996363
 50
0.7731990409311466
 51
1.06526930350027
  0
ARC
  5
D5B2
  8
0
 10
2823.9876218990120833
 20
333.2306882460936208
 30
0.0
 40
876.2140613040187418
 50
1.06526930350027
 51
1.555529028737068
  0
ARC
  5
D5B3
  8
0
 10
4007.0879980135209735
 20
362.7246537860416993
 30
0.0
 40
307.2622440056102846
 50
180.0493964210265005
 51
181.064529055860703
  0
ARC
  5
D5B4
  8
0
 10
4061.5864565052370381
 20
363.2036073744317264
 30
0.0
 40
361.1788186280185187
 50
180.1180016668155019
 51
181.4632245175268963
  0
ARC
  5
D5B5
  8
0
 10
2695.6038503681511429
 20
328.3114409359943124
 30
0.0
 40
1005.2493512908509956
 50
1.0770757525104691
 51
1.4632245175269121
  0
ARC
  5
D5B6
  8
0
 10
3670.273022730204957
 20
343.7339691383522791
 30
0.0
 40
30.2113429414266008
 50
357.7639416385474078
 51
1.0299522422293921
  0
ARC
  5
D5B7
  8
0
 10
3683.3209279213360787
 20
343.2244953320794139
 30
0.0
 40
17.1534949779980401
 50
354.5722860104783081
 51
357.7639416385474078
  0
ARC
  5
D5B8
  8
0
 10
3700.1435822998178082
 20
341.6260760895248154
 30
0.0
 40
0.2550736193967769
 50
305.2698771521501158
 51
354.5722860104783081
  0
LINE
  5
D5B9
  8
0
 10
3699.6250667648478156
 20
342.9824309287023993
 30
0.0
 11
3699.6250667648478156
 21
362.1989663618023769
 31
0.0
  0
LINE
  5
D5BA
  8
0
 10
3699.579763615246975
 20
342.9824309287023993
 30
0.0
 11
3700.171360987881144
 21
342.9824309287023993
 31
0.0
  0
ARC
  5
D5BB
  8
0
 10
3699.579763615246975
 20
342.9529309287024716
 30
0.0
 40
0.0295
 50
90.0
 51
179.9999999999934914
  0
LINE
  5
D5BC
  8
0
 10
3700.6093187333481183
 20
350.4534107383634023
 30
0.0
 11
3700.6093187333481183
 21
362.1989663618023769
 31
0.0
  0
LINE
  5
D5BD
  8
0
 10
3699.5782324156939467
 20
363.8770765980024748
 30
0.0
 11
3700.6657707509862121
 21
363.8770765980024748
 31
0.0
  0
ARC
  5
D5BE
  8
0
 10
3654.2983702444980736
 20
365.4237603409716257
 30
0.0
 40
45.2670925132484001
 50
358.0915364235659126
 51
359.3554454767473771
  0
ARC
  5
D5BF
  8
0
 10
3699.5782324156939467
 20
363.9149765980023972
 30
0.0
 40
0.0379
 50
178.0915364235723928
 51
270.0
  0
ARC
  5
D5C0
  8
0
 10
3657.5088151703121184
 20
365.3876426004811151
 30
0.0
 40
42.0564444302504086
 50
359.3554454767473771
 51
2.1403945442904169
  0
ARC
  5
D5C1
  8
0
 10
3682.4137486345762227
 20
366.3184475408490925
 30
0.0
 40
17.1341229353250384
 50
2.1403945442904169
 51
6.7530579383051874
  0
ARC
  5
D5C2
  8
0
 10
3694.633176752205145
 20
367.7653734700051018
 30
0.0
 40
4.8293263841264302
 50
6.7530579383051874
 51
17.7940529833389789
  0
ARC
  5
D5C3
  8
0
 10
3698.7315429376030806
 20
369.080745674468119
 30
0.0
 40
0.5250483464202979
 50
17.7940529833389789
 51
49.4517797036096169
  0
ARC
  5
D5C4
  8
0
 10
3698.7938404835781512
 20
369.0078766323634909
 30
0.0
 40
0.5481632832409969
 50
59.4009528615345701
 51
81.9984822027125091
  0
ARC
  5
D5C5
  8
0
 10
3651.5107969588088963
 20
362.1751175160378011
 30
0.0
 40
49.2236556426113196
 50
2.027159729856816
 51
3.0301079802384772
  0
ARC
  5
D5C6
  8
0
 10
3671.1554863316478077
 20
363.3445473332681104
 30
0.0
 40
29.5448979200183999
 50
2.7792371724627429
 51
7.5807601394223028
  0
ARC
  5
D5C7
  8
0
 10
3683.1561978772688235
 20
364.8990667826410004
 30
0.0
 40
17.4440472930691506
 50
7.7195109586523332
 51
12.8132177854674492
  0
ARC
  5
D5C8
  8
0
 10
3687.7631096646491642
 20
365.953850356006626
 30
0.0
 40
12.7179346538861306
 50
12.7824620288142299
 51
24.1075658576036815
  0
ARC
  5
D5C9
  8
0
 10
3691.2915244054161121
 20
367.6373223850832801
 30
0.0
 40
8.8101686703912581
 50
23.4867713239923894
 51
33.2779551460809415
  0
ARC
  5
D5CA
  8
0
 10
3695.2700507753138481
 20
370.3223425135047933
 30
0.0
 40
4.011247734693411
 50
32.3965479320304794
 51
47.0065499076673774
  0
ARC
  5
D5CB
  8
0
 10
3696.5054102123949633
 20
371.6134117359699189
 30
0.0
 40
2.2246297951528589
 50
47.6036141008416394
 51
62.4930565341352491
  0
ARC
  5
D5CC
  8
0
 10
3696.8794912754128745
 20
372.2952175873468832
 30
0.0
 40
1.4472257946995919
 50
63.1620183792788765
 51
72.4785714596606141
  0
ARC
  5
D5CD
  8
0
 10
3697.7387165720938356
 20
372.9690607762138939
 30
0.0
 40
0.8450000001698263
 50
124.2307357470843954
 51
157.155573126038405
  0
ARC
  5
D5CE
  8
0
 10
3697.2971328958028607
 20
373.6180822374143986
 30
0.0
 40
0.06
 50
72.4785714596606141
 51
124.2307357470843954
  0
LINE
  5
D5CF
  8
0
 10
3696.9604760738811819
 20
373.2838924951232116
 30
0.0
 11
3698.8583410744549838
 21
369.5591227070146942
 31
0.0
  0
ARC
  5
D5D0
  8
0
 10
3696.9744648763107762
 20
373.2910201459691848
 30
0.0
 40
0.0157
 50
157.1555731264020892
 51
207.0000000002114859
  0
ARC
  5
D5D1
  8
0
 10
3698.8723298768850327
 20
369.5662503578607243
 30
0.0
 40
0.0157
 50
207.0000000002638956
 51
261.998482202791422
  0
LINE
  5
D5D2
  8
0
 10
3697.7102292143881641
 20
371.3828748538944069
 30
0.0
 11
3697.7511610661208579
 21
371.4046387055361151
 31
0.0
  0
LINE
  5
D5D3
  8
0
 10
3697.7617677095108775
 20
371.283475262295724
 30
0.0
 11
3697.8027451338562059
 21
371.3034612875129028
 31
0.0
  0
ARC
  5
D5D4
  8
0
 10
3698.2151302304851015
 20
371.5827924814984158
 30
0.0
 40
0.5539246236167675
 50
202.8729522842994015
 51
212.164556781589198
  0
ARC
  5
D5D5
  8
0
 10
3697.7159098203019312
 20
371.3721911880230095
 30
0.0
 40
0.0121
 50
118.0000000217054037
 51
202.8729522842666029
  0
ARC
  5
D5D6
  8
0
 10
3697.7564634186419426
 20
371.2943506702591208
 30
0.0
 40
0.0121
 50
212.1645567816358948
 51
295.9999999649172082
  0
ARC
  5
D5D7
  8
0
 10
3698.0493475297998884
 20
371.4944066726649794
 30
0.0
 40
0.3164121593287283
 50
199.00112643451331
 51
215.5306505701227024
  0
ARC
  5
D5D8
  8
0
 10
3698.1271750233540843
 20
371.5358946911176758
 30
0.0
 40
0.3495607194484637
 50
196.5299033485052007
 51
218.526153948290613
  0
ARC
  5
D5D9
  8
0
 10
3697.5696545460600646
 20
371.2483613670236196
 30
0.0
 40
0.2395145577148438
 50
8.2639260707911326
 51
13.7947610062009307
  0
ARC
  5
D5DA
  8
0
 10
3697.5696545460600646
 20
371.2483613670236196
 30
0.0
 40
0.2395145577148438
 50
40.2687484847759833
 51
45.751882788933159
  0
ARC
  5
D5DB
  8
0
 10
3698.0095009921969904
 20
371.4725507646884921
 30
0.0
 40
0.2777509323950271
 50
190.9205306676225007
 51
195.2454439750370057
  0
ARC
  5
D5DC
  8
0
 10
3698.0095009921969904
 20
371.4725507646884921
 30
0.0
 40
0.2777509323950271
 50
218.7588607905408082
 51
223.0952781921124881
  0
ARC
  5
D5DD
  8
0
 10
3697.5074593666809051
 20
371.2167126468326046
 30
0.0
 40
0.4239433488915637
 50
13.4444134916119094
 51
40.5680460503489897
  0
ARC
  5
D5DE
  8
0
 10
4129.6342124797347424
 20
591.451551349452302
 30
0.0
 40
484.6001700167009858
 50
206.9940630869747054
 51
206.99652192382419
  0
ARC
  5
D5DF
  8
0
 10
4129.6342124797347424
 20
591.451551349452302
 30
0.0
 40
484.6001700167009858
 50
207.0151161278529059
 51
207.0175700340552964
  0
ARC
  5
D5E0
  8
0
 10
3697.8122901631668356
 20
371.4384324160158144
 30
0.0
 40
0.029639810475136
 50
169.1729037145202028
 51
212.1992058028193071
  0
ARC
  5
D5E1
  8
0
 10
3697.7806010097128819
 20
371.4296298092206143
 30
0.0
 40
0.0147703080299756
 50
42.3727196013764171
 51
78.9984268207385441
  0
ARC
  5
D5E2
  8
0
 10
3697.8654222873310573
 20
371.331568077695124
 30
0.0
 40
0.0284757613305153
 50
199.4579850893177877
 51
243.8880009733678946
  0
ARC
  5
D5E3
  8
0
 10
3697.8355056235859593
 20
371.314517324888584
 30
0.0
 40
0.0193587316411068
 50
333.8934819233404028
 51
7.5046791225742941
  0
LINE
  5
D5E4
  8
0
 10
3697.9143562103131444
 20
371.3357207209779745
 30
0.0
 11
3697.8705509048008935
 21
371.3143554459331881
 31
0.0
  0
LINE
  5
D5E5
  8
0
 10
3697.8428806765127774
 20
371.4759818273773249
 30
0.0
 11
3697.7988121257571947
 21
371.4525501632301143
 31
0.0
  0
ARC
  5
D5E6
  8
0
 10
3697.8645013829768686
 20
371.326758803772691
 30
0.0
 40
0.0138
 50
218.5261539483300055
 51
295.9999999944849947
  0
ARC
  5
D5E7
  8
0
 10
3697.8052908333402229
 20
371.4403654864569262
 30
0.0
 40
0.0138
 50
118.0000000720740019
 51
196.529903348502188
  0
LINE
  5
D5E8
  8
0
 10
3697.7559360723348618
 20
371.4060103336498173
 30
0.0
 11
3697.795068369980072
 21
371.4268173453208988
 31
0.0
  0
LINE
  5
D5E9
  8
0
 10
3697.8070011390491345
 20
371.306683787456393
 30
0.0
 11
3697.8473667212338114
 21
371.3263713973145173
 31
0.0
  0
ARC
  5
D5EA
  8
0
 10
3697.8016968481801996
 20
371.3175591954199035
 30
0.0
 40
0.0121
 50
215.5306505699423951
 51
295.999999965352913
  0
ARC
  5
D5EB
  8
0
 10
3697.7616166782308937
 20
371.3953266677684155
 30
0.0
 40
0.0121
 50
117.9999999209295964
 51
199.0011264347176052
  0
ARC
  5
D5EC
  8
0
 10
3697.9117511929639477
 20
371.4229327896521227
 30
0.0
 40
0.1013280463635044
 50
193.6456995439411912
 51
220.5790659205327131
  0
ARC
  5
D5ED
  8
0
 10
3697.7436842971201258
 20
371.3368827747988234
 30
0.0
 40
0.0933060668365767
 50
12.4630945113024403
 51
41.7616709531770809
  0
ARC
  5
D5EE
  8
0
 10
3697.8594936605140902
 20
371.3962797002424168
 30
0.0
 40
0.1013280463635044
 50
193.6456995439411912
 51
220.5790659205327131
  0
ARC
  5
D5EF
  8
0
 10
3697.5737766097959138
 20
371.2499929711714799
 30
0.0
 40
0.2236951781851292
 50
21.0570717010421014
 51
33.1676937634268683
  0
ARC
  5
D5F0
  8
0
 10
3698.0406109558398384
 20
371.4890564211837045
 30
0.0
 40
0.355055235315031
 50
203.2862889704472877
 51
210.9081982071986943
  0
ARC
  5
D5F1
  8
0
 10
3697.5697110170572159
 20
371.2481133339828148
 30
0.0
 40
0.1762781563799143
 50
19.4038713966458012
 51
34.7906157809920131
  0
LINE
  5
D5F2
  8
0
 10
3697.6032238118441455
 20
371.5291279767603214
 30
0.0
 11
3697.6610739548268612
 21
371.4183592259411739
 31
0.0
  0
LINE
  5
D5F3
  8
0
 10
3697.6772926223611648
 20
371.4131794905989068
 30
0.0
 11
3697.7175560052019136
 21
371.4336947088198144
 31
0.0
  0
LINE
  5
D5F4
  8
0
 10
3697.6084559092878408
 20
371.5455105993057145
 30
0.0
 11
3697.6515777384188368
 21
371.5674822686751213
 31
0.0
  0
ARC
  5
D5F5
  8
0
 10
3697.6139491943340545
 20
371.5347294203627939
 30
0.0
 40
0.0121
 50
116.9999999978370937
 51
207.5762870586827944
  0
ARC
  5
D5F6
  8
0
 10
3697.6717993373190438
 20
371.4239606695437033
 30
0.0
 40
0.0121
 50
207.5762870586420945
 51
296.9999999782125997
  0
ARC
  5
D5F7
  8
0
 10
3697.3372328153791386
 20
371.329298280131411
 30
0.0
 40
0.3943911041587889
 50
11.7954384321450796
 51
39.3520346089032671
  0
ARC
  5
D5F8
  8
0
 10
3698.0466822945741114
 20
371.6688097526815113
 30
0.0
 40
0.4142502225190389
 50
192.4680503214775911
 51
194.5807242022002868
  0
ARC
  5
D5F9
  8
0
 10
3698.0466822945741114
 20
371.6688097526815113
 30
0.0
 40
0.4142502225190389
 50
215.3376352545352859
 51
218.6794227195806002
  0
ARC
  5
D5FA
  8
0
 10
3697.8683786828819393
 20
371.7836190588279237
 30
0.0
 40
0.3164121593287283
 50
199.00112643451331
 51
215.5306505701227024
  0
LINE
  5
D5FB
  8
0
 10
3697.5749672254169127
 20
371.6952227198127048
 30
0.0
 11
3697.6176324379562175
 21
371.7179082156482082
 31
0.0
  0
LINE
  5
D5FC
  8
0
 10
3697.6260322921298211
 20
371.5958961736192805
 30
0.0
 11
3697.6658067102757741
 21
371.6152954535103277
 31
0.0
  0
ARC
  5
D5FD
  8
0
 10
3697.6207280012599767
 20
371.6067715815826773
 30
0.0
 40
0.0121
 50
215.5306505699423951
 51
295.999999965352913
  0
ARC
  5
D5FE
  8
0
 10
3697.5806478313120351
 20
371.684539053931303
 30
0.0
 40
0.0121
 50
117.9999999209295964
 51
199.0011264347176052
  0
ARC
  5
D5FF
  8
0
 10
3697.6785248135947768
 20
371.6854920864053042
 30
0.0
 40
0.1013280463635044
 50
193.6456995439411912
 51
220.5790659205327131
  0
ARC
  5
D600
  8
0
 10
3697.3928077628770552
 20
371.5392053573344242
 30
0.0
 40
0.2236951781851292
 50
21.0570717010421014
 51
33.1676937634268683
  0
ARC
  5
D601
  8
0
 10
3697.36997258439078
 20
371.5390230304200259
 30
0.0
 40
0.3055082855870541
 50
9.7719276893641513
 51
40.4743019038383665
  0
ARC
  5
D602
  8
0
 10
3698.144659158606828
 20
371.902293921277078
 30
0.0
 40
0.5668230796661151
 50
196.9197178564978969
 51
199.4142038797421037
  0
ARC
  5
D603
  8
0
 10
3698.144659158606828
 20
371.902293921277078
 30
0.0
 40
0.5668230796661151
 50
210.8615639572292082
 51
213.3265117367018888
  0
LINE
  5
D604
  8
0
 10
3697.4079199978641554
 20
371.9186145538997152
 30
0.0
 11
3697.5343357283391015
 21
371.6663888470359893
 31
0.0
  0
LINE
  5
D605
  8
0
 10
3697.5506463815449933
 20
371.6610293418578976
 30
0.0
 11
3697.5722869908749999
 21
371.6720557830809071
 31
0.0
  0
LINE
  5
D606
  8
0
 10
3697.4132440809680702
 20
371.9348174066033152
 30
0.0
 11
3697.454362456851868
 21
371.9557682655405983
 31
0.0
  0
LINE
  5
D607
  8
0
 10
3697.4706462762410411
 20
371.8202880736920974
 30
0.0
 11
3697.5185467837291071
 21
371.844694601326978
 31
0.0
  0
ARC
  5
D608
  8
0
 10
3697.4761395612931665
 20
371.8095068947519053
 30
0.0
 40
0.0121
 50
117.0000000251191068
 51
206.6200661548506048
  0
ARC
  5
D609
  8
0
 10
3697.5451530964878657
 20
371.6718105207950771
 30
0.0
 40
0.0121
 50
206.6200661549088977
 51
297.0000000570508973
  0
ARC
  5
D60A
  8
0
 10
3697.4187373660129197
 20
371.9240362276586893
 30
0.0
 40
0.0121
 50
116.9999999806424995
 51
206.6200661548855919
  0
ARC
  5
D60B
  8
0
 10
3697.0801906974770645
 20
371.5752161441029102
 30
0.0
 40
0.5216799609154545
 50
15.7945107479638605
 51
32.7937991485680129
  0
ARC
  5
D60C
  8
0
 10
3697.7876000679680146
 20
371.8945368472108726
 30
0.0
 40
0.2713746361593393
 50
187.7872310894848908
 51
192.347086039612293
  0
ARC
  5
D60D
  8
0
 10
3697.7876000679680146
 20
371.8945368472108726
 30
0.0
 40
0.2713746361593393
 50
216.4513828807652089
 51
220.8010788070596107
  0
LINE
  5
D60E
  8
0
 10
3697.4892133438861492
 20
371.8188078838405772
 30
0.0
 11
3697.5295334513621128
 21
371.8402464652953086
 31
0.0
  0
LINE
  5
D60F
  8
0
 10
3697.5384868016649307
 20
371.7182653896883835
 30
0.0
 11
3697.5762529296521279
 21
371.7366851610390768
 31
0.0
  0
ARC
  5
D610
  8
0
 10
3698.2674908734738892
 20
372.1338815355854877
 30
0.0
 40
0.8505651671059704
 50
202.8622057578288889
 51
208.8629535515892997
  0
ARC
  5
D611
  8
0
 10
3697.5331825107909935
 20
371.729140797650075
 30
0.0
 40
0.0121
 50
208.8629535516701878
 51
295.9999999844284844
  0
ARC
  5
D612
  8
0
 10
3697.4948939498008258
 20
371.8081242179695778
 30
0.0
 40
0.0121
 50
118.0000000263660951
 51
202.8622057577649969
  0
ARC
  5
D613
  8
0
 10
3697.6461744356670351
 20
371.8820327741672145
 30
0.0
 40
0.1397965557440759
 50
185.329586217217809
 51
196.8280701271334863
  0
ARC
  5
D614
  8
0
 10
3697.0942572194071545
 20
371.6581357107306758
 30
0.0
 40
0.4634931003293164
 50
22.6078217413028888
 51
27.0680903902220393
  0
ARC
  5
D615
  8
0
 10
3697.8705448376149434
 20
371.9842111093706762
 30
0.0
 40
0.3495607194484637
 50
196.5299033485052007
 51
218.526153948290613
  0
ARC
  5
D616
  8
0
 10
3697.2508291809408547
 20
371.6650290650854913
 30
0.0
 40
0.4239433488915637
 50
13.4444134916119094
 51
40.5680460503489897
  0
ARC
  5
D617
  8
0
 10
3697.60768528134804
 20
371.9313944586938874
 30
0.0
 40
0.036041995030799
 50
164.9778677445420101
 51
201.95200275258739
  0
ARC
  5
D618
  8
0
 10
3697.6667547024107989
 20
371.7867515570330283
 30
0.0
 40
0.0234330356288299
 50
202.2852462355797059
 51
261.1628420361652729
  0
LINE
  5
D619
  8
0
 10
3697.657726024573094
 20
371.7840371392309748
 30
0.0
 11
3697.6139207190622074
 21
371.7626718641863022
 31
0.0
  0
LINE
  5
D61A
  8
0
 10
3697.5862504907731818
 20
371.9242982456303253
 30
0.0
 11
3697.5421819400180539
 21
371.9008665814832284
 31
0.0
  0
ARC
  5
D61B
  8
0
 10
3697.6078711972368183
 20
371.775075222025805
 30
0.0
 40
0.0138
 50
218.5261539483300055
 51
295.9999999944849947
  0
ARC
  5
D61C
  8
0
 10
3697.5486606476001725
 20
371.8886819047099266
 30
0.0
 40
0.0138
 50
118.0000000720740019
 51
196.529903348502188
  0
ARC
  5
D61D
  8
0
 10
3697.6551210072248068
 20
371.8712492079050094
 30
0.0
 40
0.1013280463635044
 50
193.6456995439411912
 51
220.5790659205327131
  0
ARC
  5
D61E
  8
0
 10
3697.487054111380985
 20
371.7851991930518238
 30
0.0
 40
0.0933060668365767
 50
12.4630945113024403
 51
41.7616709531770809
  0
ARC
  5
D61F
  8
0
 10
3706.8435571374011488
 20
376.0490754608388784
 30
0.0
 40
10.24266276630817
 50
203.2659221972361081
 51
204.2728963030536136
  0
ARC
  5
D620
  8
0
 10
3708.7115898698339151
 20
376.9255259875241109
 30
0.0
 40
12.3062420696088104
 50
205.6695776790267018
 51
205.8495203560732989
  0
ARC
  5
D621
  8
0
 10
3708.7115898710740112
 20
376.9255259881148845
 30
0.0
 40
12.3062420709818792
 50
206.5440523452195976
 51
206.7383751031397878
  0
ARC
  5
D622
  8
0
 10
3697.6898907785221127
 20
372.2219447687796787
 30
0.0
 40
0.3259616659369933
 50
197.1010272181906089
 51
213.134118883685403
  0
ARC
  5
D623
  8
0
 10
3697.5470102218928332
 20
372.1517870233037115
 30
0.0
 40
0.1656063760199196
 50
196.0177296101387867
 51
212.4214559842347114
  0
ARC
  5
D624
  8
0
 10
3697.2312543547900532
 20
372.0097509060195762
 30
0.0
 40
0.1838430650522147
 50
16.83611892570487
 51
31.603066668665619
  0
LINE
  5
D625
  8
0
 10
3697.4705355660821624
 20
372.0581272373636921
 30
0.0
 11
3697.4323693907422239
 21
372.0395123499134229
 31
0.0
  0
LINE
  5
D626
  8
0
 10
3697.4285770692308688
 20
372.1639425078624868
 30
0.0
 11
3697.3842203379372222
 21
372.1403325689792041
 31
0.0
  0
ARC
  5
D627
  8
0
 10
3697.15709305709197
 20
371.9950656109057832
 30
0.0
 40
0.3197232790599012
 50
7.6180781437883471
 51
35.7843637462642192
  0
ARC
  5
D628
  8
0
 10
3697.9262597934748555
 20
372.3011732172502093
 30
0.0
 40
0.5235392861377106
 50
193.1553937920577084
 51
195.5938707864966943
  0
ARC
  5
D629
  8
0
 10
3697.9262597934748555
 20
372.3011732172502093
 30
0.0
 40
0.5235392861377106
 50
208.0438763594877116
 51
210.2470480979920922
  0
ARC
  5
D62A
  8
0
 10
3697.3899056452241894
 20
372.129651404199592
 30
0.0
 40
0.0121
 50
118.0252161201150045
 51
197.1010272188993895
  0
ARC
  5
D62B
  8
0
 10
3697.4270650998760175
 20
372.0503877578784113
 30
0.0
 40
0.0121
 50
213.1341188829956081
 51
295.9999999472919967
  0
LINE
  5
D62C
  8
0
 10
3697.3472127802110663
 20
372.0723161129404843
 30
0.0
 11
3697.3846217372110914
 21
371.9928862099188223
 31
0.0
  0
LINE
  5
D62D
  8
0
 10
3697.4008727314608223
 20
371.9871663509424025
 30
0.0
 11
3697.4364998473638479
 21
372.0045428564155827
 31
0.0
  0
LINE
  5
D62E
  8
0
 10
3697.3524788777199319
 20
372.088155327821994
 30
0.0
 11
3697.3579152653010169
 21
372.0910459063418898
 31
0.0
  0
LINE
  5
D62F
  8
0
 10
3697.3268021354469965
 20
372.1849129940283092
 30
0.0
 11
3697.370699267749842
 21
372.2082535133055217
 31
0.0
  0
LINE
  5
D630
  8
0
 10
3697.3750678891760799
 20
372.0838085722108985
 30
0.0
 11
3697.3911102024731008
 21
372.0916329311119171
 31
0.0
  0
ARC
  5
D631
  8
0
 10
3697.0460371776061947
 20
372.0395365878566167
 30
0.0
 40
0.3658836887727829
 50
18.2218754943412691
 51
31.5226309163211695
  0
ARC
  5
D632
  8
0
 10
3697.4011131412598843
 20
372.2265921018902759
 30
0.0
 40
0.0433921565218915
 50
174.3906292864795091
 51
210.5275237093200076
  0
ARC
  5
D633
  8
0
 10
3697.8445177328048885
 20
372.3656979852246991
 30
0.0
 40
0.55876267396373
 50
200.5026132015186136
 51
209.7199405794777931
  0
ARC
  5
D634
  8
0
 10
3697.3324827413589446
 20
372.1742293281556044
 30
0.0
 40
0.0121
 50
118.0000000089871008
 51
200.5026132014332916
  0
ARC
  5
D635
  8
0
 10
3697.3697635983489818
 20
372.0946839801953274
 30
0.0
 40
0.0121
 50
209.7199405795473979
 51
295.9999997400786924
  0
ARC
  5
D636
  8
0
 10
3697.3581594835818578
 20
372.0774716619230276
 30
0.0
 40
0.0121
 50
117.9999997442606059
 51
205.2189435165678049
  0
ARC
  5
D637
  8
0
 10
3697.3955684405827924
 20
371.9980417589013086
 30
0.0
 40
0.0121
 50
205.2189435165383031
 51
296.0000000142591716
  0
ARC
  5
D638
  8
0
 10
3697.5861290362149703
 20
372.0675514816662144
 30
0.0
 40
0.1646634540898826
 50
202.8802982952828984
 51
209.8155212869939987
  0
ARC
  5
D639
  8
0
 10
3696.7658870852260407
 20
371.7535010845485886
 30
0.0
 40
0.7160610644109895
 50
18.9197571787027599
 51
23.5136304047553288
  0
LINE
  5
D63A
  8
0
 10
3697.2622741784180107
 20
372.2762352793837977
 30
0.0
 11
3697.2273348746939519
 21
372.3569752464093199
 31
0.0
  0
LINE
  5
D63B
  8
0
 10
3697.2786833002460298
 20
372.2701653608933725
 30
0.0
 11
3697.3132596113059662
 21
372.2870293545165055
 31
0.0
  0
LINE
  5
D63C
  8
0
 10
3697.2327590997479092
 20
372.3724644017582932
 30
0.0
 11
3697.2714037914238361
 21
372.3930121488363056
 31
0.0
  0
ARC
  5
D63D
  8
0
 10
3702.151163539234858
 20
374.2589208103847227
 30
0.0
 40
5.2243344389120159
 50
199.6344835656726957
 51
203.2385272121528885
  0
ARC
  5
D63E
  8
0
 10
3697.2733790093880089
 20
372.281040768862681
 30
0.0
 40
0.0121
 50
203.4000000109516861
 51
295.9999999017809955
  0
ARC
  5
D63F
  8
0
 10
3697.23843970566395
 20
372.3617807358880896
 30
0.0
 40
0.0121
 50
118.0000000348950948
 51
203.4000000109647885
  0
ARC
  5
D640
  8
0
 10
3696.8042355887919257
 20
372.1019989690944954
 30
0.0
 40
0.6454969641013417
 50
16.1953302349069688
 51
33.9996467311771084
  0
ARC
  5
D641
  8
0
 10
3697.7165235035959086
 20
372.5292970923146072
 30
0.0
 40
0.3829353447137115
 50
189.9769189564138969
 51
193.3316415074608869
  0
ARC
  5
D642
  8
0
 10
3697.7165235035959086
 20
372.5292970923146072
 30
0.0
 40
0.3829353447137115
 50
217.0189595248988894
 51
220.2180580096629967
  0
LINE
  5
D643
  8
0
 10
3697.3735493929639233
 20
372.2805840005711957
 30
0.0
 11
3697.417897024659851
 21
372.3022137857103075
 31
0.0
  0
LINE
  5
D644
  8
0
 10
3697.3089965496828881
 20
372.4224345798053832
 30
0.0
 11
3697.3511537863678313
 21
372.4448499802111883
 31
0.0
  0
ARC
  5
D645
  8
0
 10
3697.6355570482019175
 20
372.4825713040307846
 30
0.0
 40
0.3407022415135228
 50
192.4460425909682897
 51
215.5624779076256914
  0
ARC
  5
D646
  8
0
 10
3697.4648250225091033
 20
372.4013123762243822
 30
0.0
 40
0.1471599261599447
 50
193.5194450906446093
 51
212.1816281425512898
  0
ARC
  5
D647
  8
0
 10
3697.2360670426801335
 20
372.3049138626624881
 30
0.0
 40
0.1057537643360936
 50
9.8110612087823448
 51
35.8900120244170395
  0
ARC
  5
D648
  8
0
 10
3697.3146771556030217
 20
372.4117509139368849
 30
0.0
 40
0.0121
 50
118.000000050624493
 51
192.4460425916198858
  0
ARC
  5
D649
  8
0
 10
3697.3682451020999906
 20
372.2914594085374915
 30
0.0
 40
0.0121
 50
215.5624779070473096
 51
295.9999999327703222
  0
ARC
  5
D64A
  8
0
 10
3696.6624461774299562
 20
372.3253570182611156
 30
0.0
 40
0.6454969641013417
 50
16.1953302349069688
 51
33.9996467311771084
  0
ARC
  5
D64B
  8
0
 10
3697.574734092233939
 20
372.7526551414812275
 30
0.0
 40
0.3829353447137115
 50
189.9769189564138969
 51
193.3316415074608869
  0
ARC
  5
D64C
  8
0
 10
3697.574734092233939
 20
372.7526551414812275
 30
0.0
 40
0.3829353447137115
 50
217.0189595248988894
 51
220.2180580096629967
  0
LINE
  5
D64D
  8
0
 10
3697.2317599816019538
 20
372.503942049737816
 30
0.0
 11
3697.276107613296972
 21
372.5255718348769278
 31
0.0
  0
LINE
  5
D64E
  8
0
 10
3697.1672071383218281
 20
372.6457926289718898
 30
0.0
 11
3697.2093643750058618
 21
372.6682080293778085
 31
0.0
  0
ARC
  5
D64F
  8
0
 10
3697.493767636839948
 20
372.7059293531972912
 30
0.0
 40
0.3407022415135228
 50
192.4460425909682897
 51
215.5624779076256914
  0
ARC
  5
D650
  8
0
 10
3697.3230356111471337
 20
372.6246704253910025
 30
0.0
 40
0.1471599261599447
 50
193.5194450906446093
 51
212.1816281425512898
  0
ARC
  5
D651
  8
0
 10
3697.0942776313181639
 20
372.5282719118291084
 30
0.0
 40
0.1057537643360936
 50
9.8110612087823448
 51
35.8900120244170395
  0
ARC
  5
D652
  8
0
 10
3697.1728877442401426
 20
372.6351089631035052
 30
0.0
 40
0.0121
 50
118.000000050624493
 51
192.4460425916198858
  0
ARC
  5
D653
  8
0
 10
3697.2264556907389306
 20
372.5148174577041118
 30
0.0
 40
0.0121
 50
215.5624779070473096
 51
295.9999999327703222
  0
ARC
  5
D654
  8
0
 10
3699.1002840125361217
 20
373.4384176777267044
 30
0.0
 40
2.1346388027849779
 50
203.7854774777314049
 51
206.1481521198693088
  0
LINE
  5
D655
  8
0
 10
3697.2002753685278549
 20
372.4921527309309113
 30
0.0
 11
3697.2229811103020438
 21
372.5032270612142042
 31
0.0
  0
LINE
  5
D656
  8
0
 10
3697.1523489672740652
 20
372.5930530610490905
 30
0.0
 11
3697.1692852627479624
 21
372.6020582490539255
 31
0.0
  0
ARC
  5
D657
  8
0
 10
3697.1580295731650949
 20
372.5823693951660971
 30
0.0
 40
0.0121
 50
117.9999999035162972
 51
203.7854774777433988
  0
ARC
  5
D658
  8
0
 10
3697.1949710776239044
 20
372.5030281388774256
 30
0.0
 40
0.0121
 50
206.1481521199013969
 51
296.0000001481002982
  0
LINE
  5
D659
  8
0
 10
3697.0651090313758687
 20
372.8771234805896029
 30
0.0
 11
3697.1063822987648564
 21
372.8972537980915263
 31
0.0
  0
LINE
  5
D65A
  8
0
 10
3697.0078976114600664
 20
373.0227194702308111
 30
0.0
 11
3697.0489866564880685
 21
373.0445669030140152
 31
0.0
  0
ARC
  5
D65B
  8
0
 10
3686.3404553425020822
 20
368.7875068250676236
 30
0.0
 40
11.5236801157379993
 50
20.82787334531276
 51
21.7935655087754583
  0
ARC
  5
D65C
  8
0
 10
3697.3792094443651877
 20
373.0937165463299152
 30
0.0
 40
0.3398460260629991
 50
184.7068890601262865
 51
188.8232731671504041
  0
ARC
  5
D65D
  8
0
 10
3697.3792094443651877
 20
373.0937165463299152
 30
0.0
 40
0.3398460260629991
 50
215.6520362750353002
 51
217.9145497939593099
  0
ARC
  5
D65E
  8
0
 10
3697.8292119466927943
 20
373.2453767199327785
 30
0.0
 40
0.8604550926882337
 50
195.9650533799971015
 51
204.9141446432828957
  0
ARC
  5
D65F
  8
0
 10
3697.0598047405078432
 20
372.8879988885540229
 30
0.0
 40
0.0121
 50
204.9141446434607019
 51
295.9999999550602183
  0
ARC
  5
D660
  8
0
 10
3697.013578217371105
 20
373.0120358043575948
 30
0.0
 40
0.0121
 50
118.0000000044996966
 51
195.9650533797666867
  0
LINE
  5
D661
  8
0
 10
3697.0837705293938598
 20
372.7858882849592987
 30
0.0
 11
3697.1175081811120435
 21
372.8024892676697277
 31
0.0
  0
LINE
  5
D662
  8
0
 10
3697.0254144205109696
 20
372.9308531980233283
 30
0.0
 11
3697.0278070201320588
 21
372.9321146727323821
 31
0.0
  0
LINE
  5
D663
  8
0
 10
3697.0671319854182002
 20
372.7924088590440874
 30
0.0
 11
3697.019761375815051
 21
372.9158135160947154
 31
0.0
  0
ARC
  5
D664
  8
0
 10
3697.0784283085781681
 20
372.7967451112339745
 30
0.0
 40
0.0121
 50
201.0000000020515927
 51
296.1999999829411081
  0
ARC
  5
D665
  8
0
 10
3697.0310576989750189
 20
372.9201497682846025
 30
0.0
 40
0.0121
 50
117.800000623494995
 51
201.0000000020453967
  0
ARC
  5
D666
  8
0
 10
3702.7980674220630135
 20
374.8859151182696223
 30
0.0
 40
6.0505715899333987
 50
199.2833243455503975
 51
201.6841590692802129
  0
ARC
  5
D667
  8
0
 10
4377.7243858570709563
 20
595.1430969726700368
 30
0.0
 40
716.0083985638159447
 50
198.0539061382779948
 51
198.071267356524487
  0
ARC
  5
D668
  8
0
 10
3696.9854650077709266
 20
373.2493149196096169
 30
0.0
 40
0.0179455039449843
 50
138.4669344545947069
 51
198.0539061382779948
  0
LINE
  5
D669
  8
0
 10
3697.8164776211601747
 20
371.1105922833830846
 30
0.0
 11
3697.7608676104819097
 21
371.2225024344588178
 31
0.0
  0
LINE
  5
D66A
  8
0
 10
3697.7662102578638041
 20
371.238668168395975
 30
0.0
 11
3697.8064737012377918
 21
371.2591832678139099
 31
0.0
  0
LINE
  5
D66B
  8
0
 10
3697.8328067750007904
 20
371.1051956270115966
 30
0.0
 11
3697.8759286689769397
 21
371.1271671691142728
 31
0.0
  0
ARC
  5
D66C
  8
0
 10
3697.827313521772794
 20
371.1159768221669992
 30
0.0
 40
0.0121
 50
206.4235438384376096
 51
296.9998308992712168
  0
ARC
  5
D66D
  8
0
 10
3697.7717035110949837
 20
371.2278869732426188
 30
0.0
 40
0.0121
 50
116.9998309189172971
 51
206.4235438384667134
  0
ARC
  5
D66E
  8
0
 10
3697.4984661271910227
 20
371.0128589341209135
 30
0.0
 40
0.3943911041587889
 50
14.6477962882063206
 51
42.2043924649712068
  0
ARC
  5
D66F
  8
0
 10
3698.1901417243780088
 20
371.3872537414790145
 30
0.0
 40
0.4142502225190389
 50
219.4191066949115907
 51
221.5317805756365033
  0
ARC
  5
D670
  8
0
 10
3698.1901417243780088
 20
371.3872537414790145
 30
0.0
 40
0.4142502225190389
 50
195.3204081775363079
 51
198.6621956425730104
  0
ARC
  5
D671
  8
0
 10
3698.1782195458690694
 20
371.1755199076692975
 30
0.0
 40
0.3164121593287283
 50
198.4691803269824106
 51
214.9987044626035981
  0
LINE
  5
D672
  8
0
 10
3697.934241930574899
 20
370.9901038367411275
 30
0.0
 11
3697.9776729274658464
 21
371.0112863906787197
 31
0.0
  0
LINE
  5
D673
  8
0
 10
3697.883900654073841
 20
371.0897991711224222
 30
0.0
 11
3697.9229738789058501
 21
371.1105746253978168
 31
0.0
  0
ARC
  5
D674
  8
0
 10
3697.8895812284590647
 20
371.0791154884864795
 30
0.0
 40
0.0121
 50
117.9998309317613945
 51
198.4691803271678054
  0
ARC
  5
D675
  8
0
 10
3697.9289376717811137
 20
371.0009792603490268
 30
0.0
 40
0.0121
 50
214.9987044623952102
 51
295.9998309761658106
  0
ARC
  5
D676
  8
0
 10
3697.9872395700249399
 20
371.0796030518691282
 30
0.0
 40
0.1013280463635044
 50
193.4207649765689041
 51
220.3541313531640924
  0
ARC
  5
D677
  8
0
 10
3697.7009504229758932
 20
370.9344391291634793
 30
0.0
 40
0.2236951781851292
 50
20.8321371336819112
 51
32.9427591960655235
  0
ARC
  5
D678
  8
0
 10
3697.687380682048115
 20
370.9160722908191019
 30
0.0
 40
0.3055082855870541
 50
13.5255289932784599
 51
44.2279032077591268
  0
ARC
  5
D679
  8
0
 10
3698.4366235693300951
 20
371.3292794111262083
 30
0.0
 40
0.5668230796661151
 50
214.5856270173661926
 51
217.0801130406086941
  0
ARC
  5
D67A
  8
0
 10
3698.4366235693300951
 20
371.3292794111262083
 30
0.0
 40
0.5668230796661151
 50
200.6733191604062085
 51
203.1382669398834082
  0
LINE
  5
D67B
  8
0
 10
3698.0167810375610316
 20
370.7236531216215099
 30
0.0
 11
3697.8870321957278975
 21
370.9741805296180246
 31
0.0
  0
LINE
  5
D67C
  8
0
 10
3697.8922834746099397
 20
370.9905263478555071
 30
0.0
 11
3697.9139241165039493
 21
371.0015527251650838
 31
0.0
  0
LINE
  5
D67D
  8
0
 10
3698.0330188228899715
 20
370.7184365495443217
 30
0.0
 11
3698.0741372605948527
 21
370.7393872871526241
 31
0.0
  0
LINE
  5
D67E
  8
0
 10
3697.9741031457879217
 20
370.8321947277588038
 30
0.0
 11
3698.0220037253288865
 21
370.856601113977888
 31
0.0
  0
ARC
  5
D67F
  8
0
 10
3697.9686098925649276
 20
370.8429759229165938
 30
0.0
 40
0.0121
 50
207.3797647422574073
 51
296.9998308720111027
  0
ARC
  5
D680
  8
0
 10
3697.8977767278270221
 20
370.9797451526945906
 30
0.0
 40
0.0121
 50
116.9998308400791984
 51
207.3797647421961869
  0
ARC
  5
D681
  8
0
 10
3698.0275255696601562
 20
370.729217744698019
 30
0.0
 40
0.0121
 50
207.3797647422310888
 51
296.9998309164647026
  0
ARC
  5
D682
  8
0
 10
3697.5463312518782004
 20
370.6603604574792143
 30
0.0
 40
0.5216799609154545
 50
21.2060317485395906
 51
38.2053201491483989
  0
ARC
  5
D683
  8
0
 10
3698.2204730578050658
 20
371.0449726704862883
 30
0.0
 40
0.2713746361593393
 50
221.6527448574971118
 51
226.2125998076259918
  0
ARC
  5
D684
  8
0
 10
3698.2204730578050658
 20
371.0449726704862883
 30
0.0
 40
0.2713746361593393
 50
193.198752090060907
 51
197.5484480163459011
  0
LINE
  5
D685
  8
0
 10
3697.9838191424828437
 20
370.848085806108088
 30
0.0
 11
3698.0248629428429012
 21
370.8681040551260253
 31
0.0
  0
LINE
  5
D686
  8
0
 10
3697.9314410599408802
 20
370.9470464207033729
 30
0.0
 11
3697.9685413992851863
 21
370.9667728806084028
 31
0.0
  0
ARC
  5
D687
  8
0
 10
3698.6961804470370225
 20
371.2925278055407148
 30
0.0
 40
0.8505651671059704
 50
205.1368773455228052
 51
211.1376251392821075
  0
ARC
  5
D688
  8
0
 10
3697.9371216343220112
 20
370.9363627380656112
 30
0.0
 40
0.0121
 50
117.9998309126718965
 51
205.1368773454383074
  0
ARC
  5
D689
  8
0
 10
3697.9785148837099769
 20
370.8589612297258782
 30
0.0
 40
0.0121
 50
211.1376251393566008
 51
295.9998308707575916
  0
ARC
  5
D68A
  8
0
 10
3698.1272288332561402
 20
370.9379069154430795
 30
0.0
 40
0.1397965557440759
 50
217.1717607699802102
 51
228.6702446799004917
  0
ARC
  5
D68B
  8
0
 10
3697.6216825743272238
 20
370.6230013919898738
 30
0.0
 40
0.4634931003293164
 50
26.931740506890641
 51
31.3920091558023096
  0
ARC
  5
D68C
  8
0
 10
3698.3417748146871418
 20
371.0593668319070275
 30
0.0
 40
0.3495607194484637
 50
195.4736769488158927
 51
217.4699275486011913
  0
ARC
  5
D68D
  8
0
 10
3697.7192904669541349
 20
370.7456186696057898
 30
0.0
 40
0.4239433488915637
 50
13.4317848467589602
 51
40.5554174055021974
  0
ARC
  5
D68E
  8
0
 10
3698.1445397400939328
 20
370.877754414215417
 30
0.0
 40
0.036041995030799
 50
212.0478281445242033
 51
249.0219631525831119
  0
ARC
  5
D68F
  8
0
 10
3698.0622417010640675
 20
371.0105617870434003
 30
0.0
 40
0.0234330356288299
 50
152.8369888609379075
 51
211.7145846615322
  0
LINE
  5
D690
  8
0
 10
3698.0547387504029757
 20
371.0048529501333974
 30
0.0
 11
3698.0117056997200962
 21
370.9819720341210996
 31
0.0
  0
LINE
  5
D691
  8
0
 10
3698.1261996904740954
 20
370.8645844078845926
 30
0.0
 11
3698.0813401671739484
 21
370.8427051204271834
 31
0.0
  0
ARC
  5
D692
  8
0
 10
3698.0181843713248782
 20
370.9697873382190778
 30
0.0
 40
0.0138
 50
117.9998309026367025
 51
195.4736769487817014
  0
ARC
  5
D693
  8
0
 10
3698.0752906819711825
 20
370.8551084961281958
 30
0.0
 40
0.0138
 50
217.4699275486059094
 51
295.9998308250437731
  0
ARC
  5
D694
  8
0
 10
3698.1237634477802203
 20
370.9514832753189921
 30
0.0
 40
0.1013280463635044
 50
193.4207649765689041
 51
220.3541313531640924
  0
ARC
  5
D695
  8
0
 10
3697.9553600286030814
 20
370.8660937271056923
 30
0.0
 40
0.0933060668365767
 50
12.2381599439373705
 51
41.5367363858158285
  0
ARC
  5
D696
  8
0
 10
3706.9045378267519482
 20
375.9293936826711047
 30
0.0
 40
10.24266276630817
 50
209.7269345940626977
 51
210.7339086998730124
  0
ARC
  5
D697
  8
0
 10
3708.711606228393066
 20
376.9254938819273093
 30
0.0
 40
12.3062420696088104
 50
208.1503105410351964
 51
208.3302532180834135
  0
ARC
  5
D698
  8
0
 10
3698.4279187498091233
 20
370.7734780347768151
 30
0.0
 40
0.3259616659369933
 50
200.8657120134209038
 51
216.8988036789266118
  0
ARC
  5
D699
  8
0
 10
3698.2871766379548717
 20
370.6991233398093755
 30
0.0
 40
0.1656063760199196
 50
201.5783749128787861
 51
217.982101286977894
  0
ARC
  5
D69A
  8
0
 10
3697.9866698557120799
 20
370.5271590991977746
 30
0.0
 40
0.1838430650522147
 50
22.39676422844461
 51
37.1637119714128588
  0
LINE
  5
D69B
  8
0
 10
3698.1664535844602142
 20
370.6923062408299074
 30
0.0
 11
3698.1289602503261449
 21
370.6723708233441812
 31
0.0
  0
LINE
  5
D69C
  8
0
 10
3698.2273970671471943
 20
370.596164268484074
 30
0.0
 11
3698.1822239279072164
 21
370.5741566262594802
 31
0.0
  0
ARC
  5
D69D
  8
0
 10
3697.9311981337191355
 20
370.4757933126483067
 30
0.0
 40
0.3197232790599012
 50
18.2154671508543089
 51
46.3817527533234895
  0
ARC
  5
D69E
  8
0
 10
3698.6309505590888875
 20
370.9181346720166061
 30
0.0
 40
0.5235392861377106
 50
218.4059601106098967
 51
220.8444371050493089
  0
ARC
  5
D69F
  8
0
 10
3698.6309505590888875
 20
370.9181346720166061
 30
0.0
 40
0.5235392861377106
 50
203.7527827991220875
 51
205.9559545376243932
  0
ARC
  5
D6A0
  8
0
 10
3698.176924455963217
 20
370.5850343832485123
 30
0.0
 40
0.0121
 50
216.898803678223004
 51
295.9746147769815821
  0
ARC
  5
D6A1
  8
0
 10
3698.1346408247140971
 20
370.6616871407102849
 30
0.0
 40
0.0121
 50
117.9998309498219982
 51
200.8657120141253927
  0
LINE
  5
D6A2
  8
0
 10
3698.1054449920497973
 20
370.58419617951688
 30
0.0
 11
3698.0631735109900546
 21
370.661148511819988
 31
0.0
  0
LINE
  5
D6A3
  8
0
 10
3698.068098191352874
 20
370.6776578765603745
 30
0.0
 11
3698.1030972278172158
 21
370.6962670618365223
 31
0.0
  0
LINE
  5
D6A4
  8
0
 10
3698.121354505616182
 20
370.5791464380250204
 30
0.0
 11
3698.1268884691739913
 21
370.5818455122085879
 31
0.0
  0
LINE
  5
D6A5
  8
0
 10
3698.1845404623140894
 20
370.5015006014361916
 30
0.0
 11
3698.2292254903759385
 21
370.5232947825783185
 31
0.0
  0
LINE
  5
D6A6
  8
0
 10
3698.1311154557301961
 20
370.5999762622137155
 30
0.0
 11
3698.1468749549508175
 21
370.6083556770170162
 31
0.0
  0
ARC
  5
D6A7
  8
0
 10
3697.901898559367055
 20
370.3598079208857143
 30
0.0
 40
0.3658836887727829
 50
22.4771999807939196
 51
35.7779554027648103
  0
ARC
  5
D6A8
  8
0
 10
3698.261938587314944
 20
370.5371208746457228
 30
0.0
 40
0.0433921565218915
 50
203.4723071878001122
 51
239.609201610622307
  0
ARC
  5
D6A9
  8
0
 10
3698.6351051080700927
 20
370.8140772364943132
 30
0.0
 40
0.55876267396373
 50
204.2798903176336012
 51
213.4972176955984935
  0
ARC
  5
D6AA
  8
0
 10
3698.1792362035371298
 20
370.5123760250522764
 30
0.0
 40
0.0121
 50
213.4972176956696046
 51
295.9998308881218918
  0
ARC
  5
D6AB
  8
0
 10
3698.1367960301568019
 20
370.589292579600226
 30
0.0
 40
0.0121
 50
117.9998311570355014
 51
204.2798903175574026
  0
ARC
  5
D6AC
  8
0
 10
3698.1160502467892002
 20
370.5900218616166057
 30
0.0
 40
0.0121
 50
208.7808873805464032
 51
295.9998311528480031
  0
ARC
  5
D6AD
  8
0
 10
3698.0737787657280933
 20
370.6669741939198275
 30
0.0
 40
0.0121
 50
117.9998308828377986
 51
208.7808873805747965
  0
ARC
  5
D6AE
  8
0
 10
3698.2420223549229377
 20
370.780283667757999
 30
0.0
 40
0.1646634540898826
 50
204.1843096101160882
 51
211.1195326018323897
  0
ARC
  5
D6AF
  8
0
 10
3697.5058227107560924
 20
370.3012903546298844
 30
0.0
 40
0.7160610644109895
 50
30.4862004923617818
 51
35.0800737184001292
  0
LINE
  5
D6B0
  8
0
 10
3698.2204928491291867
 20
370.3956183889391127
 30
0.0
 11
3698.2652758236299633
 21
370.3198940043936886
 31
0.0
  0
LINE
  5
D6B1
  8
0
 10
3698.2252272714390529
 20
370.412461441958385
 30
0.0
 11
3698.2591940278971379
 21
370.4305217582132173
 31
0.0
  0
LINE
  5
D6B2
  8
0
 10
3698.280995079108834
 20
370.3151779511650261
 30
0.0
 11
3698.320333392163775
 21
370.334364384669982
 31
0.0
  0
ARC
  5
D6B3
  8
0
 10
3702.6981444383927737
 20
373.1854064350646922
 30
0.0
 40
5.2243344389120159
 50
210.7613036849467107
 51
214.3653473314323037
  0
ARC
  5
D6B4
  8
0
 10
3698.2309078458351905
 20
370.4017777593289225
 30
0.0
 40
0.0121
 50
117.9998309953251976
 51
210.5998308861574912
  0
ARC
  5
D6B5
  8
0
 10
3698.2756908203368766
 20
370.3260533747834984
 30
0.0
 40
0.0121
 50
210.599830886154507
 51
295.9998308622086824
  0
ARC
  5
D6B6
  8
0
 10
3697.8103035936951528
 20
370.1274721300861756
 30
0.0
 40
0.6454969641013417
 50
20.0001841659372985
 51
37.8045006622043118
  0
ARC
  5
D6B7
  8
0
 10
3698.6922258562358365
 20
370.6143664188600155
 30
0.0
 40
0.3829353447137115
 50
220.6681893896563054
 51
224.0229119407038922
  0
ARC
  5
D6B8
  8
0
 10
3698.6922258562358365
 20
370.6143664188600155
 30
0.0
 40
0.3829353447137115
 50
193.7817728874427985
 51
196.9808713722067921
  0
LINE
  5
D6B9
  8
0
 10
3698.2894172266801434
 20
370.4830856109560955
 30
0.0
 11
3698.3329830426941953
 21
370.506249801363083
 31
0.0
  0
LINE
  5
D6BA
  8
0
 10
3698.3662331464520321
 20
370.3474833584890007
 30
0.0
 11
3698.4091470500911782
 21
370.3684137109635799
 31
0.0
  0
ARC
  5
D6BB
  8
0
 10
3698.6068328987607856
 20
370.5763281617557254
 30
0.0
 40
0.3407022415135228
 50
198.4373529894942862
 51
221.5537883061450941
  0
ARC
  5
D6BC
  8
0
 10
3698.4407390117298746
 20
370.4859663410770736
 30
0.0
 40
0.1471599261599447
 50
201.8182027545651067
 51
220.4803858064661881
  0
ARC
  5
D6BD
  8
0
 10
3698.2282900301570407
 20
370.3575594994331937
 30
0.0
 40
0.1057537643360936
 50
18.1098188726984191
 51
44.1887696883193328
  0
ARC
  5
D6BE
  8
0
 10
3698.3609288876841674
 20
370.3583587821087804
 30
0.0
 40
0.0121
 50
221.5537883054834936
 51
295.9998308464691945
  0
ARC
  5
D6BF
  8
0
 10
3698.2950978010699146
 20
370.4724019283236203
 30
0.0
 40
0.0121
 50
117.9998309643412995
 51
198.4373529900680921
  0
ARC
  5
D6C0
  8
0
 10
3697.907661600335814
 20
369.8814752320471939
 30
0.0
 40
0.6454969641013417
 50
20.0001841659372985
 51
37.8045006622043118
  0
ARC
  5
D6C1
  8
0
 10
3698.789583862877862
 20
370.368369520820977
 30
0.0
 40
0.3829353447137115
 50
220.6681893896563054
 51
224.0229119407038922
  0
ARC
  5
D6C2
  8
0
 10
3698.789583862877862
 20
370.368369520820977
 30
0.0
 40
0.3829353447137115
 50
193.7817728874427985
 51
196.9808713722067921
  0
LINE
  5
D6C3
  8
0
 10
3698.3867752333208045
 20
370.2370887129171138
 30
0.0
 11
3698.4303410493348565
 21
370.2602529033241012
 31
0.0
  0
LINE
  5
D6C4
  8
0
 10
3698.463591153093148
 20
370.101486460450019
 30
0.0
 11
3698.5065050567318394
 21
370.1224168129247118
 31
0.0
  0
ARC
  5
D6C5
  8
0
 10
3698.7041909054019015
 20
370.3303312637166869
 30
0.0
 40
0.3407022415135228
 50
198.4373529894942862
 51
221.5537883061450941
  0
ARC
  5
D6C6
  8
0
 10
3698.5380970183709906
 20
370.2399694430380919
 30
0.0
 40
0.1471599261599447
 50
201.8182027545651067
 51
220.4803858064661881
  0
ARC
  5
D6C7
  8
0
 10
3698.3256480367981567
 20
370.1115626013942119
 30
0.0
 40
0.1057537643360936
 50
18.1098188726984191
 51
44.1887696883193328
  0
ARC
  5
D6C8
  8
0
 10
3698.4582868943239191
 20
370.1123618840697986
 30
0.0
 40
0.0121
 50
221.5537883054834936
 51
295.9998308464691945
  0
ARC
  5
D6C9
  8
0
 10
3698.39245580771194
 20
370.2264050302845817
 30
0.0
 40
0.0121
 50
117.9998309643412995
 51
198.4373529900680921
  0
ARC
  5
D6CA
  8
0
 10
3700.2410756065419264
 20
371.1994799427998259
 30
0.0
 40
2.1346388027849779
 50
207.8516787772346106
 51
210.2143534193876064
  0
LINE
  5
D6CB
  8
0
 10
3698.3587312280910737
 20
370.218546796378007
 30
0.0
 11
3698.3810366846510078
 21
370.2304067334911224
 31
0.0
  0
LINE
  5
D6CC
  8
0
 10
3698.4121905885649539
 20
370.1204656395079269
 30
0.0
 11
3698.4294308682237897
 21
370.1288742227824855
 31
0.0
  0
ARC
  5
D6CD
  8
0
 10
3698.4068863297679854
 20
370.1313410631141778
 30
0.0
 40
0.0121
 50
210.2143534193631069
 51
295.9998309936127043
  0
ARC
  5
D6CE
  8
0
 10
3698.3644118024408272
 20
370.2078631137239881
 30
0.0
 40
0.0121
 50
117.999830749012105
 51
207.851678777214488
  0
LINE
  5
D6CF
  8
0
 10
3698.5907293367308739
 20
369.8829141186196807
 30
0.0
 11
3698.6312749872049608
 21
369.9044724699322728
 31
0.0
  0
LINE
  5
D6D0
  8
0
 10
3698.674890548590156
 20
369.7510496837372216
 30
0.0
 11
3698.7167170879019977
 21
369.7714496972100164
 31
0.0
  0
ARC
  5
D6D1
  8
0
 10
3688.9783481747158476
 20
363.6103317531556058
 30
0.0
 40
11.5236801157379993
 50
32.206265388330273
 51
33.1719575518042618
  0
ARC
  5
D6D2
  8
0
 10
3698.950580772514968
 20
370.0097154188107993
 30
0.0
 40
0.3398460260629991
 50
225.1765577299707104
 51
229.2929418369880068
  0
ARC
  5
D6D3
  8
0
 10
3698.950580772514968
 20
370.0097154188107993
 30
0.0
 40
0.3398460260629991
 50
196.0852811031510896
 51
198.3477946220669139
  0
ARC
  5
D6D4
  8
0
 10
3699.3377820760802024
 20
370.2846303345165211
 30
0.0
 40
0.8604550926882337
 50
209.0856862538333019
 51
218.0347775171053968
  0
ARC
  5
D6D5
  8
0
 10
3698.5964099111179166
 20
369.8722304359848181
 30
0.0
 40
0.0121
 50
117.9998309420592051
 51
209.0856862536492997
  0
ARC
  5
D6D6
  8
0
 10
3698.6695862898118321
 20
369.7619251073529085
 30
0.0
 40
0.0121
 50
218.0347775173453044
 51
295.9998308926171262
  0
LINE
  5
D6D7
  8
0
 10
3698.5278876691349979
 20
369.9516384756091725
 30
0.0
 11
3698.5611486921538926
 21
369.9691748982219792
 31
0.0
  0
LINE
  5
D6D8
  8
0
 10
3698.6108654963859408
 20
369.8192189088970281
 30
0.0
 11
3698.6132923891600512
 21
369.8204130792582873
 31
0.0
  0
LINE
  5
D6D9
  8
0
 10
3698.5233829825729117
 20
369.9343449267825008
 30
0.0
 11
3698.5953753744061032
 21
369.8234856486225226
 31
0.0
  0
ARC
  5
D6DA
  8
0
 10
3698.5335309158949713
 20
369.9409350291552983
 30
0.0
 40
0.0121
 50
117.7998309141810012
 51
212.999830895065287
  0
ARC
  5
D6DB
  8
0
 10
3698.6055233077281628
 20
369.8300757509952064
 30
0.0
 40
0.0121
 50
212.9998308950702892
 51
296.1998302735973994
  0
ARC
  5
D6DC
  8
0
 10
3703.5856345077531842
 20
373.3402220432142826
 30
0.0
 40
6.0505715899333987
 50
212.3156718278368942
 51
214.7165065515625031
  0
ARC
  5
D6DD
  8
0
 10
3708.7115898691458824
 20
376.9255259871110866
 30
0.0
 40
12.3062420688082508
 50
207.261624896518299
 51
207.4559463200689891
  0
ARC
  5
D6DE
  8
0
 10
3831.76559162436115
 20
373.4111190883048153
 30
0.0
 40
133.1453638010385987
 50
181.575727523718399
 51
181.6802571852038
  0
ARC
  5
D6DF
  8
0
 10
3712.5247577674349486
 20
369.9132571945447125
 30
0.0
 40
13.8532370837946406
 50
181.6802571852038
 51
182.1898814461906966
  0
ARC
  5
D6E0
  8
0
 10
3699.0228299005098052
 20
369.3969534174584055
 30
0.0
 40
0.3414412847952639
 50
182.1898814461906966
 51
206.3639229115781006
  0
ARC
  5
D6E1
  8
0
 10
3698.8417052374220475
 20
369.2999907607024852
 30
0.0
 40
0.1362493461472767
 50
203.6524420211349025
 51
291.8057825804538084
  0
LINE
  5
D6E2
  8
0
 10
3698.9967685575870746
 20
369.244083449366201
 30
0.0
 11
3698.8373717354820656
 21
369.5569173269888097
 31
0.0
  0
LINE
  5
D6E3
  8
0
 10
3698.8923166295230658
 20
369.173490281196905
 30
0.0
 11
3698.9873819633057792
 21
369.2170975086863223
 31
0.0
  0
ARC
  5
D6E4
  8
0
 10
3698.9791266284069025
 20
369.2350944374716732
 30
0.0
 40
0.0198
 50
294.641301606420825
 51
26.9999999987228989
  0
ARC
  5
D6E5
  8
0
 10
3698.8514033343390111
 20
369.5640667837022875
 30
0.0
 40
0.0157480314915539
 50
117.0000003398287021
 51
207.0000000150625965
  0
LINE
  5
D6E6
  8
0
 10
3698.8442538775598223
 20
369.5780983824582222
 30
0.0
 11
3698.8477617773301063
 21
369.5798857466933782
 31
0.0
  0
ARC
  5
D6E7
  8
0
 10
3698.8449986542627812
 20
369.6040327079206804
 30
0.0
 40
0.019381121661211
 50
216.417495762919998
 51
270.9855078166843896
  0
ARC
  5
D6E8
  8
0
 10
3723.3218871506269352
 20
387.6614907738534157
 30
0.0
 40
30.4363149294322817
 50
216.0153979040522927
 51
216.417495762919998
  0
ARC
  5
D6E9
  8
0
 10
3338.2427414748540286
 20
190.1228635239914126
 30
0.0
 40
403.2673114048237721
 50
26.8370407454818185
 51
27.0754345069845286
  0
ARC
  5
D6EA
  8
0
 10
4519.5328476585045792
 20
787.6364422840345014
 30
0.0
 40
920.541134126850352
 50
206.8282739955720899
 51
206.9708406619174923
  0
ARC
  5
D6EB
  8
0
 10
3638.208248203245148
 20
339.143958077306479
 30
0.0
 40
68.3362890125895035
 50
26.1549748077462709
 51
26.9708406619175101
  0
ARC
  5
D6EC
  8
0
 10
3689.7096455764208258
 20
365.9215663355888069
 30
0.0
 40
10.3907591196085107
 50
10.7399953714419105
 51
18.7795261674990392
  0
ARC
  5
D6ED
  8
0
 10
3665.2796162789459231
 20
362.7932634501996745
 30
0.0
 40
35.0070741472991429
 50
1.842064219213261
 51
8.3184566463061973
  0
ARC
  5
D6EE
  8
0
 10
3700.21393881392396
 20
363.9120359674486167
 30
0.0
 40
0.0550477999526652
 50
320.5746037619240951
 51
6.7959741343198301
  0
ARC
  5
D6EF
  8
0
 10
3700.6657707509862121
 20
363.9149765980023972
 30
0.0
 40
0.0379
 50
270.0
 51
2.0271597298470221
  0
LINE
  5
D6F0
  8
0
 10
3700.6093187333481183
 20
366.27376951140252
 30
0.0
 11
3700.6093187333481183
 21
365.6624666495615088
 31
0.0
  0
ARC
  5
D6F1
  8
0
 10
3697.7588835709530031
 20
371.4775353060373959
 30
0.0
 40
0.0686052978898032
 50
236.4494321874063019
 51
246.4366074470528929
  0
ARC
  5
D6F2
  8
0
 10
3697.7178849755428018
 20
371.4208245008375116
 30
0.0
 40
0.0149109827521501
 50
335.5397513839732824
 51
25.7543619083531787
  0
LINE
  5
D6F4
  8
0
 10
3700.4090351151849063
 20
362.1989663618023769
 30
0.0
 11
3700.7014411969171306
 21
362.1989663618023769
 31
0.0
  0
LINE
  5
D6F5
  8
0
 10
3699.5417569789328809
 20
363.9589663618024815
 30
0.0
 11
3699.5109509195790451
 21
363.9589663618024815
 31
0.0
  0
ENDSEC
  0
EOF
