  0
SECTION
  2
HEADER
  9
$ACADVER
  1
AC1009
  9
$INSBASE
 10
3907.1005284734501402
 20
68.5068828595406956
 30
0.0
  9
$EXTMIN
 10
3894.6170958559628161
 20
65.1873933020396805
 30
0.0
  9
$EXTMAX
 10
3912.3692324451740205
 20
75.5219094062258307
 30
0.0
  9
$LIMMIN
 10
0.0
 20
0.0
  9
$LIMMAX
 10
11.6929133858000007
 20
8.2677165353999982
  9
$ORTHOMODE
 70
     0
  9
$REGENMODE
 70
     1
  9
$FILLMODE
 70
     1
  9
$QTEXTMODE
 70
     0
  9
$MIRRTEXT
 70
     0
  9
$DRAGMODE
 70
     2
  9
$LTSCALE
 40
0.6431102362
  9
$OSMODE
 70
  4095
  9
$ATTMODE
 70
     1
  9
$TEXTSIZE
 40
0.2
  9
$TRACEWID
 40
0.05
  9
$TEXTSTYLE
  7
STANDARD
  9
$CLAYER
  8
0
  9
$CELTYPE
  6
BYLAYER
  9
$CECOLOR
 62
   256
  9
$DIMSCALE
 40
1.0
  9
$DIMASZ
 40
0.1875
  9
$DIMEXO
 40
0.0625
  9
$DIMDLI
 40
0.4443307087
  9
$DIMRND
 40
0.0
  9
$DIMDLE
 40
0.0
  9
$DIMEXE
 40
0.125
  9
$DIMTP
 40
0.01
  9
$DIMTM
 40
0.01
  9
$DIMTXT
 40
2.0
  9
$DIMCEN
 40
0.1052362205
  9
$DIMTSZ
 40
0.0
  9
$DIMTOL
 70
     1
  9
$DIMLIM
 70
     0
  9
$DIMTIH
 70
     1
  9
$DIMTOH
 70
     1
  9
$DIMSE1
 70
     0
  9
$DIMSE2
 70
     0
  9
$DIMTAD
 70
     0
  9
$DIMZIN
 70
     0
  9
$DIMBLK
  1

  9
$DIMASO
 70
     1
  9
$DIMSHO
 70
     1
  9
$DIMPOST
  1
\X
  9
$DIMAPOST
  1

  9
$DIMALT
 70
     1
  9
$DIMALTD
 70
     2
  9
$DIMALTF
 40
25.3999999999999986
  9
$DIMLFAC
 40
1.0
  9
$DIMTOFL
 70
     0
  9
$DIMTVP
 40
0.0
  9
$DIMTIX
 70
     0
  9
$DIMSOXD
 70
     0
  9
$DIMSAH
 70
     0
  9
$DIMBLK1
  1

  9
$DIMBLK2
  1

  9
$DIMSTYLE
  2
STANDARD
  9
$DIMCLRD
 70
     0
  9
$DIMCLRE
 70
     0
  9
$DIMCLRT
 70
     0
  9
$DIMTFAC
 40
1.0
  9
$DIMGAP
 40
0.09
  9
$LUNITS
 70
     2
  9
$LUPREC
 70
     4
  9
$SKETCHINC
 40
0.1
  9
$FILLETRAD
 40
0.0
  9
$AUNITS
 70
     0
  9
$AUPREC
 70
     0
  9
$MENU
  1
.
  9
$ELEVATION
 40
0.0
  9
$PELEVATION
 40
0.0
  9
$THICKNESS
 40
0.0
  9
$LIMCHECK
 70
     0
  9
$BLIPMODE
 70
     0
  9
$CHAMFERA
 40
0.0
  9
$CHAMFERB
 40
0.0
  9
$SKPOLY
 70
     0
  9
$TDCREATE
 40
2458060.468368056230247
  9
$TDUPDATE
 40
2459070.0818750001490116
  9
$TDINDWG
 40
0.4082940972
  9
$TDUSRTIMER
 40
0.4082940972
  9
$USRTIMER
 70
     1
  9
$ANGBASE
 50
0.0
  9
$ANGDIR
 70
     0
  9
$PDMODE
 70
     0
  9
$PDSIZE
 40
0.3125
  9
$PLINEWID
 40
0.0
  9
$COORDS
 70
     1
  9
$SPLFRAME
 70
     0
  9
$SPLINETYPE
 70
     6
  9
$SPLINESEGS
 70
     8
  9
$ATTDIA
 70
     1
  9
$ATTREQ
 70
     1
  9
$HANDLING
 70
     1
  9
$HANDSEED
  5
7328
  9
$SURFTAB1
 70
     6
  9
$SURFTAB2
 70
     6
  9
$SURFTYPE
 70
     6
  9
$SURFU
 70
     6
  9
$SURFV
 70
     6
  9
$UCSNAME
  2

  9
$UCSORG
 10
0.0
 20
0.0
 30
0.0
  9
$UCSXDIR
 10
1.0
 20
0.0
 30
0.0
  9
$UCSYDIR
 10
0.0
 20
1.0
 30
0.0
  9
$PUCSNAME
  2

  9
$PUCSORG
 10
0.0
 20
0.0
 30
0.0
  9
$PUCSXDIR
 10
1.0
 20
0.0
 30
0.0
  9
$PUCSYDIR
 10
0.0
 20
1.0
 30
0.0
  9
$USERI1
 70
     0
  9
$USERI2
 70
     0
  9
$USERI3
 70
     0
  9
$USERI4
 70
     0
  9
$USERI5
 70
     0
  9
$USERR1
 40
0.0
  9
$USERR2
 40
0.0
  9
$USERR3
 40
0.0
  9
$USERR4
 40
0.0
  9
$USERR5
 40
0.0
  9
$WORLDVIEW
 70
     1
  9
$SHADEDGE
 70
     3
  9
$SHADEDIF
 70
    70
  9
$TILEMODE
 70
     1
  9
$MAXACTVP
 70
    64
  9
$PLIMCHECK
 70
     0
  9
$PEXTMIN
 10
1.0000000000000000E+20
 20
1.0000000000000000E+20
 30
1.0000000000000000E+20
  9
$PEXTMAX
 10
-1.0000000000000000E+20
 20
-1.0000000000000000E+20
 30
-1.0000000000000000E+20
  9
$PLIMMIN
 10
0.0
 20
0.0
  9
$PLIMMAX
 10
12.0
 20
9.0
  9
$UNITMODE
 70
     0
  9
$VISRETAIN
 70
     1
  9
$PLINEGEN
 70
     0
  9
$PSLTSCALE
 70
     1
  0
ENDSEC
  0
SECTION
  2
TABLES
  0
TABLE
  2
VPORT
 70
     1
  0
VPORT
  2
*ACTIVE
 70
     0
 10
0.0
 20
0.0
 11
1.0
 21
1.0
 12
118.9082894495247018
 22
-52.9212440694821566
 13
0.0
 23
0.0
 14
1.0
 24
1.0
 15
0.0
 25
0.0
 16
0.0
 26
0.0
 36
5.1040778033513332
 17
3792.35791015625
 27
120.1806564331053977
 37
0.0
 40
21.4186241703546507
 41
2.005224660397074
 42
50.0
 43
0.0
 44
0.0
 50
0.0
 51
0.0
 71
     0
 72
   100
 73
     1
 74
     1
 75
     0
 76
     0
 77
     0
 78
     0
  0
ENDTAB
  0
TABLE
  2
LTYPE
 70
     2
  0
LTYPE
  2
CONTINUOUS
 70
     0
  3
Solid line
 72
    65
 73
     0
 40
0.0
  0
LTYPE
  2
PHANTOM2
 70
     0
  3
___ _ _ ___ _ _ ___ _ _ ___ _ _
 72
    65
 73
     6
 40
1.25
 49
0.625
 49
-0.125
 49
0.125
 49
-0.125
 49
0.125
 49
-0.125
  0
ENDTAB
  0
TABLE
  2
LAYER
 70
     2
  0
LAYER
  2
0
 70
     0
 62
   255
  6
CONTINUOUS
  0
LAYER
  2
DEFPOINTS
 70
     0
 62
     7
  6
CONTINUOUS
  0
ENDTAB
  0
TABLE
  2
STYLE
 70
     1
  0
STYLE
  2
STANDARD
 70
     0
 40
0.0
 41
0.8
 50
0.0
 71
     0
 42
0.2
  3
txt
  4

  0
ENDTAB
  0
TABLE
  2
VIEW
 70
     0
  0
ENDTAB
  0
TABLE
  2
UCS
 70
     0
  0
ENDTAB
  0
TABLE
  2
APPID
 70
     9
  0
APPID
  2
ACAD
 70
     0
  0
APPID
  2
ACAD_MLEADERVER
 70
     0
  0
APPID
  2
ACAD_EXEMPT_FROM_CAD_STANDARDS
 70
     0
  0
APPID
  2
ACAD_NAV_VCDISPLAY
 70
     0
  0
APPID
  2
ACAECLAYERSTANDARD
 70
     0
  0
APPID
  2
ACCMTRANSPARENCY
 70
     0
  0
APPID
  2
ACAD_DSTYLE_DIMJAG
 70
     0
  0
APPID
  2
ACAD_DSTYLE_DIMTALN
 70
     0
  0
APPID
  2
ACDBATTR
 70
     0
  0
ENDTAB
  0
TABLE
  2
DIMSTYLE
 70
     1
  0
DIMSTYLE
  2
STANDARD
 70
     0
  3

  4

  5

  6

  7

 40
1.0
 41
0.1875
 42
0.0625
 43
0.38
 44
0.125
 45
0.0
 46
0.0
 47
0.01
 48
0.01
140
0.15625
141
0.09
142
0.0
143
25.3999999999999986
144
1.0
145
0.0
146
1.0
147
0.09
 71
     1
 72
     0
 73
     1
 74
     1
 75
     0
 76
     0
 77
     0
 78
     4
170
     0
171
     2
172
     0
173
     0
174
     0
175
     0
176
     0
177
     0
178
     0
  0
ENDTAB
  0
ENDSEC
  0
SECTION
  2
BLOCKS
  0
BLOCK
  8
0
  2
$MODEL_SPACE
 70
     0
 10
0.0
 20
0.0
 30
0.0
  3
$MODEL_SPACE
  1

  0
ENDBLK
  5
21
  8
0
  0
BLOCK
 67
     1
  8
0
  2
$PAPER_SPACE
 70
     0
 10
0.0
 20
0.0
 30
0.0
  3
$PAPER_SPACE
  1

  0
ENDBLK
  5
1D
 67
     1
  8
0
  0
BLOCK
  8
0
  2
_FILLED
 70
     0
 10
0.0
 20
0.0
 30
0.0
  3
_FILLED
  1

  0
SOLID
  5
69B4
  8
0
  6
BYBLOCK
 62
     0
 10
0.0
 20
0.0
 30
0.0
 11
-1.0
 21
0.1666666667
 31
0.0
 12
-1.0
 22
-0.1666666667
 32
0.0
 13
-1.0
 23
-0.1666666667
 33
0.0
  0
ENDBLK
  5
69B5
  8
0
  6
BYBLOCK
 62
     0
  0
BLOCK
  8
0
  2
A$CDFAF6206
 70
     0
 10
0.0
 20
0.0
 30
0.0
  3
A$CDFAF6206
  1

  0
LINE
  5
6A0E
  8
0
 10
7.4646650085734834
 20
10.9287685970688493
 30
0.0
 11
7.4646650085734896
 21
10.8905784766688498
 31
0.0
  0
ARC
  5
6A0F
  8
0
 10
7.7269027075262349
 20
10.8926811525838598
 30
0.0
 40
0.2622461286616791
 50
180.4593995232625048
 51
217.0214027758331099
  0
LINE
  5
6A10
  8
0
 10
9.767814609867095
 20
10.9287685970688493
 30
0.0
 11
9.767814609867095
 21
10.8905433757650094
 31
0.0
  0
ARC
  5
6A11
  8
0
 10
9.5068669568548287
 20
10.8922438613003703
 30
0.0
 40
0.2609531936261092
 50
322.8847083717149076
 51
359.6266329125650145
  0
LINE
  5
6A12
  8
0
 10
7.517522606271406
 20
10.7347792678688396
 30
0.0
 11
9.7149570120691777
 21
10.7347792678688396
 31
0.0
  0
LINE
  5
6A13
  8
0
 10
7.4646650085734834
 20
10.9287685970688493
 30
0.0
 11
9.7678146123202936
 21
10.9287685970688493
 31
0.0
  0
ARC
  5
6A14
  8
0
 10
4.0826771419203629
 20
8.527951346868889
 30
0.0
 40
4.0826771653999172
 50
13.3117747050523896
 51
32.7200330051415591
  0
ARC
  5
6A15
  8
0
 10
4.0826771460567306
 20
8.5279513475907933
 30
0.0
 40
4.0826771612084691
 50
359.6656501984817851
 51
13.3117747085593798
  0
ARC
  5
6A16
  8
0
 10
13.1498041284835097
 20
8.5279508235212234
 30
0.0
 40
4.0826788382043553
 50
147.2799733478981068
 51
166.6882233021349862
  0
ARC
  5
6A17
  8
0
 10
13.1498064934207992
 20
8.5279506557033251
 30
0.0
 40
4.0826811782395342
 50
166.688228652086309
 51
180.3343397625230011
  0
LINE
  5
6A18
  8
0
 10
8.1652847935202928
 20
8.504127000268852
 30
0.0
 11
9.0671948248202892
 21
8.5041270002687881
 31
0.0
  0
LINE
  5
6A19
  8
0
 10
8.1652847935202786
 20
8.5041270002667204
 30
0.0
 11
8.1652847935202928
 21
8.3607006934688481
 31
0.0
  0
ARC
  5
6A1A
  8
0
 10
5.6196779630382627
 20
8.3631022096452732
 30
0.0
 40
2.545607963272567
 50
342.0511668832173768
 51
359.945947387132378
  0
LINE
  5
6A1B
  8
0
 10
9.0671948248202892
 20
8.5041270002687881
 30
0.0
 11
9.0671948248202892
 21
8.2885990108688503
 31
0.0
  0
ARC
  5
6A1C
  8
0
 10
9.4521885297801163
 20
7.9614488056228501
 30
0.0
 40
0.5052201595850959
 50
139.6436242991769916
 51
174.6757930071850069
  0
ARC
  5
6A1D
  8
0
 10
9.9238413395551746
 20
8.1492417579399508
 30
0.0
 40
0.9848265662939324
 50
188.2263441834095943
 51
209.5593615864376034
  0
ARC
  5
6A1E
  8
0
 10
8.0788764238271256
 20
7.5665710856463297
 30
0.0
 40
0.0393715937169877
 50
162.1669117288323037
 51
227.2023190037006088
  0
ARC
  5
6A1F
  8
0
 10
8.7223682141740682
 20
8.2079667397440517
 30
0.0
 40
0.947895137885075
 50
225.0018610752970858
 51
261.4598823366255829
  0
ARC
  5
6A20
  8
0
 10
8.6645157662702701
 20
8.1695128573935332
 30
0.0
 40
0.9027466462812931
 50
264.7303071214498118
 51
281.8608311947915013
  0
ARC
  5
6A21
  8
0
 10
8.6645157662698935
 20
8.1695128573999671
 30
0.0
 40
0.9027466462876658
 50
299.1741886792128753
 51
299.1743179154552195
  0
ARC
  5
6A22
  8
0
 10
9.0843330931590316
 20
7.4150554710086141
 30
0.0
 40
0.0393703053609601
 50
251.9700352025496954
 51
252.4698971938937859
  0
ARC
  5
6A23
  8
0
 10
9.0843330931590316
 20
7.4150554710086141
 30
0.0
 40
0.0393703053609601
 50
297.2453716727138726
 51
6.8376113572703074
  0
LINE
  5
6A24
  8
0
 10
9.0671948248202892
 20
7.663402160468852
 30
0.0
 11
9.1234233799329516
 21
7.419742732911689
 31
0.0
  0
ARC
  5
6A25
  8
0
 10
8.8843741880892395
 20
9.8961379890094676
 30
0.0
 40
2.5255097382132701
 50
263.792800240752797
 51
274.9514951129821156
  0
ARC
  5
6A26
  8
0
 10
8.8258167405968848
 20
9.2763025889666508
 30
0.0
 40
1.9029970832759311
 50
246.0108363320686067
 51
263.5276935074397215
  0
ARC
  5
6A27
  8
0
 10
8.607491361665744
 20
8.3225444804829642
 30
0.0
 40
1.064510137163637
 50
283.1717405874071005
 51
297.7022170607311864
  0
LINE
  5
6A28
  8
0
 10
9.0671948248202892
 20
8.2885990108688503
 30
0.0
 11
26.2014378595979593
 21
8.2885990108689942
 31
0.0
  0
LINE
  5
6A29
  8
0
 10
26.2014378595979913
 20
7.6634021604689053
 30
0.0
 11
9.0671948248202892
 21
7.6634021604688618
 31
0.0
  0
LINE
  5
6A2A
  8
0
 10
27.8039676758446994
 20
10.9287685970690802
 30
0.0
 11
27.8039676758446888
 21
10.8905784766690807
 31
0.0
  0
ARC
  5
6A2B
  8
0
 10
27.5417299768919399
 20
10.8926811525840801
 30
0.0
 40
0.2622461286616791
 50
322.9785972241680838
 51
359.5406004767386889
  0
LINE
  5
6A2C
  8
0
 10
25.5008180745510913
 20
10.9287685970690305
 30
0.0
 11
25.5008180745510913
 21
10.8905433757651799
 31
0.0
  0
ARC
  5
6A2D
  8
0
 10
25.7617657275633505
 20
10.8922438613005497
 30
0.0
 40
0.2609531936261092
 50
180.3733670874362929
 51
217.1152916282862861
  0
LINE
  5
6A2E
  8
0
 10
27.7511100781467803
 20
10.7347792678690706
 30
0.0
 11
25.5536756723490015
 21
10.7347792678690208
 31
0.0
  0
LINE
  5
6A2F
  8
0
 10
27.8039676758446888
 20
10.9287685970686006
 30
0.0
 11
25.5008180745510806
 21
10.9287685970686006
 31
0.0
  0
ARC
  5
6A30
  8
0
 10
31.1859555424978616
 20
8.5279513468691981
 30
0.0
 40
4.0826771653999172
 50
147.2799669948597057
 51
166.6882252949490066
  0
ARC
  5
6A31
  8
0
 10
31.185955538361501
 20
8.5279513475911024
 30
0.0
 40
4.0826771612084691
 50
166.6882252914419098
 51
180.3343498015194086
  0
ARC
  5
6A32
  8
0
 10
22.1188285559344706
 20
8.5279508235212251
 30
0.0
 40
4.0826788382046102
 50
13.3117766978667795
 51
32.7200266521023977
  0
ARC
  5
6A33
  8
0
 10
22.1188261909974315
 20
8.5279506557034264
 30
0.0
 40
4.0826811782395342
 50
359.665660237478221
 51
13.31177134791497
  0
LINE
  5
6A34
  8
0
 10
27.1033478908979397
 20
8.5041270002690652
 30
0.0
 11
26.2014378595979416
 21
8.5041270002689835
 31
0.0
  0
LINE
  5
6A35
  8
0
 10
27.1033478908979504
 20
8.5041270002669354
 30
0.0
 11
27.1033478908979397
 21
8.3607006934690649
 31
0.0
  0
ARC
  5
6A36
  8
0
 10
29.6489547213799689
 20
8.3631022096455467
 30
0.0
 40
2.545607963272567
 50
180.0540526128687873
 51
197.9488331167837032
  0
LINE
  5
6A37
  8
0
 10
26.2014378595979416
 20
8.5041270002689835
 30
0.0
 11
26.2014378595979487
 21
8.2885990108690457
 31
0.0
  0
ARC
  5
6A38
  8
0
 10
25.8164441546381305
 20
7.9614488056230366
 30
0.0
 40
0.5052201595850959
 50
5.324206992816312
 51
40.3563757008241879
  0
ARC
  5
6A39
  8
0
 10
25.3447913448601803
 20
8.149241757940846
 30
0.0
 40
0.9848265662968968
 50
330.4406384136033807
 51
351.7736558165743759
  0
ARC
  5
6A3A
  8
0
 10
27.1897562605911212
 20
7.5665710856465473
 30
0.0
 40
0.0393715937169877
 50
312.7976809963004143
 51
17.8330882711689185
  0
ARC
  5
6A3B
  8
0
 10
26.5462644702441715
 20
8.2079667397442542
 30
0.0
 40
0.947895137885075
 50
278.5401176633754972
 51
314.9981389247041079
  0
ARC
  5
6A3C
  8
0
 10
26.6041169181479695
 20
8.1695128573937392
 30
0.0
 40
0.9027466462812931
 50
258.139168805210204
 51
275.2696928785518935
  0
ARC
  5
6A3D
  8
0
 10
26.6041169181483497
 20
8.1695128574001732
 30
0.0
 40
0.9027466462876658
 50
240.8256820845460027
 51
240.8258113207880058
  0
ARC
  5
6A3E
  8
0
 10
26.1842995912592293
 20
7.4150554710088086
 30
0.0
 40
0.0393703053609601
 50
287.5301028061073794
 51
288.0299647974517825
  0
ARC
  5
6A3F
  8
0
 10
26.1842995912592293
 20
7.4150554710088086
 30
0.0
 40
0.0393703053609601
 50
173.1623886427310026
 51
242.7546283272870085
  0
LINE
  5
6A40
  8
0
 10
26.2014378595981192
 20
7.6634021604690448
 30
0.0
 11
26.1452093044853093
 21
7.4197427329118826
 31
0.0
  0
ARC
  5
6A41
  8
0
 10
26.384258496328961
 20
9.8961379890096666
 30
0.0
 40
2.5255097382132701
 50
265.0485048870193054
 51
276.2071997592482262
  0
ARC
  5
6A42
  8
0
 10
26.4428159438213299
 20
9.2763025889668516
 30
0.0
 40
1.9029970832759311
 50
276.4723064925619838
 51
293.9891636679327007
  0
ARC
  5
6A43
  8
0
 10
26.6611413227524885
 20
8.3225444804831703
 30
0.0
 40
1.064510137163637
 50
242.2977829392704052
 51
256.8282594125943774
  0
LINE
  5
6A44
  8
0
 62
     4
 10
17.9031473532159602
 20
10.9287685970686006
 30
0.0
 11
24.6329820359843588
 21
20.0952817181593808
 31
0.0
  0
LINE
  5
6A45
  8
0
 62
     4
 10
17.9031473532159602
 20
-0.0000000300842942
 30
0.0
 11
22.3963351323106608
 21
4.993614497796286
 31
0.0
  0
ENDBLK
  5
6A49
  8
0
  0
ENDSEC
  0
SECTION
  2
ENTITIES
  0
ATTDEF
  5
3930
  8
DEFPOINTS
 10
3907.1005242351147899
 20
68.5085527094492477
 30
0.0
 40
0.001
  1
K-76691T-9
  3

  2
MODELNUMBER
 70
     0
1001
ACDBATTR
1070
     0
1070
     1
  0
ATTDEF
  5
3931
  8
DEFPOINTS
 10
3907.1005242351147899
 20
68.5068860427825825
 30
0.0
 40
0.001
  1
MODULO
  3

  2
TRADENAME
 70
     0
1001
ACDBATTR
1070
     0
1070
     1
  0
ATTDEF
  5
3932
  8
DEFPOINTS
 10
3907.1005242351147899
 20
68.5052193761159174
 30
0.0
 40
0.001
  1
VALVE TRIM
  3

  2
PRODUCT
 70
     0
1001
ACDBATTR
1070
     0
1070
     1
  0
LINE
  5
725C
  8
0
 10
3903.5572247016680194
 20
68.5068828595406814
 30
0.0
 11
3903.6057470021028166
 21
67.9522704286894168
 31
0.0
  0
LINE
  5
725D
  8
0
 10
3903.6449672657681731
 20
67.9163316783406827
 30
0.0
 11
3910.5560963108691794
 21
67.9163316783406827
 31
0.0
  0
ARC
  5
725E
  8
0
 10
3906.2540750953680799
 20
67.1683001823406869
 30
0.0
 40
0.0196850394000015
 50
180.0
 51
270.0
  0
ARC
  5
725F
  8
0
 10
3906.2533483949441688
 20
67.0815787309520317
 30
0.0
 40
0.0197923680779215
 50
90.1295442208866859
 51
179.689355904661312
  0
ARC
  5
7260
  8
0
 10
3906.4518797113141773
 20
67.0777497968064864
 30
0.0
 40
0.0196842462462488
 50
90.0327317296096368
 51
180.0005168598300997
  0
ARC
  5
7261
  8
0
 10
3906.9578160475239201
 20
66.9760037224274356
 30
0.0
 40
0.1017484619947308
 50
64.6820501659049114
 51
89.5481168905674849
  0
ARC
  5
7262
  8
0
 10
3906.905279563833119
 20
66.9198768069944379
 30
0.0
 40
0.176520728175093
 50
41.7477118941604175
 51
57.0355112153284907
  0
ARC
  5
7263
  8
0
 10
3907.0590945456929148
 20
67.033171510895798
 30
0.0
 40
0.0225188413158056
 50
100.4762996888754003
 51
169.142120273460705
  0
ARC
  5
7264
  8
0
 10
3901.0456199517070672
 20
66.3492252604410879
 30
0.0
 40
5.9906924058767359
 50
356.0182351698239813
 51
0.5583900035751227
  0
ARC
  5
7265
  8
0
 10
3906.5799970173538895
 20
65.9503289868032851
 30
0.0
 40
0.4421854402500695
 50
332.5725170748268056
 51
357.7848575264081887
  0
ARC
  5
7266
  8
0
 10
3906.3047007195050355
 20
66.5628591476555584
 30
0.0
 40
1.0713497225688611
 50
294.374511350811872
 51
303.8185928348597145
  0
ARC
  5
7267
  8
0
 10
3906.7514427388969125
 20
65.8890581158298119
 30
0.0
 40
0.2629404356424178
 50
304.6595632680256927
 51
327.2067230852154012
  0
ARC
  5
7268
  8
0
 10
3906.4592326741371835
 20
65.3905351400183719
 30
0.0
 40
0.0272922420881546
 50
172.7371063191961014
 51
256.5324214988659719
  0
ARC
  5
7269
  8
0
 10
3906.5202390964118422
 20
65.8891943120894439
 30
0.0
 40
0.5295032974109941
 50
262.6911065523618731
 51
271.5772241336944148
  0
ARC
  5
726A
  8
0
 10
3906.2962953821138399
 20
65.3824885922813195
 30
0.0
 40
0.1942653460208723
 50
259.0103774630778162
 51
268.6066274324761025
  0
ARC
  5
726B
  8
0
 10
3906.3382008663520537
 20
66.4286266359807485
 30
0.0
 40
1.241222125452855
 50
267.8470464921338134
 51
270.031308739551605
  0
ARC
  5
726C
  8
0
 10
3906.2662056609460706
 20
65.2290085449984929
 30
0.0
 40
0.0378648522521663
 50
227.7253340602914022
 51
259.4338288155939836
  0
ARC
  5
726D
  8
0
 10
3906.2576967799877821
 20
65.2181701983536044
 30
0.0
 40
0.0241419555522444
 50
179.3627174783312057
 51
225.3636409239904026
  0
ARC
  5
726E
  8
0
 10
3906.2406341098758276
 20
65.2177667517710944
 30
0.0
 40
0.0071096186300327
 50
151.2155238176459875
 51
174.5766052099280898
  0
ARC
  5
726F
  8
0
 10
3906.2513288971158545
 20
65.2119014739207898
 30
0.0
 40
0.0193071563914355
 50
135.6866444919126025
 51
151.2427249684992887
  0
ARC
  5
7270
  8
0
 10
3906.322728958452899
 20
65.1376622528977833
 30
0.0
 40
0.1223011930117374
 50
122.299973945599902
 51
134.1678484835784104
  0
ARC
  5
7271
  8
0
 10
3882.1382979843920111
 20
103.8075893621814032
 30
0.0
 40
45.4874575839886788
 50
302.0213892021653237
 51
302.3122928087029209
  0
ARC
  5
7272
  8
0
 10
3908.4857656324470554
 20
62.4805347508533515
 30
0.0
 40
3.5600531393843391
 50
119.2389715138273942
 51
125.2318628862648069
  0
ARC
  5
7273
  8
0
 10
3903.6449672659809949
 20
67.9557017573066133
 30
0.0
 40
0.0393700789659268
 50
185.0000002182794105
 51
269.9999996906738033
  0
LINE
  5
7274
  8
0
 10
3906.234390055968106
 20
67.9163316783406827
 30
0.0
 11
3906.234390055968106
 21
67.1683001823406869
 31
0.0
  0
LINE
  5
7275
  8
0
 10
3906.3229727331681715
 20
67.1486151429406846
 30
0.0
 11
3906.3229727331681715
 21
67.1013710484406829
 31
0.0
  0
LINE
  5
7276
  8
0
 10
3906.2533036449699466
 20
67.1013710484406829
 30
0.0
 11
3906.5198231268677773
 21
67.1013710484406829
 31
0.0
  0
LINE
  5
7277
  8
0
 10
3906.5198231268677773
 20
67.1486151429406846
 30
0.0
 11
3906.5198231268677773
 21
67.0974340398406923
 31
0.0
  0
LINE
  5
7278
  8
0
 10
3906.4321954650690714
 20
67.0777496192367551
 30
0.0
 11
3906.9586185138678047
 21
67.0777490199406827
 31
0.0
  0
LINE
  5
7279
  8
0
 10
3906.2335563177689437
 20
67.0816860399406636
 30
0.0
 11
3906.2335563177689437
 21
65.218438716021339
 31
0.0
  0
LINE
  5
727A
  8
0
 10
3907.0369788488678751
 20
67.0374134642406858
 30
0.0
 11
3907.0360278632688278
 21
66.4076080912406894
 31
0.0
  0
LINE
  5
727B
  8
0
 10
3910.6438388748679245
 20
68.5068828595406814
 30
0.0
 11
3910.5953165744331272
 21
67.9522704286894168
 31
0.0
  0
ARC
  5
727C
  8
0
 10
3907.9469884762879701
 20
67.1683001843621668
 30
0.0
 40
0.0196850442802794
 50
269.969121121837702
 51
359.9999941162404866
  0
ARC
  5
727D
  8
0
 10
3907.9477151815931393
 20
67.0815787309520317
 30
0.0
 40
0.0197923680779215
 50
0.3106440953382635
 51
89.8704557791133283
  0
ARC
  5
727E
  8
0
 10
3907.7491582780990029
 20
67.0776880992025895
 30
0.0
 40
0.0197459749898355
 50
0.1764351111160046
 51
89.8931258252832492
  0
ARC
  5
727F
  8
0
 10
3907.2432475290129332
 20
66.9760037224274356
 30
0.0
 40
0.1017484619947308
 50
90.4518831094325151
 51
115.3179498340951028
  0
ARC
  5
7280
  8
0
 10
3907.2957840127041891
 20
66.9198768069942815
 30
0.0
 40
0.1765207281752963
 50
122.9644887846739039
 51
138.2522881058337987
  0
ARC
  5
7281
  8
0
 10
3907.1419690308439385
 20
67.033171510895798
 30
0.0
 40
0.0225188413158101
 50
10.8578797265636506
 51
79.5237003110987644
  0
ARC
  5
7282
  8
0
 10
3913.1554436248288766
 20
66.3492252604410879
 30
0.0
 40
5.9906924058767359
 50
179.4416099964244893
 51
183.9817648301759903
  0
ARC
  5
7283
  8
0
 10
3907.6210665591820543
 20
65.9503289868032851
 30
0.0
 40
0.4421854402500695
 50
182.2151424735912997
 51
207.4274829251727965
  0
ARC
  5
7284
  8
0
 10
3907.8963628570309083
 20
66.5628591476554732
 30
0.0
 40
1.071349722568768
 50
236.1814071651402003
 51
245.6254886491879859
  0
ARC
  5
7285
  8
0
 10
3907.4496208376399409
 20
65.8890581158298119
 30
0.0
 40
0.2629404356424178
 50
212.7932769147842009
 51
235.3404367319743073
  0
ARC
  5
7286
  8
0
 10
3907.7418309023992151
 20
65.3905351400183719
 30
0.0
 40
0.0272922420881546
 50
283.4675785011339144
 51
7.2628936808043134
  0
ARC
  5
7287
  8
0
 10
3907.684693886092191
 20
65.8475189490809072
 30
0.0
 40
0.4876764958238926
 50
268.7753345080943177
 51
277.4808849783353253
  0
ARC
  5
7288
  8
0
 10
3907.9047681944230135
 20
65.3824885922813195
 30
0.0
 40
0.1942653460208723
 50
271.3933725675238975
 51
280.9896225369221838
  0
ARC
  5
7289
  8
0
 10
3907.8619588694600679
 20
66.4609025165077725
 30
0.0
 40
1.2735092148545031
 50
270.0014114365599198
 51
272.1390373022970266
  0
ARC
  5
728A
  8
0
 10
3907.9348579155907828
 20
65.2290085449984929
 30
0.0
 40
0.0378648522521663
 50
280.5661711844059027
 51
312.2746659397084272
  0
ARC
  5
728B
  8
0
 10
3907.9433667965490713
 20
65.2181701983536044
 30
0.0
 40
0.0241419555522444
 50
314.6363590760096258
 51
0.637282521668835
  0
ARC
  5
728C
  8
0
 10
3907.9604294666610258
 20
65.2177667517710944
 30
0.0
 40
0.0071096186300327
 50
5.4233947900718311
 51
28.7844761823539486
  0
ARC
  5
728D
  8
0
 10
3907.9497346794209989
 20
65.2119014739207898
 30
0.0
 40
0.0193071563914355
 50
28.7572750315010488
 51
44.3133555080873691
  0
ARC
  5
728E
  8
0
 10
3907.8783346180839544
 20
65.1376622528977833
 30
0.0
 40
0.1223011930117374
 50
45.8321515164215967
 51
57.700026054400098
  0
ARC
  5
728F
  8
0
 10
3932.0627655921439327
 20
103.8075893621814032
 30
0.0
 40
45.4874575839886788
 50
237.6877071912971076
 51
237.9786107978345058
  0
ARC
  5
7290
  8
0
 10
3905.715297944089798
 20
62.4805347508533515
 30
0.0
 40
3.5600531393843391
 50
54.7681371137351576
 51
60.7610284861725205
  0
ARC
  5
7291
  8
0
 10
3910.5560963105558585
 20
67.9557017573066133
 30
0.0
 40
0.0393700789659268
 50
270.0000003093261967
 51
354.9999997817205895
  0
LINE
  5
7292
  8
0
 10
3907.9666735205692021
 20
67.9163316783406827
 30
0.0
 11
3907.9666735205692021
 21
67.1683001823406869
 31
0.0
  0
LINE
  5
7293
  8
0
 10
3907.8780908433682271
 20
67.1486151429406846
 30
0.0
 11
3907.8780908433682271
 21
67.1013710484406829
 31
0.0
  0
LINE
  5
7294
  8
0
 10
3907.9477599315678162
 20
67.1013710484406829
 30
0.0
 11
3907.681240449669076
 21
67.1013710484406829
 31
0.0
  0
LINE
  5
7295
  8
0
 10
3907.681240449669076
 20
67.1486151429406846
 30
0.0
 11
3907.681240449669076
 21
67.0974340398406923
 31
0.0
  0
LINE
  5
7296
  8
0
 10
3907.768904159468093
 20
67.0777489043406945
 30
0.0
 11
3907.2424450626690486
 21
67.0777490199406827
 31
0.0
  0
LINE
  5
7297
  8
0
 10
3907.9675072587688192
 20
67.0816860399406636
 30
0.0
 11
3907.9675072587688192
 21
65.218438716021339
 31
0.0
  0
LINE
  5
7298
  8
0
 10
3907.1640847276680688
 20
67.0374134642406858
 30
0.0
 11
3907.1650357132680256
 21
66.4076080912406894
 31
0.0
  0
LINE
  5
7299
  8
0
 10
3903.5572247016680194
 20
68.5068828595406956
 30
0.0
 11
3910.6438388748679245
 21
68.5068828595406956
 31
0.0
  0
LINE
  5
729A
  8
0
 10
3906.431242659938107
 20
67.1683001823406869
 30
0.0
 11
3906.4509254890681405
 21
67.1486151429406846
 31
0.0
  0
LINE
  5
729B
  8
0
 10
3906.2540750953680799
 20
67.1486151429406846
 30
0.0
 11
3907.9469778672678331
 21
67.1486151429406846
 31
0.0
  0
LINE
  5
729C
  8
0
 10
3906.431242659938107
 20
67.9163316783406827
 30
0.0
 11
3906.431242659938107
 21
67.1683001823406869
 31
0.0
  0
LINE
  5
729D
  8
0
 10
3907.7698219410540332
 20
67.9163316783406827
 30
0.0
 11
3907.7698219410540332
 21
67.1683001823406869
 31
0.0
  0
LINE
  5
729E
  8
0
 10
3907.7698219410540332
 20
67.1683001823406869
 30
0.0
 11
3907.7501380874678034
 21
67.1486151429406846
 31
0.0
  0
LINE
  5
729F
  8
0
 10
3906.4518684661679799
 20
67.0974340398406923
 30
0.0
 11
3907.7491951103688734
 21
67.0974340398406923
 31
0.0
  0
LINE
  5
72A0
  8
0
 10
3907.0549999720678898
 20
67.055314967740685
 30
0.0
 11
3907.1460636044680541
 21
67.055314967740685
 31
0.0
  0
LINE
  5
72A1
  8
0
 10
3906.5348132921881188
 20
65.359891624786087
 30
0.0
 11
3907.6742708653191585
 21
65.3599538506406788
 31
0.0
  0
LINE
  5
72A2
  8
0
 10
3906.3388791204688459
 20
65.1874046958406836
 30
0.0
 11
3907.8619902413602176
 21
65.1873933020396805
 31
0.0
  0
LINE
  5
72A3
  8
0
 10
3906.4321594106691009
 20
65.3939854854135518
 30
0.0
 11
3906.4321954650690714
 21
67.0777496192367551
 31
0.0
  0
LINE
  5
72A4
  8
0
 10
3907.768904159468093
 20
67.0777489043406945
 30
0.0
 11
3907.7689041658682072
 21
65.3939854854135518
 31
0.0
  0
ENDSEC
  0
EOF
