  0
SECTION
  2
HEADER
  9
$ACADVER
  1
AC1009
  9
$INSBASE
 10
546.1859204745210263
 20
71.6040988190103604
 30
0.0
  9
$EXTMIN
 10
543.8144779506468467
 20
61.9731833989380618
 30
-0.0000000349181948
  9
$EXTMAX
 10
552.5399236552805178
 20
71.6111460405074638
 30
0.0000000814935746
  9
$LIMMIN
 10
0.0
 20
0.0
  9
$LIMMAX
 10
11.6929133858000007
 20
8.2677165353999982
  9
$ORTHOMODE
 70
     0
  9
$REGENMODE
 70
     1
  9
$FILLMODE
 70
     1
  9
$QTEXTMODE
 70
     0
  9
$MIRRTEXT
 70
     0
  9
$DRAGMODE
 70
     2
  9
$LTSCALE
 40
0.6431102362
  9
$OSMODE
 70
  4095
  9
$ATTMODE
 70
     1
  9
$TEXTSIZE
 40
0.2
  9
$TRACEWID
 40
0.05
  9
$TEXTSTYLE
  7
STANDARD
  9
$CLAYER
  8
0
  9
$CELTYPE
  6
BYLAYER
  9
$CECOLOR
 62
   256
  9
$DIMSCALE
 40
1.0
  9
$DIMASZ
 40
0.1875
  9
$DIMEXO
 40
0.0625
  9
$DIMDLI
 40
0.4443307087
  9
$DIMRND
 40
0.0
  9
$DIMDLE
 40
0.0
  9
$DIMEXE
 40
0.125
  9
$DIMTP
 40
0.01
  9
$DIMTM
 40
0.01
  9
$DIMTXT
 40
1.0
  9
$DIMCEN
 40
0.1052362205
  9
$DIMTSZ
 40
0.0
  9
$DIMTOL
 70
     1
  9
$DIMLIM
 70
     0
  9
$DIMTIH
 70
     0
  9
$DIMTOH
 70
     1
  9
$DIMSE1
 70
     0
  9
$DIMSE2
 70
     0
  9
$DIMTAD
 70
     0
  9
$DIMZIN
 70
     0
  9
$DIMBLK
  1

  9
$DIMASO
 70
     1
  9
$DIMSHO
 70
     1
  9
$DIMPOST
  1
\X
  9
$DIMAPOST
  1

  9
$DIMALT
 70
     1
  9
$DIMALTD
 70
     2
  9
$DIMALTF
 40
25.3999999999999986
  9
$DIMLFAC
 40
1.0
  9
$DIMTOFL
 70
     0
  9
$DIMTVP
 40
0.0
  9
$DIMTIX
 70
     0
  9
$DIMSOXD
 70
     0
  9
$DIMSAH
 70
     0
  9
$DIMBLK1
  1

  9
$DIMBLK2
  1

  9
$DIMSTYLE
  2
STANDARD
  9
$DIMCLRD
 70
     0
  9
$DIMCLRE
 70
     0
  9
$DIMCLRT
 70
     0
  9
$DIMTFAC
 40
1.0
  9
$DIMGAP
 40
0.09
  9
$LUNITS
 70
     2
  9
$LUPREC
 70
     4
  9
$SKETCHINC
 40
0.1
  9
$FILLETRAD
 40
0.0
  9
$AUNITS
 70
     0
  9
$AUPREC
 70
     0
  9
$MENU
  1
.
  9
$ELEVATION
 40
0.0
  9
$PELEVATION
 40
0.0
  9
$THICKNESS
 40
0.0
  9
$LIMCHECK
 70
     0
  9
$BLIPMODE
 70
     0
  9
$CHAMFERA
 40
0.0
  9
$CHAMFERB
 40
0.0
  9
$SKPOLY
 70
     0
  9
$TDCREATE
 40
2458171.8957638889551163
  9
$TDUPDATE
 40
2459047.313993054907769
  9
$TDINDWG
 40
0.3224659954
  9
$TDUSRTIMER
 40
0.3224659954
  9
$USRTIMER
 70
     1
  9
$ANGBASE
 50
0.0
  9
$ANGDIR
 70
     0
  9
$PDMODE
 70
     0
  9
$PDSIZE
 40
0.3125
  9
$PLINEWID
 40
0.0
  9
$COORDS
 70
     1
  9
$SPLFRAME
 70
     0
  9
$SPLINETYPE
 70
     6
  9
$SPLINESEGS
 70
     8
  9
$ATTDIA
 70
     1
  9
$ATTREQ
 70
     1
  9
$HANDLING
 70
     1
  9
$HANDSEED
  5
8CAE
  9
$SURFTAB1
 70
     6
  9
$SURFTAB2
 70
     6
  9
$SURFTYPE
 70
     6
  9
$SURFU
 70
     6
  9
$SURFV
 70
     6
  9
$UCSNAME
  2

  9
$UCSORG
 10
0.0
 20
0.0
 30
0.0
  9
$UCSXDIR
 10
1.0
 20
0.0
 30
0.0
  9
$UCSYDIR
 10
0.0
 20
1.0
 30
0.0
  9
$PUCSNAME
  2

  9
$PUCSORG
 10
0.0
 20
0.0
 30
0.0
  9
$PUCSXDIR
 10
1.0
 20
0.0
 30
0.0
  9
$PUCSYDIR
 10
0.0
 20
1.0
 30
0.0
  9
$USERI1
 70
     0
  9
$USERI2
 70
     0
  9
$USERI3
 70
     0
  9
$USERI4
 70
     0
  9
$USERI5
 70
     0
  9
$USERR1
 40
0.0
  9
$USERR2
 40
0.0
  9
$USERR3
 40
0.0
  9
$USERR4
 40
0.0
  9
$USERR5
 40
0.0
  9
$WORLDVIEW
 70
     1
  9
$SHADEDGE
 70
     3
  9
$SHADEDIF
 70
    70
  9
$TILEMODE
 70
     1
  9
$MAXACTVP
 70
    64
  9
$PLIMCHECK
 70
     0
  9
$PEXTMIN
 10
1.0000000000000000E+20
 20
1.0000000000000000E+20
 30
1.0000000000000000E+20
  9
$PEXTMAX
 10
-1.0000000000000000E+20
 20
-1.0000000000000000E+20
 30
-1.0000000000000000E+20
  9
$PLIMMIN
 10
0.0
 20
0.0
  9
$PLIMMAX
 10
12.0
 20
9.0
  9
$UNITMODE
 70
     0
  9
$VISRETAIN
 70
     1
  9
$PLINEGEN
 70
     0
  9
$PSLTSCALE
 70
     1
  0
ENDSEC
  0
SECTION
  2
TABLES
  0
TABLE
  2
VPORT
 70
     1
  0
VPORT
  2
*ACTIVE
 70
     0
 10
0.0
 20
0.0
 11
1.0
 21
1.0
 12
81.4349990951336622
 22
-22.3409824002070287
 13
0.0
 23
0.0
 14
1.0
 24
1.0
 15
0.0
 25
0.0
 16
0.0
 26
0.0
 36
24.1179433675886514
 17
466.74220170783002
 27
89.133147119929788
 37
0.0
 40
9.7543140850486054
 41
2.5847619047619039
 42
50.0
 43
0.0
 44
0.0
 50
0.0
 51
0.0
 71
     0
 72
   100
 73
     1
 74
     1
 75
     0
 76
     0
 77
     0
 78
     0
  0
ENDTAB
  0
TABLE
  2
LTYPE
 70
     2
  0
LTYPE
  2
CONTINUOUS
 70
     0
  3
Solid line
 72
    65
 73
     0
 40
0.0
  0
LTYPE
  2
PHANTOM2
 70
     0
  3
___ _ _ ___ _ _ ___ _ _ ___ _ _
 72
    65
 73
     6
 40
1.25
 49
0.625
 49
-0.125
 49
0.125
 49
-0.125
 49
0.125
 49
-0.125
  0
ENDTAB
  0
TABLE
  2
LAYER
 70
     2
  0
LAYER
  2
0
 70
     0
 62
   255
  6
CONTINUOUS
  0
LAYER
  2
DEFPOINTS
 70
     0
 62
     7
  6
CONTINUOUS
  0
ENDTAB
  0
TABLE
  2
STYLE
 70
     1
  0
STYLE
  2
STANDARD
 70
     0
 40
0.0
 41
0.8
 50
0.0
 71
     0
 42
0.2
  3
txt
  4

  0
ENDTAB
  0
TABLE
  2
VIEW
 70
     0
  0
ENDTAB
  0
TABLE
  2
UCS
 70
     0
  0
ENDTAB
  0
TABLE
  2
APPID
 70
    10
  0
APPID
  2
ACAD
 70
     0
  0
APPID
  2
ACAD_MLEADERVER
 70
     0
  0
APPID
  2
ACAD_EXEMPT_FROM_CAD_STANDARDS
 70
     0
  0
APPID
  2
ACAD_DSTYLE_DIMJAG
 70
     0
  0
APPID
  2
ACAD_DSTYLE_DIMTALN
 70
     0
  0
APPID
  2
ACAD_NAV_VCDISPLAY
 70
     0
  0
APPID
  2
ACAECLAYERSTANDARD
 70
     0
  0
APPID
  2
ACCMTRANSPARENCY
 70
     0
  0
APPID
  2
DCO15
 70
     0
  0
APPID
  2
ACDBATTR
 70
     0
  0
ENDTAB
  0
TABLE
  2
DIMSTYLE
 70
     1
  0
DIMSTYLE
  2
STANDARD
 70
     0
  3

  4

  5

  6

  7

 40
1.0
 41
0.1875
 42
0.0625
 43
0.38
 44
0.125
 45
0.0
 46
0.0
 47
0.01
 48
0.01
140
0.15625
141
0.09
142
0.0
143
25.3999999999999986
144
1.0
145
0.0
146
1.0
147
0.09
 71
     1
 72
     0
 73
     1
 74
     1
 75
     0
 76
     0
 77
     0
 78
     4
170
     0
171
     2
172
     0
173
     0
174
     0
175
     0
176
     0
177
     0
178
     0
  0
ENDTAB
  0
ENDSEC
  0
SECTION
  2
BLOCKS
  0
BLOCK
  8
0
  2
$MODEL_SPACE
 70
     0
 10
0.0
 20
0.0
 30
0.0
  3
$MODEL_SPACE
  1

  0
ENDBLK
  5
21
  8
0
  0
BLOCK
 67
     1
  8
0
  2
$PAPER_SPACE
 70
     0
 10
0.0
 20
0.0
 30
0.0
  3
$PAPER_SPACE
  1

  0
ENDBLK
  5
1D
 67
     1
  8
0
  0
ENDSEC
  0
SECTION
  2
ENTITIES
  0
ATTDEF
  5
829
  8
DEFPOINTS
 10
546.1827042225088462
 20
71.6098694085959409
 30
0.0
 40
0.001
  1
K-76695T-4ND
  3

  2
MODELNUMBER
 70
     0
1001
ACDBATTR
1070
     0
1070
     1
  0
ATTDEF
  5
82A
  8
DEFPOINTS
 10
546.1827042225088462
 20
71.6082027419292757
 30
0.0
 40
0.001
  1
STANCE
  3

  2
TRADENAME
 70
     0
1001
ACDBATTR
1070
     0
1070
     1
  0
ATTDEF
  5
82B
  8
DEFPOINTS
 10
546.1827042225088462
 20
71.6065360752626106
 30
0.0
 40
0.001
  1
BATHROOM SINK FAUCET
  3

  2
PRODUCT
 70
     0
1001
ACDBATTR
1070
     0
1070
     1
  0
LINE
  5
8B72
  8
0
 10
547.0520622067709837
 20
61.9781145670103513
 30
0.0
 11
545.3197787422709553
 21
61.9781145670103513
 31
0.0
  0
LINE
  5
8B73
  8
0
 10
543.8442131455709614
 20
71.6040988190103604
 30
0.0
 11
543.853884960672076
 21
71.3271342718799843
 31
0.0
  0
LINE
  5
8B74
  8
0
 10
545.1229283485710084
 20
62.174964960710362
 30
0.0
 11
545.1229283485710084
 21
71.2891381890103588
 31
0.0
  0
LINE
  5
8B75
  8
0
 10
547.2489126004710442
 20
71.2891381890103588
 30
0.0
 11
547.2489126004710442
 21
62.174964960710362
 31
0.0
  0
LINE
  5
8B76
  8
0
 10
549.3000937028709814
 20
69.7324452757103614
 30
0.0
 11
549.3000937028709814
 21
70.7841990959230429
 31
0.0
  0
LINE
  5
8B77
  8
0
 10
551.0717472461710713
 20
69.7324452757103614
 30
0.0
 11
551.0717472461710713
 21
70.7931027294112454
 31
0.0
  0
LINE
  5
8B78
  8
0
 10
549.3197787422709553
 20
69.7127602363103591
 30
0.0
 11
551.0520622067709837
 21
69.7127602363103591
 31
0.0
  0
LINE
  5
8B79
  8
0
 10
551.0559980481123148
 20
70.8151224410103595
 30
0.0
 11
551.0050140394708933
 21
70.8151224410103595
 31
0.0
  0
LINE
  5
8B7A
  8
0
 10
549.260723624171078
 20
70.9056736221103563
 30
0.0
 11
551.1111173248710884
 21
70.9056736221103563
 31
0.0
  0
LINE
  5
8B7B
  8
0
 10
552.517955988373501
 20
71.3271342718803538
 30
0.0
 11
552.5276278034709776
 21
71.6040988190103604
 31
0.0
  0
LINE
  5
8B7C
  8
0
 10
543.8932310561709755
 20
71.2891381890103588
 30
0.0
 11
552.4786098928710771
 21
71.2891381890103588
 31
0.0
  0
LINE
  5
8B7D
  8
0
 10
543.8442131455709614
 20
71.6040988190103604
 30
0.0
 11
552.5276278034709776
 21
71.6040988190103604
 31
0.0
  0
ARC
  5
8B7E
  8
0
 10
550.1859204744710041
 20
70.819481040810345
 30
0.0
 40
0.8070866141999999
 50
350.1167170251525818
 51
356.2868003202999034
  0
ARC
  5
8B7F
  8
0
 10
547.0520622067709837
 20
62.174964960710362
 30
0.0
 40
0.1968503937
 50
270.0
 51
0.0
  0
ARC
  5
8B80
  8
0
 10
545.3197787422709553
 20
62.174964960710362
 30
0.0
 40
0.1968503937
 50
180.0
 51
270.0
  0
ARC
  5
8B81
  8
0
 10
551.1091750822710083
 20
70.7595632535103647
 30
0.0
 40
0.1181102362
 50
132.0773620824018906
 51
176.2868003202999034
  0
ARC
  5
8B82
  8
0
 10
549.2626658667710444
 20
70.7595632535103647
 30
0.0
 40
0.1181102362
 50
3.047158515316037
 51
47.9226379175980313
  0
ARC
  5
8B83
  8
0
 10
549.394581891870871
 20
70.9056736221103563
 30
0.0
 40
0.0787401575
 50
180.0
 51
227.9226379177989941
  0
ARC
  5
8B84
  8
0
 10
550.9772590571709543
 20
70.9056736221103563
 30
0.0
 40
0.0787401575
 50
312.0773620822009775
 51
0.0
  0
ARC
  5
8B85
  8
0
 10
543.8932310561709755
 20
71.3285082678103635
 30
0.0
 40
0.0393700787
 50
181.999999998624304
 51
270.0
  0
ARC
  5
8B86
  8
0
 10
552.4786098928710771
 20
71.3285082678103635
 30
0.0
 40
0.0393700787
 50
270.0
 51
358.0000000021000801
  0
ARC
  5
8B87
  8
0
 10
549.3197787422709553
 20
69.7324452757103614
 30
0.0
 40
0.0196850394
 50
180.0
 51
270.0
  0
ARC
  5
8B88
  8
0
 10
551.0520622067709837
 20
69.7324452757103614
 30
0.0
 40
0.0196850394
 50
270.0
 51
0.0
  0
ARC
  5
8B89
  8
0
 10
551.1111173248673367
 20
70.9253586615192262
 30
0.0
 40
0.0196850394088593
 50
270.0000000106825837
 51
0.0
  0
ARC
  5
8B8A
  8
0
 10
549.260723624171078
 20
70.9253586615103586
 30
0.0
 40
0.0196850394
 50
180.0
 51
270.0
  0
LINE
  5
8B8B
  8
0
 10
549.3158337327298568
 20
70.8151224410103595
 30
0.0
 11
549.3668925647881451
 21
70.8151224410103595
 31
0.0
  0
ARC
  5
8B8C
  8
0
 10
549.348310333551126
 20
70.7887005667484885
 30
0.0
 40
0.0484263018796294
 50
154.6837087803450004
 51
185.3336337357577861
  0
ARC
  5
8B8D
  8
0
 10
549.3155929953253462
 20
70.8015703325258841
 30
0.0
 40
0.0135542465257858
 50
88.9823143236897067
 51
144.6708956323255961
  0
ARC
  5
8B8E
  8
0
 10
550.1732252689877214
 20
72.0372063999869141
 30
0.0
 40
1.614509366499649
 50
253.4095763575822957
 51
270.4503699701970731
  0
ARC
  5
8B8F
  8
0
 10
549.9464996804847488
 20
71.2762059802849848
 30
0.0
 40
0.8204526108023118
 50
230.1015280799084053
 51
253.4095763575822957
  0
ARC
  5
8B90
  8
0
 10
549.6501507576890617
 20
70.8745189376131464
 30
0.0
 40
0.3236201989629937
 50
198.8743452614120031
 51
224.7291275981282865
  0
ARC
  5
8B91
  8
0
 10
549.5061168214169811
 20
70.8087728888361596
 30
0.0
 40
0.1667951881145471
 50
183.8592165834020875
 51
193.501944779635096
  0
ARC
  5
8B92
  8
0
 10
549.3480486345514464
 20
70.7981099120925137
 30
0.0
 40
0.0083677574973396
 50
119.4969933184045061
 51
183.8592165834058108
  0
LINE
  5
8B93
  8
0
 10
549.343928535803002
 20
70.8053930537103611
 30
0.0
 11
549.3715219980124402
 21
70.8053930537103611
 31
0.0
  0
ARC
  5
8B94
  8
0
 10
549.5659589035866475
 20
70.824940245844914
 30
0.0
 40
0.2682140159821223
 50
187.3166193857454971
 51
231.2713394402877043
  0
ARC
  5
8B95
  8
0
 10
549.932055182904719
 20
71.2785133199869847
 30
0.0
 40
0.8510981952227767
 50
231.1482878040366984
 51
257.9438735446918258
  0
ARC
  5
8B96
  8
0
 10
550.1595020490582328
 20
72.042771545663328
 30
0.0
 40
1.647203863804501
 50
255.7589394941811065
 51
267.0655282993523087
  0
ARC
  5
8B97
  8
0
 10
550.2020466944652526
 20
72.8727324784656503
 30
0.0
 40
2.478254522206814
 50
267.0655282993523087
 51
269.6270627129975992
  0
ARC
  5
8B98
  8
0
 10
551.023521447290932
 20
70.7887005667484885
 30
0.0
 40
0.0484263018796294
 50
5.2156371940376172
 51
25.3162912196553513
  0
ARC
  5
8B99
  8
0
 10
551.056238785516598
 20
70.8015703325258841
 30
0.0
 40
0.0135542465257858
 50
35.3291043676744181
 51
91.0176856759975976
  0
ARC
  5
8B9A
  8
0
 10
550.1986065118543365
 20
72.0372063999869141
 30
0.0
 40
1.614509366499649
 50
269.5496300298029269
 51
286.5904236424177043
  0
ARC
  5
8B9B
  8
0
 10
550.4253321003573092
 20
71.2762059802849848
 30
0.0
 40
0.8204526108023118
 50
286.5904236424177043
 51
309.898471920091481
  0
ARC
  5
8B9C
  8
0
 10
550.7216810231527688
 20
70.8745189376131464
 30
0.0
 40
0.3236201989629937
 50
315.2708724018717135
 51
341.1256547385879117
  0
ARC
  5
8B9D
  8
0
 10
550.8657149594250768
 20
70.8087728888361596
 30
0.0
 40
0.1667951881145471
 50
346.498055220364904
 51
356.1407834165977988
  0
ARC
  5
8B9E
  8
0
 10
551.0237831462903841
 20
70.7981099120925137
 30
0.0
 40
0.0083677574973396
 50
356.1407834165942177
 51
60.5030066815954086
  0
LINE
  5
8B9F
  8
0
 10
551.0279032450390559
 20
70.8053930537103611
 30
0.0
 11
551.000309782829504
 21
70.8053930537103611
 31
0.0
  0
ARC
  5
8BA0
  8
0
 10
550.8058728772554105
 20
70.824940245844914
 30
0.0
 40
0.2682140159821223
 50
308.7286605597122957
 51
352.4266456996032275
  0
ARC
  5
8BA1
  8
0
 10
550.4397765979373389
 20
71.2785133199869847
 30
0.0
 40
0.8510981952227767
 50
282.0561264553081742
 51
308.8517121959632732
  0
ARC
  5
8BA2
  8
0
 10
550.2123297317838251
 20
72.042771545663328
 30
0.0
 40
1.647203863804501
 50
272.9344717006475776
 51
284.2410605058188935
  0
ARC
  5
8BA3
  8
0
 10
550.1697850863766917
 20
72.8727324784656503
 30
0.0
 40
2.478254522206814
 50
270.3729372870024008
 51
272.9344717006475776
  0
ARC
  5
8BA4
  8
0
 10
550.1859113063710538
 20
70.819481040810345
 30
0.0
 40
0.8070866141999999
 50
183.8107091165790052
 51
189.8832829748469919
  0
LINE
  5
8BA6
  8
0
 10
551.1308023642761782
 20
70.9253586615192262
 30
0.0
 11
551.1308023642761782
 21
71.2891381890103588
 31
0.0
  0
LINE
  5
8BA7
  8
0
 10
549.2410385846658301
 20
70.9253586615103586
 30
0.0
 11
549.2410385846658301
 21
71.2891381890103588
 31
0.0
  0
ENDSEC
  0
EOF
