  0
SECTION
  2
HEADER
  9
$ACADVER
  1
AC1009
  9
$INSBASE
 10
4428.2195566525197137
 20
238.6450616369199906
 30
0.0
  9
$EXTMIN
 10
4426.7466189559872873
 20
238.6402636225905951
 30
-0.0015258207003583
  9
$EXTMAX
 10
4438.8935449571563367
 20
248.3368009356701975
 30
0.0000000349246037
  9
$LIMMIN
 10
0.0
 20
0.0
  9
$LIMMAX
 10
11.6929133858000007
 20
8.2677165353999982
  9
$ORTHOMODE
 70
     0
  9
$REGENMODE
 70
     1
  9
$FILLMODE
 70
     1
  9
$QTEXTMODE
 70
     0
  9
$MIRRTEXT
 70
     0
  9
$DRAGMODE
 70
     2
  9
$LTSCALE
 40
0.6431102362
  9
$OSMODE
 70
     7
  9
$ATTMODE
 70
     1
  9
$TEXTSIZE
 40
0.2
  9
$TRACEWID
 40
0.05
  9
$TEXTSTYLE
  7
STANDARD
  9
$CLAYER
  8
0
  9
$CELTYPE
  6
BYLAYER
  9
$CECOLOR
 62
   256
  9
$DIMSCALE
 40
1.0
  9
$DIMASZ
 40
0.1875
  9
$DIMEXO
 40
0.0625
  9
$DIMDLI
 40
0.4443307087
  9
$DIMRND
 40
0.0
  9
$DIMDLE
 40
0.0
  9
$DIMEXE
 40
0.125
  9
$DIMTP
 40
0.01
  9
$DIMTM
 40
0.01
  9
$DIMTXT
 40
2.0
  9
$DIMCEN
 40
0.1052362205
  9
$DIMTSZ
 40
0.0
  9
$DIMTOL
 70
     1
  9
$DIMLIM
 70
     0
  9
$DIMTIH
 70
     1
  9
$DIMTOH
 70
     1
  9
$DIMSE1
 70
     0
  9
$DIMSE2
 70
     0
  9
$DIMTAD
 70
     0
  9
$DIMZIN
 70
     0
  9
$DIMBLK
  1

  9
$DIMASO
 70
     1
  9
$DIMSHO
 70
     1
  9
$DIMPOST
  1
\X
  9
$DIMAPOST
  1

  9
$DIMALT
 70
     1
  9
$DIMALTD
 70
     2
  9
$DIMALTF
 40
25.3999999999999986
  9
$DIMLFAC
 40
1.0
  9
$DIMTOFL
 70
     0
  9
$DIMTVP
 40
0.0
  9
$DIMTIX
 70
     0
  9
$DIMSOXD
 70
     0
  9
$DIMSAH
 70
     0
  9
$DIMBLK1
  1

  9
$DIMBLK2
  1

  9
$DIMSTYLE
  2
STANDARD
  9
$DIMCLRD
 70
     0
  9
$DIMCLRE
 70
     0
  9
$DIMCLRT
 70
     0
  9
$DIMTFAC
 40
1.0
  9
$DIMGAP
 40
0.09
  9
$LUNITS
 70
     2
  9
$LUPREC
 70
     4
  9
$SKETCHINC
 40
0.1
  9
$FILLETRAD
 40
0.0
  9
$AUNITS
 70
     0
  9
$AUPREC
 70
     0
  9
$MENU
  1
.
  9
$ELEVATION
 40
0.0
  9
$PELEVATION
 40
0.0
  9
$THICKNESS
 40
0.0
  9
$LIMCHECK
 70
     0
  9
$BLIPMODE
 70
     0
  9
$CHAMFERA
 40
0.0
  9
$CHAMFERB
 40
0.0
  9
$SKPOLY
 70
     0
  9
$TDCREATE
 40
2458060.468368056230247
  9
$TDUPDATE
 40
2459499.4487731480039656
  9
$TDINDWG
 40
0.6819052083
  9
$TDUSRTIMER
 40
0.6819052083
  9
$USRTIMER
 70
     1
  9
$ANGBASE
 50
0.0
  9
$ANGDIR
 70
     0
  9
$PDMODE
 70
     0
  9
$PDSIZE
 40
0.3125
  9
$PLINEWID
 40
0.0
  9
$COORDS
 70
     1
  9
$SPLFRAME
 70
     0
  9
$SPLINETYPE
 70
     6
  9
$SPLINESEGS
 70
     8
  9
$ATTDIA
 70
     1
  9
$ATTREQ
 70
     1
  9
$HANDLING
 70
     1
  9
$HANDSEED
  5
14B9A
  9
$SURFTAB1
 70
     6
  9
$SURFTAB2
 70
     6
  9
$SURFTYPE
 70
     6
  9
$SURFU
 70
     6
  9
$SURFV
 70
     6
  9
$UCSNAME
  2

  9
$UCSORG
 10
0.0
 20
0.0
 30
0.0
  9
$UCSXDIR
 10
1.0
 20
0.0
 30
0.0
  9
$UCSYDIR
 10
0.0
 20
1.0
 30
0.0
  9
$PUCSNAME
  2

  9
$PUCSORG
 10
0.0
 20
0.0
 30
0.0
  9
$PUCSXDIR
 10
1.0
 20
0.0
 30
0.0
  9
$PUCSYDIR
 10
0.0
 20
1.0
 30
0.0
  9
$USERI1
 70
     0
  9
$USERI2
 70
     0
  9
$USERI3
 70
     0
  9
$USERI4
 70
     0
  9
$USERI5
 70
     0
  9
$USERR1
 40
0.0
  9
$USERR2
 40
0.0
  9
$USERR3
 40
0.0
  9
$USERR4
 40
0.0
  9
$USERR5
 40
0.0
  9
$WORLDVIEW
 70
     1
  9
$SHADEDGE
 70
     3
  9
$SHADEDIF
 70
    70
  9
$TILEMODE
 70
     1
  9
$MAXACTVP
 70
    64
  9
$PLIMCHECK
 70
     0
  9
$PEXTMIN
 10
1.0000000000000000E+20
 20
1.0000000000000000E+20
 30
1.0000000000000000E+20
  9
$PEXTMAX
 10
-1.0000000000000000E+20
 20
-1.0000000000000000E+20
 30
-1.0000000000000000E+20
  9
$PLIMMIN
 10
0.0
 20
0.0
  9
$PLIMMAX
 10
12.0
 20
9.0
  9
$UNITMODE
 70
     0
  9
$VISRETAIN
 70
     1
  9
$PLINEGEN
 70
     0
  9
$PSLTSCALE
 70
     1
  0
ENDSEC
  0
SECTION
  2
TABLES
  0
TABLE
  2
VPORT
 70
     1
  0
VPORT
  2
*ACTIVE
 70
     0
 10
0.0
 20
0.0
 11
1.0
 21
1.0
 12
271.263685472196812
 22
17.3777000647749489
 13
0.0
 23
0.0
 14
1.0
 24
1.0
 15
0.0
 25
0.0
 16
0.0
 26
0.0
 36
202.37134017897489
 17
4161.556396484375
 27
226.1108322143554972
 37
0.0
 40
9.7690431418726735
 41
2.2118055555555549
 42
50.0
 43
0.0
 44
0.0
 50
0.0
 51
0.0
 71
     0
 72
   100
 73
     1
 74
     1
 75
     0
 76
     0
 77
     0
 78
     0
  0
ENDTAB
  0
TABLE
  2
LTYPE
 70
     2
  0
LTYPE
  2
CONTINUOUS
 70
     0
  3
Solid line
 72
    65
 73
     0
 40
0.0
  0
LTYPE
  2
PHANTOM2
 70
     0
  3
___ _ _ ___ _ _ ___ _ _ ___ _ _
 72
    65
 73
     6
 40
1.25
 49
0.625
 49
-0.125
 49
0.125
 49
-0.125
 49
0.125
 49
-0.125
  0
ENDTAB
  0
TABLE
  2
LAYER
 70
     2
  0
LAYER
  2
0
 70
     0
 62
   255
  6
CONTINUOUS
  0
LAYER
  2
DEFPOINTS
 70
     0
 62
     7
  6
CONTINUOUS
  0
ENDTAB
  0
TABLE
  2
STYLE
 70
     1
  0
STYLE
  2
STANDARD
 70
     0
 40
0.0
 41
0.8
 50
0.0
 71
     0
 42
0.2
  3
txt
  4

  0
ENDTAB
  0
TABLE
  2
VIEW
 70
     0
  0
ENDTAB
  0
TABLE
  2
UCS
 70
     0
  0
ENDTAB
  0
TABLE
  2
APPID
 70
    10
  0
APPID
  2
ACAD
 70
     0
  0
APPID
  2
ACAD_MLEADERVER
 70
     0
  0
APPID
  2
ACAD_EXEMPT_FROM_CAD_STANDARDS
 70
     0
  0
APPID
  2
ACAD_NAV_VCDISPLAY
 70
     0
  0
APPID
  2
ACAECLAYERSTANDARD
 70
     0
  0
APPID
  2
ACCMTRANSPARENCY
 70
     0
  0
APPID
  2
ACAD_DSTYLE_DIMJAG
 70
     0
  0
APPID
  2
ACAD_DSTYLE_DIMTALN
 70
     0
  0
APPID
  2
ACDBATTR
 70
     0
  0
APPID
  2
DCO15
 70
     0
  0
ENDTAB
  0
TABLE
  2
DIMSTYLE
 70
     1
  0
DIMSTYLE
  2
STANDARD
 70
     0
  3

  4

  5

  6

  7

 40
1.0
 41
0.1875
 42
0.0625
 43
0.38
 44
0.125
 45
0.0
 46
0.0
 47
0.01
 48
0.01
140
0.15625
141
0.09
142
0.0
143
25.3999999999999986
144
1.0
145
0.0
146
1.0
147
0.09
 71
     1
 72
     0
 73
     1
 74
     1
 75
     0
 76
     0
 77
     0
 78
     4
170
     0
171
     2
172
     0
173
     0
174
     0
175
     0
176
     0
177
     0
178
     0
  0
ENDTAB
  0
ENDSEC
  0
SECTION
  2
BLOCKS
  0
BLOCK
  8
0
  2
$MODEL_SPACE
 70
     0
 10
0.0
 20
0.0
 30
0.0
  3
$MODEL_SPACE
  1

  0
ENDBLK
  5
21
  8
0
  0
BLOCK
 67
     1
  8
0
  2
$PAPER_SPACE
 70
     0
 10
0.0
 20
0.0
 30
0.0
  3
$PAPER_SPACE
  1

  0
ENDBLK
  5
1D
 67
     1
  8
0
  0
ENDSEC
  0
SECTION
  2
ENTITIES
  0
ATTDEF
  5
12CA7
  8
DEFPOINTS
 10
4428.219559659094557
 20
238.6484043949176055
 30
0.0
 40
0.001
  1
K-76696T-B4
  3

  2
MODELNUMBER
 70
     0
1001
ACDBATTR
1070
     0
1070
     1
  0
ATTDEF
  5
12CA8
  8
DEFPOINTS
 10
4428.219559659094557
 20
238.6467377282509119
 30
0.0
 40
0.001
  1
STANCE
  3

  2
TRADENAME
 70
     0
1001
ACDBATTR
1070
     0
1070
     1
  0
ATTDEF
  5
12CA9
  8
DEFPOINTS
 10
4428.219559659094557
 20
238.6450710615843036
 30
0.0
 40
0.001
  1
BATH AND SHOWER FAUCET
  3

  2
PRODUCT
 70
     0
1001
ACDBATTR
1070
     0
1070
     1
  0
LINE
  5
147F1
  8
0
 10
4437.1171968689195637
 20
248.3358096684200973
 30
0.0
 11
4437.1171968689195637
 21
238.900967148720099
 31
0.0
  0
LINE
  5
147F2
  8
0
 10
4438.2195542314202612
 20
248.3358096684200973
 30
0.0
 11
4438.2195542314202612
 21
238.900967148720099
 31
0.0
  0
LINE
  5
147F3
  8
0
 10
4437.1171968689195637
 20
248.3358096684200973
 30
0.0
 11
4438.2195542314202612
 21
248.3358096684200973
 31
0.0
  0
LINE
  5
147F4
  8
0
 10
4437.5305802745206165
 20
248.0149435266199873
 30
0.0
 11
4437.5305802745206165
 21
247.9598254164199886
 31
0.0
  0
LINE
  5
147F5
  8
0
 10
4437.5227062588201079
 20
248.0149435266199873
 30
0.0
 11
4437.5227062588201079
 21
247.9598254164199886
 31
0.0
  0
ARC
  5
147F6
  8
0
 10
4437.4439661013202567
 20
248.0149435266199873
 30
0.0
 40
0.086614173200001
 50
0.0
 51
270.0
  0
ARC
  5
147F7
  8
0
 10
4437.4439661013202567
 20
248.0149435266199873
 30
0.0
 40
0.0787401575000004
 50
0.0
 51
270.0
  0
LINE
  5
147F8
  8
0
 10
4437.4439661013202567
 20
247.9362033692200953
 30
0.0
 11
4437.4990842115203122
 21
247.9362033692200953
 31
0.0
  0
ARC
  5
147F9
  8
0
 10
4437.4990842114493717
 20
247.9598254165908031
 30
0.0
 40
0.0236220473707061
 50
270.0000001714947189
 51
359.9999995859437263
  0
LINE
  5
147FA
  8
0
 10
4437.4439661013202567
 20
247.928329353419997
 30
0.0
 11
4437.4990842116203567
 21
247.928329353419997
 31
0.0
  0
ARC
  5
147FB
  8
0
 10
4437.4990842115203122
 20
247.9598254164199886
 30
0.0
 40
0.0314960629999899
 50
270.0000001819166755
 51
0.0000000000065138
  0
CIRCLE
  5
147FC
  8
0
 10
4437.4439659902200219
 20
248.0149435259201027
 30
0.0
 40
0.0393696462000008
  0
LINE
  5
147FD
  8
0
 10
4437.5305802745206165
 20
247.5661246290200097
 30
0.0
 11
4437.5305802745206165
 21
247.6212427392200937
 31
0.0
  0
LINE
  5
147FE
  8
0
 10
4437.5227062588201079
 20
247.5661246290200097
 30
0.0
 11
4437.5227062588201079
 21
247.6212427392200937
 31
0.0
  0
ARC
  5
147FF
  8
0
 10
4437.4439661013202567
 20
247.5661246290200097
 30
0.0
 40
0.086614173200001
 50
90.0
 51
0.0
  0
ARC
  5
14800
  8
0
 10
4437.4439661013202567
 20
247.5661246290200097
 30
0.0
 40
0.0787401575000004
 50
90.0
 51
0.0
  0
LINE
  5
14801
  8
0
 10
4437.4439661013202567
 20
247.644864786419987
 30
0.0
 11
4437.4990842115203122
 21
247.644864786419987
 31
0.0
  0
ARC
  5
14802
  8
0
 10
4437.4990842114493717
 20
247.6212427390493076
 30
0.0
 40
0.0236220473707061
 50
0.0000004140563129
 51
89.9999998285052953
  0
LINE
  5
14803
  8
0
 10
4437.4439661013202567
 20
247.65273880222
 30
0.0
 11
4437.4990842116203567
 21
247.65273880222
 31
0.0
  0
ARC
  5
14804
  8
0
 10
4437.4990842115203122
 20
247.6212427392200937
 30
0.0
 40
0.0314960629999899
 50
359.9999999999935199
 51
89.9999998180832677
  0
CIRCLE
  5
14805
  8
0
 10
4437.4439659902200219
 20
247.566124629720008
 30
0.0
 40
0.0393696462000008
  0
CIRCLE
  5
14806
  8
0
 10
4437.5384542903138936
 20
247.3102191172170023
 30
0.0
 40
0.0216530092333519
  0
CIRCLE
  5
14807
  8
0
 10
4437.53845429032026
 20
247.3102191172201003
 30
0.0
 40
0.0410257533541414
  0
CIRCLE
  5
14808
  8
0
 10
4437.5451938729729591
 20
247.3030780766852104
 30
0.0
 40
0.0552278417125603
  0
CIRCLE
  5
14809
  8
0
 10
4437.542391298221446
 20
247.302345101420002
 30
0.0
 40
0.0649606298999999
  0
CIRCLE
  5
1480A
  8
0
 10
4437.4065645265191051
 20
247.1842348652199917
 30
0.0
 40
0.0212458642255334
  0
ARC
  5
1480B
  8
0
 10
4437.4065645265418425
 20
247.1842348652592136
 30
0.0
 40
0.0413383414748363
 50
178.5194306841152923
 51
125.9398757802684941
  0
CIRCLE
  5
1480C
  8
0
 10
4437.4200366453351307
 20
247.1771407310388895
 30
0.0
 40
0.0554012264192504
  0
CIRCLE
  5
1480D
  8
0
 10
4437.4164070462202289
 20
247.1763608495199946
 30
0.0
 40
0.0649606298999999
  0
CIRCLE
  5
1480E
  8
0
 10
4437.6683755501207997
 20
247.1842348652700991
 30
0.0
 40
0.0215711450499985
  0
CIRCLE
  5
1480F
  8
0
 10
4437.6683755501207997
 20
247.1842348652199917
 30
0.0
 40
0.041181276899998
  0
CIRCLE
  5
14810
  8
0
 10
4437.6683755501207997
 20
247.1770928649700068
 30
0.0
 40
0.0553929292500008
  0
CIRCLE
  5
14811
  8
0
 10
4437.6683755501207997
 20
247.1763608495199946
 30
0.0
 40
0.0649606298999999
  0
CIRCLE
  5
14812
  8
0
 10
4437.53845429032026
 20
247.0562821093199943
 30
0.0
 40
0.0215189965490001
  0
CIRCLE
  5
14813
  8
0
 10
4437.53845429032026
 20
247.0562821093199943
 30
0.0
 40
0.0410817206461234
  0
CIRCLE
  5
14814
  8
0
 10
4437.5453536346212786
 20
247.0507676902699927
 30
0.0
 40
0.0553879323884665
  0
CIRCLE
  5
14815
  8
0
 10
4437.542391298221446
 20
247.0503765975199997
 30
0.0
 40
0.0649606298999999
  0
ARC
  5
14816
  8
0
 10
4437.4065645265263811
 20
246.9302978573676057
 30
0.0
 40
0.0413383414927891
 50
178.4071214952695925
 51
135.9806984432121055
  0
CIRCLE
  5
14817
  8
0
 10
4437.406564526537295
 20
246.9302978573714995
 30
0.0
 40
0.0216530092340495
  0
CIRCLE
  5
14818
  8
0
 10
4437.4200189132097876
 20
246.9246404711265939
 30
0.0
 40
0.0551980164671579
  0
CIRCLE
  5
14819
  8
0
 10
4437.4164070462202289
 20
246.9243923455200047
 30
0.0
 40
0.0649606298999999
  0
CIRCLE
  5
1481A
  8
0
 10
4437.6683755501207997
 20
246.9302978573699932
 30
0.0
 40
0.0216007963499987
  0
CIRCLE
  5
1481B
  8
0
 10
4437.6683755501207997
 20
246.9302978573699932
 30
0.0
 40
0.0412378839500001
  0
CIRCLE
  5
1481C
  8
0
 10
4437.6683755501207997
 20
246.9245908621699925
 30
0.0
 40
0.055292081550002
  0
CIRCLE
  5
1481D
  8
0
 10
4437.6683755501207997
 20
246.9243923455200047
 30
0.0
 40
0.0649606298999999
  0
CIRCLE
  5
1481E
  8
0
 10
4437.5384542903038891
 20
246.802345101480114
 30
0.0
 40
0.0216530092054691
  0
CIRCLE
  5
1481F
  8
0
 10
4437.5384542903047986
 20
246.8023451014728096
 30
0.0
 40
0.0413383414906023
  0
CIRCLE
  5
14820
  8
0
 10
4437.5451954188911259
 20
246.7980673666239966
 30
0.0
 40
0.0551676688262678
  0
CIRCLE
  5
14821
  8
0
 10
4437.542391298221446
 20
246.7984080936199973
 30
0.0
 40
0.0649606298999999
  0
CIRCLE
  5
14822
  8
0
 10
4437.6683755501207997
 20
246.6763608495199946
 30
0.0
 40
0.0216238678999989
  0
CIRCLE
  5
14823
  8
0
 10
4437.6683755501207997
 20
246.6763608495199946
 30
0.0
 40
0.0412819295999984
  0
CIRCLE
  5
14824
  8
0
 10
4437.6683755506555826
 20
246.6720784079203099
 30
0.0
 40
0.0552114593766025
  0
CIRCLE
  5
14825
  8
0
 10
4437.6683755501207997
 20
246.6724238416200023
 30
0.0
 40
0.0649606298999999
  0
ARC
  5
14826
  8
0
 10
4437.4065645265191051
 20
246.6763608494904076
 30
0.0
 40
0.0413383414884529
 50
175.4706397710752981
 51
149.5485643942386957
  0
CIRCLE
  5
14827
  8
0
 10
4437.4065645265309286
 20
246.6763608494935056
 30
0.0
 40
0.0216530092139399
  0
CIRCLE
  5
14828
  8
0
 10
4437.4200189277398749
 20
246.6721211719018072
 30
0.0
 40
0.0551763204570077
  0
CIRCLE
  5
14829
  8
0
 10
4437.4164070462202289
 20
246.6724238416200023
 30
0.0
 40
0.0649606298999999
  0
CIRCLE
  5
1482A
  8
0
 10
4437.5384542902702378
 20
246.5484080936199973
 30
0.0
 40
0.0411563807709944
  0
CIRCLE
  5
1482B
  8
0
 10
4437.5384542902702378
 20
246.5484080935700035
 30
0.0
 40
0.0215581041939323
  0
CIRCLE
  5
1482C
  8
0
 10
4437.5452615511212571
 20
246.5456910011700131
 30
0.0
 40
0.0552777471141772
  0
CIRCLE
  5
1482D
  8
0
 10
4437.542391298221446
 20
246.5464395896200926
 30
0.0
 40
0.0649606298999999
  0
CIRCLE
  5
1482E
  8
0
 10
4437.668375551533245
 20
246.4224238345200035
 30
0.0
 40
0.0216381589553798
  0
CIRCLE
  5
1482F
  8
0
 10
4437.6683755533113072
 20
246.4224238506199924
 30
0.0
 40
0.0413084801929316
  0
CIRCLE
  5
14830
  8
0
 10
4437.6683755621788805
 20
246.4195707154246975
 30
0.0
 40
0.0551469657693373
  0
CIRCLE
  5
14831
  8
0
 10
4437.6683755501207997
 20
246.42045533772
 30
0.0
 40
0.0649606298999999
  0
CIRCLE
  5
14832
  8
0
 10
4437.4065645265191051
 20
246.4224238416699961
 30
0.0
 40
0.0213119783330371
  0
CIRCLE
  5
14833
  8
0
 10
4437.4065645265191051
 20
246.4224238416200023
 30
0.0
 40
0.040686504135729
  0
CIRCLE
  5
14834
  8
0
 10
4437.4200190563333308
 20
246.4195989684253902
 30
0.0
 40
0.05516044617536
  0
CIRCLE
  5
14835
  8
0
 10
4437.4164070462202289
 20
246.42045533772
 30
0.0
 40
0.0649606298999999
  0
CIRCLE
  5
14836
  8
0
 10
4437.53845429032026
 20
246.294471085720005
 30
0.0
 40
0.0215678845709352
  0
CIRCLE
  5
14837
  8
0
 10
4437.5384542903002512
 20
246.2944710857221082
 30
0.0
 40
0.0413383415163162
  0
CIRCLE
  5
14838
  8
0
 10
4437.5451976577896858
 20
246.2930460423118859
 30
0.0
 40
0.0551279453834892
  0
CIRCLE
  5
14839
  8
0
 10
4437.542391298221446
 20
246.294471085720005
 30
0.0
 40
0.0649606298999999
  0
CIRCLE
  5
1483A
  8
0
 10
4437.6683788232212464
 20
246.1684868267199988
 30
0.0
 40
0.0216495363
  0
CIRCLE
  5
1483B
  8
0
 10
4437.6683820497200941
 20
246.1684868459200004
 30
0.0
 40
0.0413309613000017
  0
CIRCLE
  5
1483C
  8
0
 10
4437.6683755501207997
 20
246.1670628269199881
 30
0.0
 40
0.0551246937999999
  0
CIRCLE
  5
1483D
  8
0
 10
4437.6683755501207997
 20
246.1684868337200101
 30
0.0
 40
0.0649606298999999
  0
CIRCLE
  5
1483E
  8
0
 10
4437.4065645265282001
 20
246.1684868337607952
 30
0.0
 40
0.0216530092329208
  0
CIRCLE
  5
1483F
  8
0
 10
4437.4065645265236526
 20
246.1684868337297019
 30
0.0
 40
0.04133834149529
  0
CIRCLE
  5
14840
  8
0
 10
4437.4200541032696492
 20
246.1671514655701003
 30
0.0
 40
0.0553771767259814
  0
CIRCLE
  5
14841
  8
0
 10
4437.4164070462202289
 20
246.1684868337200101
 30
0.0
 40
0.0649606298999999
  0
CIRCLE
  5
14842
  8
0
 10
4437.5384542902702378
 20
246.0425025818200027
 30
0.0
 40
0.0215711450500011
  0
CIRCLE
  5
14843
  8
0
 10
4437.53845429032026
 20
246.0425025818200027
 30
0.0
 40
0.0411812768999997
  0
CIRCLE
  5
14844
  8
0
 10
4437.545211797821139
 20
246.0425025818200027
 30
0.0
 40
0.0552459929000007
  0
CIRCLE
  5
14845
  8
0
 10
4437.542391298221446
 20
246.0425025818200027
 30
0.0
 40
0.0649606298999999
  0
CIRCLE
  5
14846
  8
0
 10
4437.4065645265245621
 20
245.9165183298200077
 30
0.0
 40
0.0216530092276018
  0
CIRCLE
  5
14847
  8
0
 10
4437.4065645265191051
 20
245.9165183298200077
 30
0.0
 40
0.0407105566999997
  0
CIRCLE
  5
14848
  8
0
 10
4437.4200468914696103
 20
245.9165183298200077
 30
0.0
 40
0.0553672605499998
  0
CIRCLE
  5
14849
  8
0
 10
4437.4164070462202289
 20
245.9165183298200077
 30
0.0
 40
0.0649606298999999
  0
CIRCLE
  5
1484A
  8
0
 10
4437.6683755501207997
 20
245.9165183298200077
 30
0.0
 40
0.0216535432999994
  0
CIRCLE
  5
1484B
  8
0
 10
4437.6683755501207997
 20
245.9165183298200077
 30
0.0
 40
0.0413385826999999
  0
CIRCLE
  5
1484C
  8
0
 10
4437.6683755501207997
 20
245.9165183298200077
 30
0.0
 40
0.0551135651999992
  0
CIRCLE
  5
1484D
  8
0
 10
4437.6683755501207997
 20
245.9165183298200077
 30
0.0
 40
0.0649606298999999
  0
CIRCLE
  5
1484E
  8
0
 10
4437.6683623385197279
 20
243.5464402469200138
 30
0.0
 40
0.2774233994684471
  0
CIRCLE
  5
1484F
  8
0
 10
4437.6683755501207997
 20
243.5464395896200074
 30
0.0
 40
0.2952755905999993
  0
LINE
  5
14850
  8
0
 10
4437.6211314556203433
 20
243.8198135928649037
 30
0.0
 11
4437.6211314556203433
 21
243.8379111490199875
 31
0.0
  0
LINE
  5
14851
  8
0
 10
4437.7156196446194372
 20
243.8198090263971096
 30
0.0
 11
4437.7156196446194372
 21
243.8379111490199875
 31
0.0
  0
LINE
  5
14852
  8
0
 10
4437.6211314556203433
 20
243.2730669009750955
 30
0.0
 11
4437.6211314556203433
 21
243.2549680302201125
 31
0.0
  0
LINE
  5
14853
  8
0
 10
4437.7156196446194372
 20
243.2730714674428896
 30
0.0
 11
4437.7156196446194372
 21
243.2549680302201125
 31
0.0
  0
CIRCLE
  5
14854
  8
0
 10
4437.6683623385197279
 20
242.7590386721199991
 30
0.0
 40
0.2774233994684471
  0
CIRCLE
  5
14855
  8
0
 10
4437.6683755501207997
 20
242.7590380148199927
 30
0.0
 40
0.2952755905999993
  0
LINE
  5
14856
  8
0
 10
4437.6211314556203433
 20
243.0324120180650027
 30
0.0
 11
4437.6211314556203433
 21
243.0505095742200012
 31
0.0
  0
LINE
  5
14857
  8
0
 10
4437.7156196446194372
 20
243.0324074515970949
 30
0.0
 11
4437.7156196446194372
 21
243.0505095742200012
 31
0.0
  0
LINE
  5
14858
  8
0
 10
4437.8061708258201179
 20
248.0149435266199873
 30
0.0
 11
4437.8061708258201179
 21
247.9598254164199886
 31
0.0
  0
LINE
  5
14859
  8
0
 10
4437.8140448415206265
 20
248.0149435266199873
 30
0.0
 11
4437.8140448415206265
 21
247.9598254164199886
 31
0.0
  0
ARC
  5
1485A
  8
0
 10
4437.8927849990213872
 20
248.0149435266199873
 30
0.0
 40
0.086614173200001
 50
270.0
 51
180.0
  0
ARC
  5
1485B
  8
0
 10
4437.8927849990213872
 20
248.0149435266199873
 30
0.0
 40
0.0787401575000004
 50
270.0
 51
180.0
  0
LINE
  5
1485C
  8
0
 10
4437.8927849990213872
 20
247.9362033692200953
 30
0.0
 11
4437.8376668888204222
 21
247.9362033692200953
 31
0.0
  0
ARC
  5
1485D
  8
0
 10
4437.8376668888913628
 20
247.9598254165908031
 30
0.0
 40
0.0236220473707061
 50
180.0000004140547105
 51
269.9999998285052811
  0
LINE
  5
1485E
  8
0
 10
4437.8927849990213872
 20
247.928329353419997
 30
0.0
 11
4437.8376668887212873
 21
247.928329353419997
 31
0.0
  0
ARC
  5
1485F
  8
0
 10
4437.8376668888204222
 20
247.9598254164199886
 30
0.0
 40
0.0314960629999899
 50
179.9999999999934914
 51
269.9999998180833245
  0
CIRCLE
  5
14860
  8
0
 10
4437.8927851101207125
 20
248.0149435259201027
 30
0.0
 40
0.0393696462000008
  0
LINE
  5
14861
  8
0
 10
4437.8061708258201179
 20
247.5661246290200097
 30
0.0
 11
4437.8061708258201179
 21
247.6212427392200937
 31
0.0
  0
LINE
  5
14862
  8
0
 10
4437.8140448415206265
 20
247.5661246290200097
 30
0.0
 11
4437.8140448415206265
 21
247.6212427392200937
 31
0.0
  0
ARC
  5
14863
  8
0
 10
4437.8927849990213872
 20
247.5661246290200097
 30
0.0
 40
0.086614173200001
 50
180.0
 51
90.0
  0
ARC
  5
14864
  8
0
 10
4437.8927849990213872
 20
247.5661246290200097
 30
0.0
 40
0.0787401575000004
 50
180.0
 51
90.0
  0
LINE
  5
14865
  8
0
 10
4437.8927849990213872
 20
247.644864786419987
 30
0.0
 11
4437.8376668888204222
 21
247.644864786419987
 31
0.0
  0
ARC
  5
14866
  8
0
 10
4437.8376668888913628
 20
247.6212427390493076
 30
0.0
 40
0.0236220473707061
 50
90.0000001714946904
 51
179.9999995859436979
  0
LINE
  5
14867
  8
0
 10
4437.8927849990213872
 20
247.65273880222
 30
0.0
 11
4437.8376668887212873
 21
247.65273880222
 31
0.0
  0
ARC
  5
14868
  8
0
 10
4437.8376668888204222
 20
247.6212427392200937
 30
0.0
 40
0.0314960629999899
 50
90.0000001819167323
 51
180.0000000000065086
  0
CIRCLE
  5
14869
  8
0
 10
4437.8927851101207125
 20
247.566124629720008
 30
0.0
 40
0.0393696462000008
  0
CIRCLE
  5
1486A
  8
0
 10
4437.7982968100259313
 20
247.3102191172170023
 30
0.0
 40
0.0216530092333519
  0
CIRCLE
  5
1486B
  8
0
 10
4437.7982968100195649
 20
247.3102191172201003
 30
0.0
 40
0.0410257533541414
  0
CIRCLE
  5
1486C
  8
0
 10
4437.7915572273668658
 20
247.3030780766852104
 30
0.0
 40
0.0552278417125603
  0
CIRCLE
  5
1486D
  8
0
 10
4437.7943598021201979
 20
247.302345101420002
 30
0.0
 40
0.0649606298999999
  0
CIRCLE
  5
1486E
  8
0
 10
4437.9301865738198103
 20
247.1842348652199917
 30
0.0
 40
0.0212458642255334
  0
ARC
  5
1486F
  8
0
 10
4437.9301865737988919
 20
247.1842348652592136
 30
0.0
 40
0.0413383414748363
 50
54.0601242197314065
 51
1.480569315884634
  0
CIRCLE
  5
14870
  8
0
 10
4437.9167144550046942
 20
247.1771407310388895
 30
0.0
 40
0.0554012264192504
  0
CIRCLE
  5
14871
  8
0
 10
4437.920344054119596
 20
247.1763608495199946
 30
0.0
 40
0.0649606298999999
  0
CIRCLE
  5
14872
  8
0
 10
4437.7982968100195649
 20
247.0562821093199943
 30
0.0
 40
0.0215189965490001
  0
CIRCLE
  5
14873
  8
0
 10
4437.7982968100195649
 20
247.0562821093199943
 30
0.0
 40
0.0410817206461234
  0
CIRCLE
  5
14874
  8
0
 10
4437.7913974657203653
 20
247.0507676902699927
 30
0.0
 40
0.0553879323884665
  0
CIRCLE
  5
14875
  8
0
 10
4437.7943598021201979
 20
247.0503765975199997
 30
0.0
 40
0.0649606298999999
  0
ARC
  5
14876
  8
0
 10
4437.9301865738143533
 20
246.9302978573676057
 30
0.0
 40
0.0413383414927891
 50
44.0193015567878376
 51
1.5928785047287211
  0
CIRCLE
  5
14877
  8
0
 10
4437.9301865738043489
 20
246.9302978573714995
 30
0.0
 40
0.0216530092340495
  0
CIRCLE
  5
14878
  8
0
 10
4437.9167321871300373
 20
246.9246404711265939
 30
0.0
 40
0.0551980164671579
  0
CIRCLE
  5
14879
  8
0
 10
4437.920344054119596
 20
246.9243923455200047
 30
0.0
 40
0.0649606298999999
  0
CIRCLE
  5
1487A
  8
0
 10
4437.7982968100359358
 20
246.802345101480114
 30
0.0
 40
0.0216530092054691
  0
CIRCLE
  5
1487B
  8
0
 10
4437.7982968100350263
 20
246.8023451014728096
 30
0.0
 40
0.0413383414906023
  0
CIRCLE
  5
1487C
  8
0
 10
4437.791555681448699
 20
246.7980673666239966
 30
0.0
 40
0.0551676688262678
  0
CIRCLE
  5
1487D
  8
0
 10
4437.7943598021201979
 20
246.7984080936199973
 30
0.0
 40
0.0649606298999999
  0
ARC
  5
1487E
  8
0
 10
4437.9301865738207198
 20
246.6763608494904076
 30
0.0
 40
0.0413383414884529
 50
30.4514356057876903
 51
4.5293602289263202
  0
CIRCLE
  5
1487F
  8
0
 10
4437.9167321726008595
 20
246.6721211719018072
 30
0.0
 40
0.0551763204570077
  0
CIRCLE
  5
14880
  8
0
 10
4437.920344054119596
 20
246.6724238416200023
 30
0.0
 40
0.0649606298999999
  0
CIRCLE
  5
14881
  8
0
 10
4437.7982968100695871
 20
246.5484080936199973
 30
0.0
 40
0.0411563807709944
  0
CIRCLE
  5
14882
  8
0
 10
4437.7982968100695871
 20
246.5484080935700035
 30
0.0
 40
0.0215581041939323
  0
CIRCLE
  5
14883
  8
0
 10
4437.7914895492203868
 20
246.5456910011700131
 30
0.0
 40
0.0552777471141772
  0
CIRCLE
  5
14884
  8
0
 10
4437.7943598021201979
 20
246.5464395896200926
 30
0.0
 40
0.0649606298999999
  0
CIRCLE
  5
14885
  8
0
 10
4437.9301865738198103
 20
246.4224238416699961
 30
0.0
 40
0.0213119783330371
  0
CIRCLE
  5
14886
  8
0
 10
4437.9301865738198103
 20
246.4224238416200023
 30
0.0
 40
0.040686504135729
  0
CIRCLE
  5
14887
  8
0
 10
4437.9167320440083131
 20
246.4195989684253902
 30
0.0
 40
0.05516044617536
  0
CIRCLE
  5
14888
  8
0
 10
4437.920344054119596
 20
246.42045533772
 30
0.0
 40
0.0649606298999999
  0
CIRCLE
  5
14889
  8
0
 10
4437.7982968100195649
 20
246.294471085720005
 30
0.0
 40
0.0215678845709352
  0
CIRCLE
  5
1488A
  8
0
 10
4437.7982968100395738
 20
246.2944710857221082
 30
0.0
 40
0.0413383415163162
  0
CIRCLE
  5
1488B
  8
0
 10
4437.7915534425510486
 20
246.2930460423118859
 30
0.0
 40
0.0551279453834892
  0
CIRCLE
  5
1488C
  8
0
 10
4437.7943598021201979
 20
246.294471085720005
 30
0.0
 40
0.0649606298999999
  0
CIRCLE
  5
1488D
  8
0
 10
4437.9301865738107153
 20
246.1684868337607952
 30
0.0
 40
0.0216530092329208
  0
CIRCLE
  5
1488E
  8
0
 10
4437.9301865738170818
 20
246.1684868337297019
 30
0.0
 40
0.04133834149529
  0
CIRCLE
  5
1488F
  8
0
 10
4437.9166969970701757
 20
246.1671514655701003
 30
0.0
 40
0.0553771767259814
  0
CIRCLE
  5
14890
  8
0
 10
4437.920344054119596
 20
246.1684868337200101
 30
0.0
 40
0.0649606298999999
  0
CIRCLE
  5
14891
  8
0
 10
4437.7982968100695871
 20
246.0425025818200027
 30
0.0
 40
0.0215711450500011
  0
CIRCLE
  5
14892
  8
0
 10
4437.7982968100195649
 20
246.0425025818200027
 30
0.0
 40
0.0411812768999997
  0
CIRCLE
  5
14893
  8
0
 10
4437.7915393025195954
 20
246.0425025818200027
 30
0.0
 40
0.0552459929000007
  0
CIRCLE
  5
14894
  8
0
 10
4437.7943598021201979
 20
246.0425025818200027
 30
0.0
 40
0.0649606298999999
  0
CIRCLE
  5
14895
  8
0
 10
4437.9301865738152628
 20
245.9165183298200077
 30
0.0
 40
0.0216530092276018
  0
CIRCLE
  5
14896
  8
0
 10
4437.9301865738198103
 20
245.9165183298200077
 30
0.0
 40
0.0407105566999997
  0
CIRCLE
  5
14897
  8
0
 10
4437.9167042088702146
 20
245.9165183298200077
 30
0.0
 40
0.0553672605499998
  0
CIRCLE
  5
14898
  8
0
 10
4437.920344054119596
 20
245.9165183298200077
 30
0.0
 40
0.0649606298999999
  0
CIRCLE
  5
14899
  8
0
 10
4437.5384542903138936
 20
244.5228175423231107
 30
0.0
 40
0.0216530092333519
  0
CIRCLE
  5
1489A
  8
0
 10
4437.53845429032026
 20
244.522817542320098
 30
0.0
 40
0.0410257533541414
  0
CIRCLE
  5
1489B
  8
0
 10
4437.5451938729729591
 20
244.5299585828549027
 30
0.0
 40
0.0552278417125603
  0
CIRCLE
  5
1489C
  8
0
 10
4437.542391298221446
 20
244.5306915581199974
 30
0.0
 40
0.0649606298999999
  0
CIRCLE
  5
1489D
  8
0
 10
4437.4065645265191051
 20
244.6488017943200077
 30
0.0
 40
0.0212458642255334
  0
ARC
  5
1489E
  8
0
 10
4437.4065645265418425
 20
244.6488017942808995
 30
0.0
 40
0.0413383414748363
 50
234.0601242197313923
 51
181.4805693158845941
  0
CIRCLE
  5
1489F
  8
0
 10
4437.4200366453351307
 20
244.6558959285011952
 30
0.0
 40
0.0554012264192504
  0
CIRCLE
  5
148A0
  8
0
 10
4437.4164070462202289
 20
244.6566758100200047
 30
0.0
 40
0.0649606298999999
  0
CIRCLE
  5
148A1
  8
0
 10
4437.6683755501207997
 20
244.6488017942700992
 30
0.0
 40
0.0215711450499985
  0
CIRCLE
  5
148A2
  8
0
 10
4437.6683755501207997
 20
244.6488017943200077
 30
0.0
 40
0.041181276899998
  0
CIRCLE
  5
148A3
  8
0
 10
4437.6683755501207997
 20
244.6559437945699926
 30
0.0
 40
0.0553929292500008
  0
CIRCLE
  5
148A4
  8
0
 10
4437.6683755501207997
 20
244.6566758100200047
 30
0.0
 40
0.0649606298999999
  0
CIRCLE
  5
148A5
  8
0
 10
4437.53845429032026
 20
244.7767545502200051
 30
0.0
 40
0.0215189965490001
  0
CIRCLE
  5
148A6
  8
0
 10
4437.53845429032026
 20
244.7767545502200051
 30
0.0
 40
0.0410817206461234
  0
CIRCLE
  5
148A7
  8
0
 10
4437.5453536346212786
 20
244.7822689692700067
 30
0.0
 40
0.0553879323884665
  0
CIRCLE
  5
148A8
  8
0
 10
4437.542391298221446
 20
244.7826600620199997
 30
0.0
 40
0.0649606298999999
  0
ARC
  5
148A9
  8
0
 10
4437.4065645265263811
 20
244.9027388021725073
 30
0.0
 40
0.0413383414927891
 50
224.0193015567878945
 51
181.5928785047287022
  0
CIRCLE
  5
148AA
  8
0
 10
4437.406564526537295
 20
244.9027388021684999
 30
0.0
 40
0.0216530092340495
  0
CIRCLE
  5
148AB
  8
0
 10
4437.4200189132097876
 20
244.9083961884134055
 30
0.0
 40
0.0551980164671579
  0
CIRCLE
  5
148AC
  8
0
 10
4437.4164070462202289
 20
244.9086443140199947
 30
0.0
 40
0.0649606298999999
  0
CIRCLE
  5
148AD
  8
0
 10
4437.6683755501207997
 20
244.9027388021700915
 30
0.0
 40
0.0216007963499987
  0
CIRCLE
  5
148AE
  8
0
 10
4437.6683755501207997
 20
244.9027388021700915
 30
0.0
 40
0.0412378839500001
  0
CIRCLE
  5
148AF
  8
0
 10
4437.6683755501207997
 20
244.9084457973700069
 30
0.0
 40
0.055292081550002
  0
CIRCLE
  5
148B0
  8
0
 10
4437.6683755501207997
 20
244.9086443140199947
 30
0.0
 40
0.0649606298999999
  0
CIRCLE
  5
148B1
  8
0
 10
4437.5384542903038891
 20
245.0306915580599991
 30
0.0
 40
0.0216530092054691
  0
CIRCLE
  5
148B2
  8
0
 10
4437.5384542903047986
 20
245.0306915580671898
 30
0.0
 40
0.0413383414906023
  0
CIRCLE
  5
148B3
  8
0
 10
4437.5451954188911259
 20
245.0349692929160881
 30
0.0
 40
0.0551676688262678
  0
CIRCLE
  5
148B4
  8
0
 10
4437.542391298221446
 20
245.0346285659200021
 30
0.0
 40
0.0649606298999999
  0
CIRCLE
  5
148B5
  8
0
 10
4437.6683755501207997
 20
245.1566758100200047
 30
0.0
 40
0.0216238678999989
  0
CIRCLE
  5
148B6
  8
0
 10
4437.6683755501207997
 20
245.1566758100200047
 30
0.0
 40
0.0412819295999984
  0
CIRCLE
  5
148B7
  8
0
 10
4437.6683755506555826
 20
245.1609582516196895
 30
0.0
 40
0.0552114593766025
  0
CIRCLE
  5
148B8
  8
0
 10
4437.6683755501207997
 20
245.160612817919997
 30
0.0
 40
0.0649606298999999
  0
ARC
  5
148B9
  8
0
 10
4437.4065645265191051
 20
245.1566758100495917
 30
0.0
 40
0.0413383414884529
 50
210.4514356057613043
 51
184.5293602289245882
  0
CIRCLE
  5
148BA
  8
0
 10
4437.4065645265309286
 20
245.1566758100466075
 30
0.0
 40
0.0216530092139399
  0
CIRCLE
  5
148BB
  8
0
 10
4437.4200189277398749
 20
245.1609154876381922
 30
0.0
 40
0.0551763204570077
  0
CIRCLE
  5
148BC
  8
0
 10
4437.4164070462202289
 20
245.160612817919997
 30
0.0
 40
0.0649606298999999
  0
CIRCLE
  5
148BD
  8
0
 10
4437.5384542902702378
 20
245.2846285659200021
 30
0.0
 40
0.0411563807709944
  0
CIRCLE
  5
148BE
  8
0
 10
4437.5384542902702378
 20
245.2846285659699959
 30
0.0
 40
0.0215581041939323
  0
CIRCLE
  5
148BF
  8
0
 10
4437.5452615511212571
 20
245.2873456583699863
 30
0.0
 40
0.0552777471141772
  0
CIRCLE
  5
148C0
  8
0
 10
4437.542391298221446
 20
245.286597069919992
 30
0.0
 40
0.0649606298999999
  0
CIRCLE
  5
148C1
  8
0
 10
4437.668375551533245
 20
245.4106128250199959
 30
0.0
 40
0.0216381589553798
  0
CIRCLE
  5
148C2
  8
0
 10
4437.6683755533113072
 20
245.410612808920007
 30
0.0
 40
0.0413084801929316
  0
CIRCLE
  5
148C3
  8
0
 10
4437.6683755621788805
 20
245.4134659441153019
 30
0.0
 40
0.0551469657693373
  0
CIRCLE
  5
148C4
  8
0
 10
4437.6683755501207997
 20
245.4125813218199994
 30
0.0
 40
0.0649606298999999
  0
CIRCLE
  5
148C5
  8
0
 10
4437.4065645265191051
 20
245.4106128178700033
 30
0.0
 40
0.0213119783330371
  0
CIRCLE
  5
148C6
  8
0
 10
4437.4065645265191051
 20
245.410612817919997
 30
0.0
 40
0.040686504135729
  0
CIRCLE
  5
148C7
  8
0
 10
4437.4200190563333308
 20
245.4134376911146092
 30
0.0
 40
0.05516044617536
  0
CIRCLE
  5
148C8
  8
0
 10
4437.4164070462202289
 20
245.4125813218199994
 30
0.0
 40
0.0649606298999999
  0
CIRCLE
  5
148C9
  8
0
 10
4437.53845429032026
 20
245.5385655738199944
 30
0.0
 40
0.0215678845709352
  0
CIRCLE
  5
148CA
  8
0
 10
4437.5384542903002512
 20
245.5385655738178912
 30
0.0
 40
0.0413383415163162
  0
CIRCLE
  5
148CB
  8
0
 10
4437.5451976577896858
 20
245.5399906172281135
 30
0.0
 40
0.0551279453834892
  0
CIRCLE
  5
148CC
  8
0
 10
4437.542391298221446
 20
245.5385655738199944
 30
0.0
 40
0.0649606298999999
  0
CIRCLE
  5
148CD
  8
0
 10
4437.6683788232212464
 20
245.6645498328200006
 30
0.0
 40
0.0216495363
  0
CIRCLE
  5
148CE
  8
0
 10
4437.6683820497200941
 20
245.664549813619999
 30
0.0
 40
0.0413309613000017
  0
CIRCLE
  5
148CF
  8
0
 10
4437.6683755501207997
 20
245.6659738326200113
 30
0.0
 40
0.0551246937999999
  0
CIRCLE
  5
148D0
  8
0
 10
4437.6683755501207997
 20
245.6645498258199893
 30
0.0
 40
0.0649606298999999
  0
CIRCLE
  5
148D1
  8
0
 10
4437.4065645265282001
 20
245.6645498257792042
 30
0.0
 40
0.0216530092329208
  0
CIRCLE
  5
148D2
  8
0
 10
4437.4065645265236526
 20
245.6645498258104112
 30
0.0
 40
0.04133834149529
  0
CIRCLE
  5
148D3
  8
0
 10
4437.4200541032696492
 20
245.665885193970098
 30
0.0
 40
0.0553771767259814
  0
CIRCLE
  5
148D4
  8
0
 10
4437.4164070462202289
 20
245.6645498258199893
 30
0.0
 40
0.0649606298999999
  0
CIRCLE
  5
148D5
  8
0
 10
4437.5384542902702378
 20
245.7905340777199967
 30
0.0
 40
0.0215711450500011
  0
CIRCLE
  5
148D6
  8
0
 10
4437.53845429032026
 20
245.7905340777199967
 30
0.0
 40
0.0411812768999997
  0
CIRCLE
  5
148D7
  8
0
 10
4437.545211797821139
 20
245.7905340777199967
 30
0.0
 40
0.0552459929000007
  0
CIRCLE
  5
148D8
  8
0
 10
4437.542391298221446
 20
245.7905340777199967
 30
0.0
 40
0.0649606298999999
  0
CIRCLE
  5
148D9
  8
0
 10
4437.7982968100259313
 20
244.5228175423231107
 30
0.0
 40
0.0216530092333519
  0
CIRCLE
  5
148DA
  8
0
 10
4437.7982968100195649
 20
244.522817542320098
 30
0.0
 40
0.0410257533541414
  0
CIRCLE
  5
148DB
  8
0
 10
4437.7915572273668658
 20
244.5299585828549027
 30
0.0
 40
0.0552278417125603
  0
CIRCLE
  5
148DC
  8
0
 10
4437.7943598021201979
 20
244.5306915581199974
 30
0.0
 40
0.0649606298999999
  0
CIRCLE
  5
148DD
  8
0
 10
4437.9301865738198103
 20
244.6488017943200077
 30
0.0
 40
0.0212458642255334
  0
ARC
  5
148DE
  8
0
 10
4437.9301865737988919
 20
244.6488017942808995
 30
0.0
 40
0.0413383414748363
 50
358.5194306841153775
 51
305.9398757802686077
  0
CIRCLE
  5
148DF
  8
0
 10
4437.9167144550046942
 20
244.6558959285011952
 30
0.0
 40
0.0554012264192504
  0
CIRCLE
  5
148E0
  8
0
 10
4437.920344054119596
 20
244.6566758100200047
 30
0.0
 40
0.0649606298999999
  0
CIRCLE
  5
148E1
  8
0
 10
4437.7982968100195649
 20
244.7767545502200051
 30
0.0
 40
0.0215189965490001
  0
CIRCLE
  5
148E2
  8
0
 10
4437.7982968100195649
 20
244.7767545502200051
 30
0.0
 40
0.0410817206461234
  0
CIRCLE
  5
148E3
  8
0
 10
4437.7913974657203653
 20
244.7822689692700067
 30
0.0
 40
0.0553879323884665
  0
CIRCLE
  5
148E4
  8
0
 10
4437.7943598021201979
 20
244.7826600620199997
 30
0.0
 40
0.0649606298999999
  0
ARC
  5
148E5
  8
0
 10
4437.9301865738143533
 20
244.9027388021725073
 30
0.0
 40
0.0413383414927891
 50
358.4071214952696778
 51
315.9806984432120771
  0
CIRCLE
  5
148E6
  8
0
 10
4437.9301865738043489
 20
244.9027388021684999
 30
0.0
 40
0.0216530092340495
  0
CIRCLE
  5
148E7
  8
0
 10
4437.9167321871300373
 20
244.9083961884134055
 30
0.0
 40
0.0551980164671579
  0
CIRCLE
  5
148E8
  8
0
 10
4437.920344054119596
 20
244.9086443140199947
 30
0.0
 40
0.0649606298999999
  0
CIRCLE
  5
148E9
  8
0
 10
4437.7982968100359358
 20
245.0306915580599991
 30
0.0
 40
0.0216530092054691
  0
CIRCLE
  5
148EA
  8
0
 10
4437.7982968100350263
 20
245.0306915580671898
 30
0.0
 40
0.0413383414906023
  0
CIRCLE
  5
148EB
  8
0
 10
4437.791555681448699
 20
245.0349692929160881
 30
0.0
 40
0.0551676688262678
  0
CIRCLE
  5
148EC
  8
0
 10
4437.7943598021201979
 20
245.0346285659200021
 30
0.0
 40
0.0649606298999999
  0
ARC
  5
148ED
  8
0
 10
4437.9301865738207198
 20
245.1566758100495917
 30
0.0
 40
0.0413383414884529
 50
355.4706397710737065
 51
329.5485643942387242
  0
CIRCLE
  5
148EE
  8
0
 10
4437.9301865738098059
 20
245.1566758100466075
 30
0.0
 40
0.0216530092139399
  0
CIRCLE
  5
148EF
  8
0
 10
4437.9167321726008595
 20
245.1609154876381922
 30
0.0
 40
0.0551763204570077
  0
CIRCLE
  5
148F0
  8
0
 10
4437.920344054119596
 20
245.160612817919997
 30
0.0
 40
0.0649606298999999
  0
CIRCLE
  5
148F1
  8
0
 10
4437.7982968100695871
 20
245.2846285659200021
 30
0.0
 40
0.0411563807709944
  0
CIRCLE
  5
148F2
  8
0
 10
4437.7982968100695871
 20
245.2846285659699959
 30
0.0
 40
0.0215581041939323
  0
CIRCLE
  5
148F3
  8
0
 10
4437.7914895492203868
 20
245.2873456583699863
 30
0.0
 40
0.0552777471141772
  0
CIRCLE
  5
148F4
  8
0
 10
4437.7943598021201979
 20
245.286597069919992
 30
0.0
 40
0.0649606298999999
  0
CIRCLE
  5
148F5
  8
0
 10
4437.9301865738198103
 20
245.4106128178700033
 30
0.0
 40
0.0213119783330371
  0
CIRCLE
  5
148F6
  8
0
 10
4437.9301865738198103
 20
245.410612817919997
 30
0.0
 40
0.040686504135729
  0
CIRCLE
  5
148F7
  8
0
 10
4437.9167320440083131
 20
245.4134376911146092
 30
0.0
 40
0.05516044617536
  0
CIRCLE
  5
148F8
  8
0
 10
4437.920344054119596
 20
245.4125813218199994
 30
0.0
 40
0.0649606298999999
  0
CIRCLE
  5
148F9
  8
0
 10
4437.7982968100195649
 20
245.5385655738199944
 30
0.0
 40
0.0215678845709352
  0
CIRCLE
  5
148FA
  8
0
 10
4437.7982968100395738
 20
245.5385655738178912
 30
0.0
 40
0.0413383415163162
  0
CIRCLE
  5
148FB
  8
0
 10
4437.7915534425510486
 20
245.5399906172281135
 30
0.0
 40
0.0551279453834892
  0
CIRCLE
  5
148FC
  8
0
 10
4437.7943598021201979
 20
245.5385655738199944
 30
0.0
 40
0.0649606298999999
  0
CIRCLE
  5
148FD
  8
0
 10
4437.9301865738107153
 20
245.6645498257792042
 30
0.0
 40
0.0216530092329208
  0
CIRCLE
  5
148FE
  8
0
 10
4437.9301865738170818
 20
245.6645498258104112
 30
0.0
 40
0.04133834149529
  0
CIRCLE
  5
148FF
  8
0
 10
4437.9166969970701757
 20
245.665885193970098
 30
0.0
 40
0.0553771767259814
  0
CIRCLE
  5
14900
  8
0
 10
4437.920344054119596
 20
245.6645498258199893
 30
0.0
 40
0.0649606298999999
  0
CIRCLE
  5
14901
  8
0
 10
4437.7982968100695871
 20
245.7905340777199967
 30
0.0
 40
0.0215711450500011
  0
CIRCLE
  5
14902
  8
0
 10
4437.7982968100195649
 20
245.7905340777199967
 30
0.0
 40
0.0411812768999997
  0
CIRCLE
  5
14903
  8
0
 10
4437.7915393025195954
 20
245.7905340777199967
 30
0.0
 40
0.0552459929000007
  0
CIRCLE
  5
14904
  8
0
 10
4437.7943598021201979
 20
245.7905340777199967
 30
0.0
 40
0.0649606298999999
  0
CIRCLE
  5
14905
  8
0
 10
4437.9301865738098059
 20
246.6763608494935056
 30
0.0
 40
0.0216530092139399
  0
LINE
  5
14906
  8
0
 10
4438.6526275186197381
 20
238.6450616369199906
 30
0.0
 11
4436.6841235816200424
 21
238.6450616369199906
 31
0.0
  0
LINE
  5
14907
  8
0
 10
4433.9282180698191951
 20
238.6450616369199906
 30
0.0
 11
4431.9597141328204088
 21
238.6450616369199906
 31
0.0
  0
LINE
  5
14908
  8
0
 10
4429.3612889360201734
 20
238.6450616369199906
 30
0.0
 11
4427.0778243690201634
 21
238.6450616369199906
 31
0.0
  0
LINE
  5
14909
  8
0
 10
4436.7234936604900213
 20
238.900967148720099
 30
0.0
 11
4438.6132574399207442
 21
238.900967148720099
 31
0.0
  0
LINE
  5
1490A
  8
0
 10
4436.6841235816200424
 20
238.8615970698492958
 30
0.0
 11
4436.6841235816200424
 21
238.6450616369199906
 31
0.0
  0
LINE
  5
1490B
  8
0
 10
4438.6526275186197381
 20
238.8615970700199966
 30
0.0
 11
4438.6526275186197381
 21
238.6450616369199906
 31
0.0
  0
ARC
  5
1490C
  8
0
 10
4436.7234936604900213
 20
238.8615970698492958
 30
0.0
 40
0.0393700788707072
 50
90.0000001029176673
 51
179.9999997515645873
  0
ARC
  5
1490D
  8
0
 10
4438.6132574399207442
 20
238.8615970700199966
 30
0.0
 40
0.0393700786999971
 50
359.9999999999951115
 51
90.0
  0
LINE
  5
1490E
  8
0
 10
4429.3022338177488564
 20
244.9442742353199947
 30
0.0
 11
4427.136879487121405
 21
244.9442742353199947
 31
0.0
  0
LINE
  5
1490F
  8
0
 10
4427.136879487121405
 20
244.747423841619991
 30
0.0
 11
4429.3022338179198414
 21
244.747423841619991
 31
0.0
  0
LINE
  5
14910
  8
0
 10
4427.0778243690201634
 20
244.8852191172200037
 30
0.0
 11
4427.0778243690201634
 21
238.6450616369199906
 31
0.0
  0
LINE
  5
14911
  8
0
 10
4429.3612889360201734
 20
244.8852191170493029
 30
0.0
 11
4429.3612889360201734
 21
238.6450616369199906
 31
0.0
  0
ARC
  5
14912
  8
0
 10
4429.3022338177488564
 20
244.8852191170493029
 30
0.0
 40
0.0590551182707095
 50
0.0000001656241536
 51
89.9999999313708656
  0
LINE
  5
14913
  8
0
 10
4433.9282180698191951
 20
240.7513608495200117
 30
0.0
 11
4431.9597141328204088
 21
240.7513608495200117
 31
0.0
  0
LINE
  5
14914
  8
0
 10
4431.9597141328204088
 20
240.8340380149199973
 30
0.0
 11
4433.9282180698191951
 21
240.8340380149199973
 31
0.0
  0
LINE
  5
14915
  8
0
 10
4434.0476791415539992
 20
241.8182899834199873
 30
0.0
 11
4431.8402530610856047
 21
241.8182899834199873
 31
0.0
  0
LINE
  5
14916
  8
0
 10
4434.0519113104082862
 20
241.621439589720012
 30
0.0
 11
4431.8360208922331367
 21
241.621439589720012
 31
0.0
  0
ARC
  5
14917
  8
0
 10
4427.136879487121405
 20
244.8852191172200037
 30
0.0
 40
0.0590551181000008
 50
90.0
 51
179.9999999999984084
  0
ARC
  5
14918
  8
0
 10
4427.136879487121405
 20
244.8064789597200104
 30
0.0
 40
0.059055118100001
 50
179.9999999999984084
 51
270.0
  0
ARC
  5
14919
  8
0
 10
4427.1262064247111994
 20
244.4437515509956995
 30
0.0
 40
0.3038597939087185
 50
68.4285614892113614
 51
87.9870741111085835
  0
ARC
  5
1491A
  8
0
 10
4426.9331582585946308
 20
244.060751364108512
 30
0.0
 40
0.7320352436485938
 50
38.2783031768306614
 51
65.3971285245947485
  0
ARC
  5
1491B
  8
0
 10
4426.9798315800107957
 20
244.0604334732065013
 30
0.0
 40
0.696204158898896
 50
9.3108977583724482
 51
40.6790294372120371
  0
ARC
  5
1491C
  8
0
 10
4427.7270572245342919
 20
244.1821653430868082
 30
0.0
 40
0.0608767715579494
 50
188.5892552705300034
 51
221.9780373676800878
  0
ARC
  5
1491D
  8
0
 10
4427.7874586902917144
 20
244.2491728788978094
 30
0.0
 40
0.1508909667648541
 50
225.5550970718782082
 51
245.5899440090879011
  0
ARC
  5
1491E
  8
0
 10
4427.943627707518317
 20
244.6309969530286139
 30
0.0
 40
0.563338920033563
 50
247.1752568121559079
 51
260.2909096442875807
  0
ARC
  5
1491F
  8
0
 10
4428.1076023634850571
 20
245.412639484866105
 30
0.0
 40
1.361765619170108
 50
259.0367627042871845
 51
262.9890729535845821
  0
ARC
  5
14920
  8
0
 10
4428.2195566525197137
 20
241.8719027411146101
 30
0.0
 40
2.3966264982054311
 50
83.2698543516364253
 51
96.7301456483635747
  0
ARC
  5
14921
  8
0
 10
4428.0759000165471662
 20
243.1200588383298111
 30
0.0
 40
1.1402414063895261
 50
96.9114826874970703
 51
104.0128155346655063
  0
ARC
  5
14922
  8
0
 10
4427.9073194899738155
 20
243.8014453266621899
 30
0.0
 40
0.4383143105438745
 50
104.1992660746903994
 51
113.4422178809808059
  0
ARC
  5
14923
  8
0
 10
4427.7951447318591818
 20
244.0640567589842078
 30
0.0
 40
0.1527604909098724
 50
114.0262437234451056
 51
127.6521301304892972
  0
ARC
  5
14924
  8
0
 10
4427.7228834514498885
 20
244.1549686205644889
 30
0.0
 40
0.036678867302097
 50
125.0319297348584939
 51
235.5800603807471987
  0
ARC
  5
14925
  8
0
 10
4428.2195566525197137
 20
242.1774302056068109
 30
0.0
 40
2.0784870005132192
 50
82.2010177680044336
 51
97.7989822319955664
  0
ARC
  5
14926
  8
0
 10
4428.041728422597771
 20
243.4878041065335026
 30
0.0
 40
0.756104559423835
 50
97.9226300765910054
 51
107.6499367741305946
  0
ARC
  5
14927
  8
0
 10
4427.867365469053766
 20
244.0306777734446939
 30
0.0
 40
0.1859252741026014
 50
107.1705679380702065
 51
127.166289899368806
  0
ARC
  5
14928
  8
0
 10
4427.7716952323171427
 20
244.1568727604258982
 30
0.0
 40
0.0275650236089828
 50
127.166289899368806
 51
232.8337101006300998
  0
ARC
  5
14929
  8
0
 10
4428.041728422597771
 20
244.8259414143184074
 30
0.0
 40
0.756104559423835
 50
252.3500632258694054
 51
261.2795535964409055
  0
ARC
  5
1492A
  8
0
 10
4427.867365469053766
 20
244.2830677474071024
 30
0.0
 40
0.1859252741026014
 50
232.8337101006310945
 51
252.8294320619297935
  0
ARC
  5
1492B
  8
0
 10
4427.7716952323171427
 20
244.1761271427675126
 30
0.0
 40
0.0275650236089828
 50
200.441685265243791
 51
232.8337101006300998
  0
ARC
  5
1492C
  8
0
 10
4428.041728422597771
 20
244.8451957966599934
 30
0.0
 40
0.756104559423835
 50
252.3500632258694054
 51
260.2280703319646022
  0
ARC
  5
1492D
  8
0
 10
4427.867365469053766
 20
244.3023221297486884
 30
0.0
 40
0.1859252741026014
 50
232.8337101006310945
 51
252.8294320619297935
  0
ARC
  5
1492E
  8
0
 10
4428.0936208774346596
 20
244.1998421905466046
 30
0.0
 40
0.2060018044589804
 50
197.7539216898589984
 51
223.1026473688978911
  0
ARC
  5
1492F
  8
0
 10
4428.1483504895277292
 20
244.6347454119953966
 30
0.0
 40
0.61911640676389
 50
255.7184665898431035
 51
263.4600547253168088
  0
ARC
  5
14930
  8
0
 10
4428.043940409712377
 20
244.224576062246598
 30
0.0
 40
0.195866645700193
 50
244.1832984324811946
 51
255.7184665898431035
  0
ARC
  5
14931
  8
0
 10
4427.9842337357758879
 20
244.101158698983312
 30
0.0
 40
0.0587654696753515
 50
225.729420044959511
 51
244.1832984324805125
  0
ARC
  5
14932
  8
0
 10
4427.8066230602171345
 20
244.1982126378717908
 30
0.0
 40
0.0411046246745633
 50
195.5403054724897061
 51
232.0957435356976077
  0
ARC
  5
14933
  8
0
 10
4427.8398233285315655
 20
244.2397882361757127
 30
0.0
 40
0.0943080215328651
 50
231.6980598364341972
 51
239.0360278934097096
  0
LINE
  5
14934
  8
0
 10
4427.7864857864205987
 20
244.1980894949199978
 30
0.0
 11
4427.7864857864205987
 21
244.1722765489660105
 31
0.0
  0
ARC
  5
14935
  8
0
 10
4427.807385666474147
 20
244.1722765489660105
 30
0.0
 40
0.0208998800540823
 50
141.3803839213169908
 51
218.6196160786817018
  0
ARC
  5
14936
  8
0
 10
4427.8601713921070768
 20
244.1235575645490883
 30
0.0
 40
0.092690970159525
 50
113.5353269323606042
 51
138.2148878114768991
  0
ARC
  5
14937
  8
0
 10
4427.9344402088800052
 20
243.968255903903497
 30
0.0
 40
0.2648000529061603
 50
108.7040332661087945
 51
114.8502375712475043
  0
ARC
  5
14938
  8
0
 10
4427.841388196357002
 20
244.1985844477864873
 30
0.0
 40
0.0638897810381337
 50
218.0205127315662992
 51
242.1583389754077871
  0
ARC
  5
14939
  8
0
 10
4427.9296204141946873
 20
244.3595350860501014
 30
0.0
 40
0.2474325145568416
 50
241.4984052834990962
 51
253.5027225898870995
  0
ARC
  5
1493A
  8
0
 10
4428.0108841089377165
 20
244.6130906270965113
 30
0.0
 40
0.5136604985725151
 50
252.8427888980226044
 51
256.6435115106659168
  0
ARC
  5
1493B
  8
0
 10
4428.4316347092199067
 20
244.3850159034201965
 30
0.0
 40
0.6178845637003841
 50
200.7314972614935016
 51
203.897421807295899
  0
ARC
  5
1493C
  8
0
 10
4427.8689305229318052
 20
244.1722570637450076
 30
0.0
 40
0.0163027509051468
 50
163.6583749710528082
 51
201.4642756000858981
  0
ARC
  5
1493D
  8
0
 10
4427.8901145559357246
 20
244.1603708168019864
 30
0.0
 40
0.0403445444149496
 50
123.7913291390137971
 51
155.9010165838307955
  0
ARC
  5
1493E
  8
0
 10
4427.97029618751003
 20
244.0262314806932977
 30
0.0
 40
0.1965796901785441
 50
105.5900746265237018
 51
121.4683666555955028
  0
ARC
  5
1493F
  8
0
 10
4428.087952698877416
 20
243.6228437110291907
 30
0.0
 40
0.616766605803603
 50
99.3097877992125859
 51
106.046776695343695
  0
ARC
  5
14940
  8
0
 10
4428.2195566525197137
 20
242.6727118037998139
 30
0.0
 40
1.57585361262025
 50
81.5568386981305053
 51
98.4431613018694947
  0
ARC
  5
14941
  8
0
 10
4428.0858861280066776
 20
243.6421262826279985
 30
0.0
 40
0.563709992555335
 50
99.193926056856526
 51
106.7715305461849056
  0
ARC
  5
14942
  8
0
 10
4427.9801236233761301
 20
243.9930587025401962
 30
0.0
 40
0.1971867726474978
 50
106.7715305461849056
 51
118.4328805479721041
  0
ARC
  5
14943
  8
0
 10
4427.9157179644507778
 20
244.1125432543919089
 30
0.0
 40
0.0614501115947176
 50
118.6690527470067025
 51
137.0696017945535914
  0
ARC
  5
14944
  8
0
 10
4427.8838891831901492
 20
244.1414684385088947
 30
0.0
 40
0.0184512334158851
 50
135.5155601594738073
 51
224.4844398405626862
  0
ARC
  5
14945
  8
0
 10
4427.9164187268406749
 20
244.1713195398706944
 30
0.0
 40
0.0625941694912102
 50
223.1140584284464978
 51
240.9803260187827902
  0
ARC
  5
14946
  8
0
 10
4427.9689660911089959
 20
244.2660407743225051
 30
0.0
 40
0.1709147019289515
 50
240.9803260187827902
 51
250.0070972627212882
  0
ARC
  5
14947
  8
0
 10
4428.0885898690903559
 20
243.7286249684482016
 30
0.0
 40
0.4705187643312963
 50
99.5123091908273238
 51
108.2772756309695978
  0
ARC
  5
14948
  8
0
 10
4427.9841331280085797
 20
244.0448936904118966
 30
0.0
 40
0.1374465270469109
 50
108.2772756309695978
 51
121.3801845271158015
  0
ARC
  5
14949
  8
0
 10
4427.9367797718041402
 20
244.1225313066154001
 30
0.0
 40
0.0465073177163043
 50
121.3801845271158015
 51
142.4416477926353082
  0
ARC
  5
1494A
  8
0
 10
4427.9120339165647238
 20
244.1415595414094923
 30
0.0
 40
0.0152914392097958
 50
142.4416477926353082
 51
197.2454011442943056
  0
ARC
  5
1494B
  8
0
 10
4428.2191861699202491
 20
242.9137831145291102
 30
0.0
 40
1.2100566426970909
 50
90.1688740310511463
 51
92.7821943121651316
  0
ARC
  5
1494C
  8
0
 10
4428.2052311808138256
 20
243.1465489960280877
 30
0.0
 40
0.97686088126016
 50
93.5209137685835969
 51
96.5356077647170849
  0
ARC
  5
1494D
  8
0
 10
4428.1662724911566329
 20
243.4681168605455923
 30
0.0
 40
0.6529287825558338
 50
96.9536188790574727
 51
100.8947858820361034
  0
ARC
  5
1494E
  8
0
 10
4428.095406814951275
 20
243.8101809914776936
 30
0.0
 40
0.3035354508102393
 50
102.1097895009730934
 51
108.6728341224042964
  0
ARC
  5
1494F
  8
0
 10
4428.028367631830406
 20
243.9995854149890988
 30
0.0
 40
0.1025630996299291
 50
109.4067685917136998
 51
122.9228947085028949
  0
ARC
  5
14950
  8
0
 10
4427.9794562228116774
 20
244.0682426858128053
 30
0.0
 40
0.0179633460119799
 50
127.3921310615696996
 51
171.027432041634313
  0
ARC
  5
14951
  8
0
 10
4428.2191228111432793
 20
243.1748706109897
 30
0.0
 40
0.9370996868096167
 50
90.214189724977814
 51
92.684369122204231
  0
ARC
  5
14952
  8
0
 10
4428.2082020755196936
 20
243.3527282454201952
 30
0.0
 40
0.7588972014998459
 50
93.6398837971981237
 51
96.4772554106754257
  0
ARC
  5
14953
  8
0
 10
4428.1783614573505474
 20
243.5990252453202061
 30
0.0
 40
0.510786525189312
 50
97.0383738204517385
 51
100.7308179893157956
  0
ARC
  5
14954
  8
0
 10
4428.1223066252377976
 20
243.869491094449188
 30
0.0
 40
0.2345063926584007
 50
102.3574398707418993
 51
108.5579937143616007
  0
ARC
  5
14955
  8
0
 10
4428.07096836691926
 20
244.0144094990507995
 30
0.0
 40
0.08070988254606
 50
109.720254541711796
 51
122.3359542502719961
  0
ARC
  5
14956
  8
0
 10
4428.0323583613253504
 20
244.0687497964123907
 30
0.0
 40
0.0137433957266104
 50
128.9313822931169966
 51
170.3893785337108966
  0
ARC
  5
14957
  8
0
 10
4428.2171116154122501
 20
243.273019091915188
 30
0.0
 40
0.8377179183015275
 50
90.1020435074497357
 51
96.275233880351152
  0
ARC
  5
14958
  8
0
 10
4428.1572647501534448
 20
243.7541086047930037
 30
0.0
 40
0.3529011258424696
 50
96.2695118807554451
 51
107.220755279188694
  0
ARC
  5
14959
  8
0
 10
4428.0791648789663668
 20
244.0077307274077043
 30
0.0
 40
0.0874627762509237
 50
110.2797449713102935
 51
120.7048998071724952
  0
ARC
  5
1495A
  8
0
 10
4428.0356011044368643
 20
244.0696577630891113
 30
0.0
 40
0.0109745080195482
 50
140.7518864424638991
 51
172.7418812343977947
  0
ARC
  5
1495B
  8
0
 10
4428.0505496444366145
 20
244.0566776079290889
 30
0.0
 40
0.0307688824895545
 50
121.4301408906450064
 51
139.6450260968838961
  0
ARC
  5
1495C
  8
0
 10
4428.2177901097484209
 20
243.5060155132584896
 30
0.0
 40
0.5928517400752435
 50
90.2097636910405782
 51
96.167513686346993
  0
ARC
  5
1495D
  8
0
 10
4428.1753471091833489
 20
243.8466181949339955
 30
0.0
 40
0.2495825597935101
 50
96.4574809370347737
 51
107.0327862458944992
  0
ARC
  5
1495E
  8
0
 10
4428.1190376405693314
 20
244.0286403457454014
 30
0.0
 40
0.0589614933088479
 50
110.5894886473883929
 51
121.1201369227112963
  0
ARC
  5
1495F
  8
0
 10
4428.1010503943498406
 20
244.0591144445546945
 30
0.0
 40
0.0235792538713272
 50
121.9741336393435063
 51
134.5738439765408998
  0
ARC
  5
14960
  8
0
 10
4428.0909901317590993
 20
244.0691589293415973
 30
0.0
 40
0.0093642564822402
 50
133.8586086842761915
 51
168.3849916775442068
  0
ARC
  5
14961
  8
0
 10
4428.2171198940950489
 20
243.8066175355851044
 30
0.0
 40
0.2778728685357287
 50
92.6969079217465151
 51
95.8964689145213072
  0
ARC
  5
14962
  8
0
 10
4428.2010698661442802
 20
243.9367476135385004
 30
0.0
 40
0.1467309212228084
 50
97.5642277401141911
 51
104.1764888625281031
  0
ARC
  5
14963
  8
0
 10
4428.1778597262727999
 20
244.028631723559414
 30
0.0
 40
0.0519606713170814
 50
104.1764888625281031
 51
114.2138916077937978
  0
ARC
  5
14964
  8
0
 10
4428.1639413738757867
 20
244.0595474505522873
 30
0.0
 40
0.0180563625746442
 50
114.1697200454205046
 51
128.9421242928472964
  0
ARC
  5
14965
  8
0
 10
4428.1561528745824035
 20
244.0691218669578859
 30
0.0
 40
0.0057143553575879
 50
128.5421345092779006
 51
160.3412285665891943
  0
ARC
  5
14966
  8
0
 10
4428.2014921251029591
 20
243.9542200040719138
 30
0.0
 40
0.128020831860535
 50
97.5313457474143348
 51
104.3806348985982027
  0
ARC
  5
14967
  8
0
 10
4428.1816981066403969
 20
244.0314209306440034
 30
0.0
 40
0.0483227375887489
 50
104.3806348985982027
 51
114.1445442272673034
  0
ARC
  5
14968
  8
0
 10
4428.1683793161673748
 20
244.0611334647657031
 30
0.0
 40
0.0157616432643215
 50
114.1445442272673034
 51
131.5567231435259998
  0
ARC
  5
14969
  8
0
 10
4428.1614086680228866
 20
244.0692938100847016
 30
0.0
 40
0.0050350648823123
 50
133.8004502796810868
 51
159.6560273711459104
  0
LINE
  5
1496A
  8
0
 10
4428.2156196446203467
 20
244.1238345012199886
 30
0.0
 11
4428.2156196446203467
 21
244.1119637498200063
 31
0.0
  0
LINE
  5
1496B
  8
0
 10
4428.2156196446203467
 20
244.1107356816200138
 30
0.0
 11
4428.2156196446203467
 21
244.0988632802200016
 31
0.0
  0
LINE
  5
1496C
  8
0
 10
4428.1752347392020965
 20
244.1109420079247059
 30
0.0
 11
4428.1604507821211882
 21
244.1224134272200104
 31
0.0
  0
LINE
  5
1496D
  8
0
 10
4428.1452393517201926
 20
244.1215660019200016
 30
0.0
 11
4428.1600233089202447
 21
244.1100945827321027
 31
0.0
  0
LINE
  5
1496E
  8
0
 10
4428.0940442211203845
 20
244.1170615623200035
 30
0.0
 11
4428.122591801505223
 21
244.106781190131187
 31
0.0
  0
LINE
  5
1496F
  8
0
 10
4428.1255451424203784
 20
244.1057176518199867
 30
0.0
 11
4428.1540966908196424
 21
244.0954358506199924
 31
0.0
  0
LINE
  5
14970
  8
0
 10
4428.1472775931197248
 20
244.0946173006200013
 30
0.0
 11
4428.1187260447195513
 21
244.1048991018199956
 31
0.0
  0
LINE
  5
14971
  8
0
 10
4428.1157727038198573
 20
244.1059626401199978
 30
0.0
 11
4428.0872251234195573
 21
244.11624301242
 31
0.0
  0
LINE
  5
14972
  8
0
 10
4428.0428649811201467
 20
244.1092772005200118
 30
0.0
 11
4428.0832555032202436
 21
244.1008795387199939
 31
0.0
  0
LINE
  5
14973
  8
0
 10
4428.0317294413207492
 20
244.1069619915199951
 30
0.0
 11
4428.0721199633198921
 21
244.0985643298199932
 31
0.0
  0
LINE
  5
14974
  8
0
 10
4428.0527869326197106
 20
244.0911895895200132
 30
0.0
 11
4428.1022396650214432
 21
244.0852533888200071
 31
0.0
  0
LINE
  5
14975
  8
0
 10
4428.0488499247203436
 20
244.0897718194200081
 30
0.0
 11
4428.0983026572203016
 21
244.083835618720002
 31
0.0
  0
LINE
  5
14976
  8
0
 10
4427.9982257364208635
 20
244.0977389993200006
 30
0.0
 11
4428.0476715961212903
 21
244.0918036236199953
 31
0.0
  0
LINE
  5
14977
  8
0
 10
4427.994288728520587
 20
244.0963212292199955
 30
0.0
 11
4428.0437345882201043
 21
244.0903858535199902
 31
0.0
  0
LINE
  5
14978
  8
0
 10
4427.9726235709204047
 20
244.0856771630199944
 30
0.0
 11
4428.0277980500195554
 21
244.0826034055199898
 31
0.0
  0
LINE
  5
14979
  8
0
 10
4427.9685476804197606
 20
244.0825145288200133
 30
0.0
 11
4428.0237221595207302
 21
244.0794407713200087
 31
0.0
  0
LINE
  5
1497A
  8
0
 10
4427.9617126920193186
 20
244.0710442773199986
 30
0.0
 11
4428.0188078527207836
 21
244.0710442773199986
 31
0.0
  0
LINE
  5
1497B
  8
0
 10
4428.0247145345201716
 20
244.0710442773199986
 30
0.0
 11
4428.0818176314196535
 21
244.0710442773199986
 31
0.0
  0
ARC
  5
1497C
  8
0
 10
4428.2141425238196462
 20
243.5760209550396951
 30
0.0
 40
0.5214857171229041
 50
92.8450861195853889
 51
96.2852921884715016
  0
ARC
  5
1497D
  8
0
 10
4428.1848674252432829
 20
243.8109601728783957
 30
0.0
 40
0.2847079893829292
 50
96.9875591992395414
 51
103.8968562173171932
  0
ARC
  5
1497E
  8
0
 10
4428.1406424038077603
 20
243.9897072509945133
 30
0.0
 40
0.1005711640166936
 50
103.8968562173171932
 51
116.2536735519865942
  0
ARC
  5
1497F
  8
0
 10
4428.1057536264142982
 20
244.0604432593792978
 30
0.0
 40
0.0216990544321967
 50
116.2536735519865942
 51
134.2164540007337905
  0
ARC
  5
14980
  8
0
 10
4428.0981232412214013
 20
244.0682852495764905
 30
0.0
 40
0.0107574097454887
 50
134.2164540007350126
 51
165.1388804243337063
  0
LINE
  5
14981
  8
0
 10
4428.0877256631201817
 20
244.0710442773199986
 30
0.0
 11
4428.1507715926200035
 21
244.0710442773199986
 31
0.0
  0
ARC
  5
14982
  8
0
 10
4428.2195566525197137
 20
243.9479332018862863
 30
0.0
 40
0.1280223752337406
 50
85.4173354707189958
 51
94.5826645292810042
  0
ARC
  5
14983
  8
0
 10
4428.2097605970484437
 20
244.0285182637028072
 30
0.0
 40
0.0467750341359654
 50
98.9187285742489451
 51
105.6874130260683984
  0
ARC
  5
14984
  8
0
 10
4428.2021209337472101
 20
244.0557201694865057
 30
0.0
 40
0.0185206869729384
 50
105.6874130260683984
 51
116.4688862410583994
  0
ARC
  5
14985
  8
0
 10
4428.1960529840480376
 20
244.0679071625191057
 30
0.0
 40
0.0049066202501065
 50
116.4688862410590957
 51
140.2556126053443109
  0
LINE
  5
14986
  8
0
 10
4428.1566876784208944
 20
244.0710442773199986
 30
0.0
 11
4428.1922802618200876
 21
244.0710442773199986
 31
0.0
  0
LINE
  5
14987
  8
0
 10
4428.1502316090200111
 20
244.093553519320011
 30
0.0
 11
4428.1817545737203545
 21
244.0822016706200088
 31
0.0
  0
LINE
  5
14988
  8
0
 10
4428.1847126166203452
 20
244.0811364391200016
 30
0.0
 11
4428.2025089083208513
 21
244.0747277522200136
 31
0.0
  0
LINE
  5
14989
  8
0
 10
4428.191531714291159
 20
244.0819549890171061
 30
0.0
 11
4428.209328006020769
 21
244.0755463021199887
 31
0.0
  0
ARC
  5
1498A
  8
0
 10
4428.2170597000203998
 20
243.8327695315464894
 30
0.0
 40
0.2504896610045429
 50
92.6389513365340775
 51
95.8493017686625848
  0
LINE
  5
1498B
  8
0
 10
4428.1570507066198843
 20
244.0943720692199861
 30
0.0
 11
4428.1885736714202721
 21
244.0830202205200976
 31
0.0
  0
ARC
  5
1498C
  8
0
 10
4428.2191861699202491
 20
245.2266683402108924
 30
0.0
 40
1.2100566426970909
 50
267.2178056878349253
 51
269.8311259689489248
  0
ARC
  5
1498D
  8
0
 10
4428.2052311808138256
 20
244.9939024587118865
 30
0.0
 40
0.97686088126016
 50
263.4643922352830145
 51
266.4790862314163746
  0
ARC
  5
1498E
  8
0
 10
4428.1662724911566329
 20
244.6723345941944956
 30
0.0
 40
0.6529287825558338
 50
259.1052141179638966
 51
263.0463811209426126
  0
ARC
  5
1498F
  8
0
 10
4428.095406814951275
 20
244.330270463262309
 30
0.0
 40
0.3035354508102393
 50
251.3271658775956894
 51
257.8902104990269208
  0
ARC
  5
14990
  8
0
 10
4428.028367631830406
 20
244.1408660397509891
 30
0.0
 40
0.1025630996299291
 50
237.0771052914971051
 51
250.5932314082861865
  0
ARC
  5
14991
  8
0
 10
4427.9794562228116774
 20
244.072208768927311
 30
0.0
 40
0.0179633460119799
 50
188.972567958365687
 51
232.6078689384301867
  0
ARC
  5
14992
  8
0
 10
4428.2191228111432793
 20
244.9655808437503879
 30
0.0
 40
0.9370996868096167
 50
267.3156308777957975
 51
269.785810275022186
  0
ARC
  5
14993
  8
0
 10
4428.2082020755196936
 20
244.7877232093198927
 30
0.0
 40
0.7588972014998459
 50
263.5227445893245886
 51
266.3601162028019189
  0
ARC
  5
14994
  8
0
 10
4428.1783614573505474
 20
244.5414262094199103
 30
0.0
 40
0.510786525189312
 50
259.269182010684176
 51
262.9616261795483183
  0
ARC
  5
14995
  8
0
 10
4428.1223066252377976
 20
244.2709603602908999
 30
0.0
 40
0.2345063926584007
 50
251.4420062856383993
 51
257.6425601292580723
  0
ARC
  5
14996
  8
0
 10
4428.07096836691926
 20
244.1260419556892032
 30
0.0
 40
0.08070988254606
 50
237.6640457497279897
 51
250.279745458288204
  0
ARC
  5
14997
  8
0
 10
4428.0323583613253504
 20
244.0717016583276973
 30
0.0
 40
0.0137433957266104
 50
189.6106214662891034
 51
231.0686177068828897
  0
ARC
  5
14998
  8
0
 10
4428.2171116154122501
 20
244.8674323628247862
 30
0.0
 40
0.8377179183015275
 50
263.7247661196489048
 51
269.8979564925502928
  0
ARC
  5
14999
  8
0
 10
4428.1572647501534448
 20
244.3863428499471127
 30
0.0
 40
0.3529011258424696
 50
252.779244720811306
 51
263.7304881192445123
  0
ARC
  5
1499A
  8
0
 10
4428.0791648789663668
 20
244.132720727332412
 30
0.0
 40
0.0874627762509237
 50
239.2951001928275048
 51
249.7202550286897065
  0
ARC
  5
1499B
  8
0
 10
4428.0356011044368643
 20
244.0707936916508913
 30
0.0
 40
0.0109745080195482
 50
187.2581187656020916
 51
219.2481135575361009
  0
ARC
  5
1499C
  8
0
 10
4428.0505496444366145
 20
244.0837738468109137
 30
0.0
 40
0.0307688824895545
 50
220.3549739031161039
 51
238.5698591093550078
  0
ARC
  5
1499D
  8
0
 10
4428.2177901097484209
 20
244.6344359414815983
 30
0.0
 40
0.5928517400752435
 50
263.8324863136530212
 51
269.7902363089593791
  0
ARC
  5
1499E
  8
0
 10
4428.1753471091833489
 20
244.2938332598060072
 30
0.0
 40
0.2495825597935101
 50
252.9672137541055008
 51
263.5425190629651979
  0
ARC
  5
1499F
  8
0
 10
4428.1190376405693314
 20
244.1118111089946012
 30
0.0
 40
0.0589614933088479
 50
238.8798630772886042
 51
249.4105113526115076
  0
ARC
  5
149A0
  8
0
 10
4428.1010503943498406
 20
244.0813370101853934
 30
0.0
 40
0.0235792538713272
 50
225.4261560234591002
 51
238.0258663606564937
  0
ARC
  5
149A1
  8
0
 10
4428.0909901317590993
 20
244.0712925253984906
 30
0.0
 40
0.0093642564822402
 50
191.6150083224557079
 51
226.1413913157236948
  0
ARC
  5
149A2
  8
0
 10
4428.2171198940950489
 20
244.3338339191548982
 30
0.0
 40
0.2778728685357287
 50
264.1035310854787213
 51
267.3030920782534849
  0
ARC
  5
149A3
  8
0
 10
4428.2010698661442802
 20
244.2037038412015022
 30
0.0
 40
0.1467309212228084
 50
255.8235111374719111
 51
262.4357722598858231
  0
ARC
  5
149A4
  8
0
 10
4428.1778597262727999
 20
244.1118197311807023
 30
0.0
 40
0.0519606713170814
 50
245.786108392206188
 51
255.8235111374719111
  0
ARC
  5
149A5
  8
0
 10
4428.1639413738757867
 20
244.0809040041878006
 30
0.0
 40
0.0180563625746442
 50
231.0578757071527036
 51
245.8302799545795096
  0
ARC
  5
149A6
  8
0
 10
4428.1561528745824035
 20
244.071329587782202
 30
0.0
 40
0.0057143553575879
 50
199.658771433410692
 51
231.4578654907220994
  0
ARC
  5
149A7
  8
0
 10
4428.2014921251029591
 20
244.1862314506682026
 30
0.0
 40
0.128020831860535
 50
255.6193651014017973
 51
262.4686542525856225
  0
ARC
  5
149A8
  8
0
 10
4428.1816981066403969
 20
244.1090305240961129
 30
0.0
 40
0.0483227375887489
 50
245.8554557727327108
 51
255.6193651014017973
  0
ARC
  5
149A9
  8
0
 10
4428.1683793161673748
 20
244.0793179899744132
 30
0.0
 40
0.0157616432643215
 50
228.4432768564740002
 51
245.8554557727327108
  0
ARC
  5
149AA
  8
0
 10
4428.1614086680228866
 20
244.0711576446553011
 30
0.0
 40
0.0050350648823123
 50
200.3439726288540044
 51
226.1995497203189132
  0
LINE
  5
149AB
  8
0
 10
4428.2156196446203467
 20
244.0166169535200993
 30
0.0
 11
4428.2156196446203467
 21
244.0284877049199963
 31
0.0
  0
LINE
  5
149AC
  8
0
 10
4428.2156196446203467
 20
244.0297157731199889
 30
0.0
 11
4428.2156196446203467
 21
244.0415881745200011
 31
0.0
  0
LINE
  5
149AD
  8
0
 10
4428.1752347392020965
 20
244.0295094468152968
 30
0.0
 11
4428.1604507821211882
 21
244.0180380275199923
 31
0.0
  0
LINE
  5
149AE
  8
0
 10
4428.1452393517201926
 20
244.0188854528200011
 30
0.0
 11
4428.1600233089202447
 21
244.0303568720080136
 31
0.0
  0
LINE
  5
149AF
  8
0
 10
4428.0940442211203845
 20
244.0233898924199991
 30
0.0
 11
4428.122591801505223
 21
244.0336702646089009
 31
0.0
  0
LINE
  5
149B0
  8
0
 10
4428.1255451424203784
 20
244.0347338029201012
 30
0.0
 11
4428.1540966908196424
 21
244.0450156041200955
 31
0.0
  0
LINE
  5
149B1
  8
0
 10
4428.1472775931197248
 20
244.0458341541200014
 30
0.0
 11
4428.1187260447195513
 21
244.035552352920007
 31
0.0
  0
LINE
  5
149B2
  8
0
 10
4428.1157727038198573
 20
244.0344888146200049
 30
0.0
 11
4428.0872251234195573
 21
244.0242084423200026
 31
0.0
  0
LINE
  5
149B3
  8
0
 10
4428.0428649811201467
 20
244.0311742542199909
 30
0.0
 11
4428.0832555032202436
 21
244.0395719160200088
 31
0.0
  0
LINE
  5
149B4
  8
0
 10
4428.0317294413207492
 20
244.0334894632200076
 30
0.0
 11
4428.0721199633198921
 21
244.0418871249200095
 31
0.0
  0
LINE
  5
149B5
  8
0
 10
4428.0527869326197106
 20
244.0492618652199894
 30
0.0
 11
4428.1022396650214432
 21
244.0551980659199955
 31
0.0
  0
LINE
  5
149B6
  8
0
 10
4428.0488499247203436
 20
244.0506796353199945
 30
0.0
 11
4428.0983026572203016
 21
244.0566158360200006
 31
0.0
  0
LINE
  5
149B7
  8
0
 10
4427.9982257364208635
 20
244.042712455420002
 30
0.0
 11
4428.0476715961212903
 21
244.0486478311200074
 31
0.0
  0
LINE
  5
149B8
  8
0
 10
4427.994288728520587
 20
244.0441302255200071
 30
0.0
 11
4428.0437345882201043
 21
244.0500656012200977
 31
0.0
  0
LINE
  5
149B9
  8
0
 10
4427.9726235709204047
 20
244.0547742917200083
 30
0.0
 11
4428.0277980500195554
 21
244.0578480492200981
 31
0.0
  0
LINE
  5
149BA
  8
0
 10
4427.9685476804197606
 20
244.057936925920103
 30
0.0
 11
4428.0237221595207302
 21
244.0610106834199939
 31
0.0
  0
LINE
  5
149BB
  8
0
 10
4427.9617126920193186
 20
244.069407177420004
 30
0.0
 11
4428.0188078527207836
 21
244.069407177420004
 31
0.0
  0
LINE
  5
149BC
  8
0
 10
4428.0247145345201716
 20
244.069407177420004
 30
0.0
 11
4428.0818176314196535
 21
244.069407177420004
 31
0.0
  0
ARC
  5
149BD
  8
0
 10
4428.2141425238196462
 20
244.5644304997003076
 30
0.0
 40
0.5214857171229041
 50
263.7147078115285126
 51
267.1549138804145969
  0
ARC
  5
149BE
  8
0
 10
4428.1848674252432829
 20
244.3294912818616069
 30
0.0
 40
0.2847079893829292
 50
256.1031437826827073
 51
263.012440800760487
  0
ARC
  5
149BF
  8
0
 10
4428.1406424038077603
 20
244.1507442037454894
 30
0.0
 40
0.1005711640166936
 50
243.7463264480134058
 51
256.1031437826827073
  0
ARC
  5
149C0
  8
0
 10
4428.1057536264142982
 20
244.0800081953607048
 30
0.0
 40
0.0216990544321967
 50
225.7835459992662095
 51
243.7463264480134058
  0
ARC
  5
149C1
  8
0
 10
4428.0981232412214013
 20
244.0721662051635121
 30
0.0
 40
0.0107574097454887
 50
194.8611195756662084
 51
225.7835459992649874
  0
LINE
  5
149C2
  8
0
 10
4428.0877256631201817
 20
244.069407177420004
 30
0.0
 11
4428.1507715926200035
 21
244.069407177420004
 31
0.0
  0
ARC
  5
149C3
  8
0
 10
4428.2195566525197137
 20
244.1925182528538016
 30
0.0
 40
0.1280223752337503
 50
265.4173354707189105
 51
274.5826645292809758
  0
ARC
  5
149C4
  8
0
 10
4428.2097605970484437
 20
244.1119331910373091
 30
0.0
 40
0.0467750341359654
 50
254.3125869739315021
 51
261.0812714257510265
  0
ARC
  5
149C5
  8
0
 10
4428.2021209337472101
 20
244.0847312852534969
 30
0.0
 40
0.0185206869729384
 50
243.5311137589415864
 51
254.3125869739315021
  0
ARC
  5
149C6
  8
0
 10
4428.1960529840480376
 20
244.072544292220897
 30
0.0
 40
0.0049066202501065
 50
219.7443873946556891
 51
243.5311137589409043
  0
LINE
  5
149C7
  8
0
 10
4428.1566876784208944
 20
244.069407177420004
 30
0.0
 11
4428.1922802618200876
 21
244.069407177420004
 31
0.0
  0
LINE
  5
149C8
  8
0
 10
4428.1502316090200111
 20
244.0468979354199917
 30
0.0
 11
4428.1817545737203545
 21
244.0582497841199938
 31
0.0
  0
LINE
  5
149C9
  8
0
 10
4428.1847126166203452
 20
244.0593150156200011
 30
0.0
 11
4428.2025089083208513
 21
244.065723702519989
 31
0.0
  0
LINE
  5
149CA
  8
0
 10
4428.191531714291159
 20
244.0584964657230103
 30
0.0
 11
4428.209328006020769
 21
244.064905152620014
 31
0.0
  0
ARC
  5
149CB
  8
0
 10
4428.2170597000203998
 20
244.3076819231935985
 30
0.0
 40
0.2504896610045429
 50
264.1506982313375147
 51
267.3610486634659082
  0
LINE
  5
149CC
  8
0
 10
4428.1570507066198843
 20
244.0460793855199881
 30
0.0
 11
4428.1885736714202721
 21
244.0574312342199903
 31
0.0
  0
LINE
  5
149CD
  8
0
 10
4431.8009069654199266
 20
241.7802939005200074
 30
0.0
 11
4431.796782465119577
 21
241.662183664319997
 31
0.0
  0
ARC
  5
149CE
  8
0
 10
4431.8402530610856047
 20
241.7789199045649013
 30
0.0
 40
0.0393700788551694
 50
90.0000002419477028
 51
177.9999999738087126
  0
ARC
  5
149CF
  8
0
 10
4431.8361288062333188
 20
241.6608097626842095
 30
0.0
 40
0.039370320860548
 50
178.0001496196028938
 51
255.0995678816385066
  0
ARC
  5
149D0
  8
0
 10
4431.7611975604386316
 20
241.3975127525465041
 30
0.0
 40
0.2343882035508463
 50
69.2395690003626783
 51
73.9487740749997755
  0
ARC
  5
149D1
  8
0
 10
4431.7851173542931065
 20
241.4703043388259118
 30
0.0
 40
0.1578816576863411
 50
1.595603199850945
 51
67.9928612100724763
  0
LINE
  5
149D2
  8
0
 10
4431.9429377941196435
 20
241.4747005425199973
 30
0.0
 11
4431.9597141328204088
 21
240.8340380149199973
 31
0.0
  0
LINE
  5
149D3
  8
0
 10
4431.9597141328204088
 20
240.7513608495200117
 30
0.0
 11
4431.9597141328204088
 21
238.6450616369199906
 31
0.0
  0
CIRCLE
  5
149D4
  8
0
 10
4432.9439661013202567
 20
241.3458490385199866
 30
0.0
 40
0.1771653542999996
  0
LINE
  5
149D5
  8
0
 10
4434.0870252372205869
 20
241.7802939005200074
 30
0.0
 11
4434.091149737520027
 21
241.662183664319997
 31
0.0
  0
ARC
  5
149D6
  8
0
 10
4434.0476791415539992
 20
241.7789199045649013
 30
0.0
 40
0.0393700788551694
 50
2.000000026191278
 51
89.999999758052283
  0
ARC
  5
149D7
  8
0
 10
4434.0518033964081042
 20
241.6608097626842095
 30
0.0
 40
0.039370320860548
 50
284.9004321183614934
 51
1.9998503803971039
  0
ARC
  5
149D8
  8
0
 10
4434.1267346422009723
 20
241.3975127525465041
 30
0.0
 40
0.2343882035508463
 50
106.0512259250001961
 51
110.7604309996372933
  0
ARC
  5
149D9
  8
0
 10
4434.102814848347407
 20
241.4703043388259118
 30
0.0
 40
0.1578816576863411
 50
112.0071387899274953
 51
178.404396800149101
  0
LINE
  5
149DA
  8
0
 10
4433.9449944085208699
 20
241.4747005425199973
 30
0.0
 11
4433.9282180698191951
 21
240.8340380149199973
 31
0.0
  0
LINE
  5
149DB
  8
0
 10
4433.9282180698191951
 20
240.7513608495200117
 30
0.0
 11
4433.9282180698191951
 21
238.6450616369199906
 31
0.0
  0
ARC
  5
149DC
  8
0
 10
4432.9439653834942874
 20
240.6332507688553051
 30
0.0
 40
0.9251961159279227
 50
167.4658615225906999
 51
168.7089233989871957
  0
ARC
  5
149DD
  8
0
 10
4432.3455409459093062
 20
240.7527308525286003
 30
0.0
 40
0.314960671288576
 50
168.7089233989871957
 51
179.9999992557164035
  0
ARC
  5
149DE
  8
0
 10
4432.9439660085390642
 20
240.633250593216502
 30
0.0
 40
0.9251969453320654
 50
11.2910774375722198
 51
12.5341382008504603
  0
ARC
  5
149DF
  8
0
 10
4433.5423913033500867
 20
240.7527308571272044
 30
0.0
 40
0.3149606247691415
 50
359.9999999077339794
 51
11.2910774375722198
  0
LINE
  5
149E0
  8
0
 10
4433.8573519281208064
 20
240.7527308566199906
 30
0.0
 11
4433.8573519281208064
 21
240.7513608495200117
 31
0.0
  0
LINE
  5
149E1
  8
0
 10
4432.0305802746197514
 20
240.7527308566199906
 30
0.0
 11
4432.0305802746197514
 21
240.7513608495200117
 31
0.0
  0
ARC
  5
149E2
  8
0
 10
4429.3022338179198414
 20
244.8064789597200104
 30
0.0
 40
0.059055118100001
 50
270.0
 51
0.0000000000016284
  0
ARC
  5
149E3
  8
0
 10
4429.3129068803291375
 20
244.4437515509956995
 30
0.0
 40
0.3038597939087185
 50
92.0129258888914165
 51
111.571438510788596
  0
ARC
  5
149E4
  8
0
 10
4429.5059550464447966
 20
244.060751364108512
 30
0.0
 40
0.7320352436485938
 50
114.6028714754051947
 51
141.7216968231693102
  0
ARC
  5
149E5
  8
0
 10
4429.4592817250304506
 20
244.0604334732065013
 30
0.0
 40
0.696204158898896
 50
139.3209705627878918
 51
170.689102241627495
  0
ARC
  5
149E6
  8
0
 10
4428.7120560805069545
 20
244.1821653430868082
 30
0.0
 40
0.0608767715579494
 50
318.0219626323199122
 51
351.410744729470025
  0
ARC
  5
149E7
  8
0
 10
4428.6516546147486224
 20
244.2491728788978094
 30
0.0
 40
0.1508909667648541
 50
294.4100559909120989
 51
314.4449029281217918
  0
ARC
  5
149E8
  8
0
 10
4428.4954855975220198
 20
244.6309969530286139
 30
0.0
 40
0.563338920033563
 50
279.7090903557124193
 51
292.8247431878442057
  0
ARC
  5
149E9
  8
0
 10
4428.3315109415570987
 20
245.412639484866105
 30
0.0
 40
1.361765619170108
 50
277.0109270464153042
 51
280.9632372957128155
  0
ARC
  5
149EA
  8
0
 10
4428.3632132884931707
 20
243.1200588383298111
 30
0.0
 40
1.1402414063895261
 50
75.9871844653344084
 51
83.0885173125029439
  0
ARC
  5
149EB
  8
0
 10
4428.5317938150674308
 20
243.8014453266621899
 30
0.0
 40
0.4383143105438745
 50
66.5577821190192225
 51
75.8007339253096148
  0
ARC
  5
149EC
  8
0
 10
4428.6439685731811551
 20
244.0640567589842078
 30
0.0
 40
0.1527604909098724
 50
52.3478698695107383
 51
65.9737562765548944
  0
ARC
  5
149ED
  8
0
 10
4428.7162298535904483
 20
244.1549686205644889
 30
0.0
 40
0.036678867302097
 50
304.4199396192527729
 51
54.9680702651415132
  0
ARC
  5
149EE
  8
0
 10
4428.3973848824425659
 20
243.4878041065335026
 30
0.0
 40
0.756104559423835
 50
72.3500632258693628
 51
82.0773699234089946
  0
ARC
  5
149EF
  8
0
 10
4428.5717478359865709
 20
244.0306777734446939
 30
0.0
 40
0.1859252741026014
 50
52.8337101006311372
 51
72.8294320619297508
  0
ARC
  5
149F0
  8
0
 10
4428.6674180727231942
 20
244.1568727604258982
 30
0.0
 40
0.0275650236089828
 50
307.1662898993698718
 51
52.8337101006311372
  0
ARC
  5
149F1
  8
0
 10
4428.3973848824425659
 20
244.8259414143184074
 30
0.0
 40
0.756104559423835
 50
278.7204464035590945
 51
287.6499367741307083
  0
ARC
  5
149F2
  8
0
 10
4428.5717478359865709
 20
244.2830677474071024
 30
0.0
 40
0.1859252741026014
 50
287.1705679380701781
 51
307.1662898993689055
  0
ARC
  5
149F3
  8
0
 10
4428.6674180727231942
 20
244.1761271427675126
 30
0.0
 40
0.0275650236089828
 50
307.1662898993698718
 51
339.5583147347560953
  0
ARC
  5
149F4
  8
0
 10
4428.3973848824425659
 20
244.8451957966599934
 30
0.0
 40
0.756104559423835
 50
279.7719296680353978
 51
287.6499367741307083
  0
ARC
  5
149F5
  8
0
 10
4428.5717478359865709
 20
244.3023221297486884
 30
0.0
 40
0.1859252741026014
 50
287.1705679380701781
 51
307.1662898993689055
  0
ARC
  5
149F6
  8
0
 10
4428.3454924276047677
 20
244.1998421905466046
 30
0.0
 40
0.2060018044589804
 50
316.8973526311020805
 51
342.2460783101408879
  0
ARC
  5
149F7
  8
0
 10
4428.2907628155126076
 20
244.6347454119953966
 30
0.0
 40
0.61911640676389
 50
276.5399452746830775
 51
284.2815334101568965
  0
ARC
  5
149F8
  8
0
 10
4428.3951728953279598
 20
244.224576062246598
 30
0.0
 40
0.195866645700193
 50
284.2815334101568965
 51
295.8167015675188054
  0
ARC
  5
149F9
  8
0
 10
4428.4548795692644489
 20
244.101158698983312
 30
0.0
 40
0.0587654696753515
 50
295.8167015675194875
 51
314.270579955040489
  0
ARC
  5
149FA
  8
0
 10
4428.6324902448213834
 20
244.1982126378717908
 30
0.0
 40
0.0411046246745633
 50
307.904256464302307
 51
344.4596945275102939
  0
ARC
  5
149FB
  8
0
 10
4428.5992899765087714
 20
244.2397882361757127
 30
0.0
 40
0.0943080215328651
 50
300.9639721065901767
 51
308.3019401635647796
  0
LINE
  5
149FC
  8
0
 10
4428.6526275186197381
 20
244.1980894949199978
 30
0.0
 11
4428.6526275186197381
 21
244.1722765489660105
 31
0.0
  0
ARC
  5
149FD
  8
0
 10
4428.6317276385661899
 20
244.1722765489660105
 30
0.0
 40
0.0208998800540823
 50
321.3803839213169908
 51
38.6196160786830021
  0
ARC
  5
149FE
  8
0
 10
4428.5789419129341695
 20
244.1235575645490883
 30
0.0
 40
0.092690970159525
 50
41.7851121885231294
 51
66.4646730676394242
  0
ARC
  5
149FF
  8
0
 10
4428.5046730961603316
 20
243.968255903903497
 30
0.0
 40
0.2648000529061603
 50
65.149762428752453
 51
71.2959667338911913
  0
ARC
  5
14A00
  8
0
 10
4428.5977251086842443
 20
244.1985844477864873
 30
0.0
 40
0.0638897810381337
 50
297.8416610245922129
 51
321.9794872684336724
  0
ARC
  5
14A01
  8
0
 10
4428.5094928908456495
 20
244.3595350860501014
 30
0.0
 40
0.2474325145568416
 50
286.4972774101128721
 51
298.5015947165007901
  0
ARC
  5
14A02
  8
0
 10
4428.4282291961026203
 20
244.6130906270965113
 30
0.0
 40
0.5136604985725151
 50
283.3564884893340832
 51
287.1572111019773956
  0
ARC
  5
14A03
  8
0
 10
4428.0074785958204302
 20
244.3850159034201965
 30
0.0
 40
0.6178845637003841
 50
336.1025781927040157
 51
339.2685027385065268
  0
ARC
  5
14A04
  8
0
 10
4428.5701827821076222
 20
244.1722570637450076
 30
0.0
 40
0.0163027509051468
 50
338.5357243999141019
 51
16.3416250289471492
  0
ARC
  5
14A05
  8
0
 10
4428.5489987491037027
 20
244.1603708168019864
 30
0.0
 40
0.0403445444149496
 50
24.0989834161692009
 51
56.2086708609862029
  0
ARC
  5
14A06
  8
0
 10
4428.4688171175303069
 20
244.0262314806932977
 30
0.0
 40
0.1965796901785441
 50
58.5316333444044901
 51
74.4099253734762698
  0
ARC
  5
14A07
  8
0
 10
4428.3511606061638304
 20
243.6228437110291907
 30
0.0
 40
0.616766605803603
 50
73.953223304656305
 51
80.6902122007874283
  0
ARC
  5
14A08
  8
0
 10
4428.3532271770327498
 20
243.6421262826279985
 30
0.0
 40
0.563709992555335
 50
73.228469453815066
 51
80.806073943143474
  0
ARC
  5
14A09
  8
0
 10
4428.4589896816651162
 20
243.9930587025401962
 30
0.0
 40
0.1971867726474978
 50
61.5671194520278533
 51
73.228469453815066
  0
ARC
  5
14A0A
  8
0
 10
4428.5233953405895591
 20
244.1125432543919089
 30
0.0
 40
0.0614501115947176
 50
42.9303982054464086
 51
61.3309472529933117
  0
ARC
  5
14A0B
  8
0
 10
4428.5552241218501877
 20
244.1414684385088947
 30
0.0
 40
0.0184512334158851
 50
315.5155601594373138
 51
44.4844398405261572
  0
ARC
  5
14A0C
  8
0
 10
4428.5226945781996619
 20
244.1713195398706944
 30
0.0
 40
0.0625941694912102
 50
299.019673981217295
 51
316.8859415715534738
  0
ARC
  5
14A0D
  8
0
 10
4428.470147213931341
 20
244.2660407743225051
 30
0.0
 40
0.1709147019289515
 50
289.9929027372785981
 51
299.019673981217295
  0
ARC
  5
14A0E
  8
0
 10
4428.3505234359508904
 20
243.7286249684482016
 30
0.0
 40
0.4705187643312963
 50
71.7227243690304306
 51
80.4876908091727046
  0
ARC
  5
14A0F
  8
0
 10
4428.4549801770308477
 20
244.0448936904118966
 30
0.0
 40
0.1374465270469109
 50
58.6198154728842269
 51
71.7227243690304306
  0
ARC
  5
14A10
  8
0
 10
4428.5023335332361967
 20
244.1225313066154001
 30
0.0
 40
0.0465073177163043
 50
37.5583522073647202
 51
58.6198154728842269
  0
ARC
  5
14A11
  8
0
 10
4428.5270793884756131
 20
244.1415595414094923
 30
0.0
 40
0.0152914392097958
 50
342.7545988557056944
 51
37.5583522073647202
  0
ARC
  5
14A12
  8
0
 10
4428.2199271351209973
 20
242.9137831145291102
 30
0.0
 40
1.2100566426970909
 50
87.2178056878348826
 51
89.8311259689488963
  0
ARC
  5
14A13
  8
0
 10
4428.2338821242256017
 20
243.1465489960280877
 30
0.0
 40
0.97686088126016
 50
83.4643922352829151
 51
86.4790862314164457
  0
ARC
  5
14A14
  8
0
 10
4428.2728408138827945
 20
243.4681168605455923
 30
0.0
 40
0.6529287825558338
 50
79.1052141179638255
 51
83.0463811209425415
  0
ARC
  5
14A15
  8
0
 10
4428.3437064900899713
 20
243.8101809914776936
 30
0.0
 40
0.3035354508102393
 50
71.3271658775957036
 51
77.890210499026864
  0
ARC
  5
14A16
  8
0
 10
4428.4107456732099308
 20
243.9995854149890988
 30
0.0
 40
0.1025630996299291
 50
57.0771052914970767
 51
70.5932314082862717
  0
ARC
  5
14A17
  8
0
 10
4428.4596570822277499
 20
244.0682426858128053
 30
0.0
 40
0.0179633460119799
 50
8.9725679583657119
 51
52.6078689384302365
  0
ARC
  5
14A18
  8
0
 10
4428.2199904938970576
 20
243.1748706109897
 30
0.0
 40
0.9370996868096167
 50
87.3156308777957832
 51
89.7858102750222145
  0
ARC
  5
14A19
  8
0
 10
4428.2309112295206432
 20
243.3527282454201952
 30
0.0
 40
0.7588972014998459
 50
83.522744589324617
 51
86.3601162028018621
  0
ARC
  5
14A1A
  8
0
 10
4428.2607518476897894
 20
243.5990252453202061
 30
0.0
 40
0.510786525189312
 50
79.2691820106842187
 51
82.9616261795482757
  0
ARC
  5
14A1B
  8
0
 10
4428.3168066798034488
 20
243.869491094449188
 30
0.0
 40
0.2345063926584007
 50
71.4420062856384277
 51
77.6425601292580296
  0
ARC
  5
14A1C
  8
0
 10
4428.3681449381219863
 20
244.0144094990507995
 30
0.0
 40
0.08070988254606
 50
57.6640457497279471
 51
70.2797454582882182
  0
ARC
  5
14A1D
  8
0
 10
4428.4067549437149864
 20
244.0687497964123907
 30
0.0
 40
0.0137433957266104
 50
9.6106214662891478
 51
51.0686177068829394
  0
ARC
  5
14A1E
  8
0
 10
4428.2220016896289962
 20
243.273019091915188
 30
0.0
 40
0.8377179183015275
 50
83.7247661196488622
 51
89.8979564925502643
  0
ARC
  5
14A1F
  8
0
 10
4428.2818485548868921
 20
243.7541086047930037
 30
0.0
 40
0.3529011258424696
 50
72.7792447208112634
 51
83.7304881192445265
  0
ARC
  5
14A20
  8
0
 10
4428.35994842607397
 20
244.0077307274077043
 30
0.0
 40
0.0874627762509237
 50
59.2951001928275119
 51
69.7202550286897207
  0
ARC
  5
14A21
  8
0
 10
4428.4035122006043821
 20
244.0696577630891113
 30
0.0
 40
0.0109745080195482
 50
7.2581187656021582
 51
39.2481135575360796
  0
ARC
  5
14A22
  8
0
 10
4428.3885636606037224
 20
244.0566776079290889
 30
0.0
 40
0.0307688824895545
 50
40.3549739031160613
 51
58.569859109355022
  0
ARC
  5
14A23
  8
0
 10
4428.2213231952919159
 20
243.5060155132584896
 30
0.0
 40
0.5928517400752435
 50
83.8324863136530354
 51
89.790236308959436
  0
ARC
  5
14A24
  8
0
 10
4428.2637661958569879
 20
243.8466181949339955
 30
0.0
 40
0.2495825597935101
 50
72.9672137541054298
 51
83.5425190629652263
  0
ARC
  5
14A25
  8
0
 10
4428.3200756644719149
 20
244.0286403457454014
 30
0.0
 40
0.0589614933088479
 50
58.8798630772886185
 51
69.4105113526115503
  0
ARC
  5
14A26
  8
0
 10
4428.3380629106886772
 20
244.0591144445546945
 30
0.0
 40
0.0235792538713272
 50
45.4261560234591002
 51
58.0258663606565008
  0
ARC
  5
14A27
  8
0
 10
4428.3481231732812375
 20
244.0691589293415973
 30
0.0
 40
0.0093642564822402
 50
11.6150083224557807
 51
46.1413913157237516
  0
ARC
  5
14A28
  8
0
 10
4428.2219934109443784
 20
243.8066175355851044
 30
0.0
 40
0.2778728685357287
 50
84.1035310854786928
 51
87.3030920782534849
  0
ARC
  5
14A29
  8
0
 10
4428.2380434388960566
 20
243.9367476135385004
 30
0.0
 40
0.1467309212228084
 50
75.8235111374718542
 51
82.4357722598858373
  0
ARC
  5
14A2A
  8
0
 10
4428.2612535787684465
 20
244.028631723559414
 30
0.0
 40
0.0519606713170814
 50
65.7861083922061454
 51
75.8235111374718542
  0
ARC
  5
14A2B
  8
0
 10
4428.2751719311636407
 20
244.0595474505522873
 30
0.0
 40
0.0180563625746442
 50
51.0578757071526823
 51
65.8302799545795239
  0
ARC
  5
14A2C
  8
0
 10
4428.2829604304579334
 20
244.0691218669578859
 30
0.0
 40
0.0057143553575879
 50
19.6587714334107595
 51
51.4578654907220496
  0
ARC
  5
14A2D
  8
0
 10
4428.2376211799373777
 20
243.9542200040719138
 30
0.0
 40
0.128020831860535
 50
75.6193651014018116
 51
82.4686542525856652
  0
ARC
  5
14A2E
  8
0
 10
4428.2574151984008495
 20
244.0314209306440034
 30
0.0
 40
0.0483227375887489
 50
65.8554557727327108
 51
75.6193651014018116
  0
ARC
  5
14A2F
  8
0
 10
4428.2707339888747811
 20
244.0611334647657031
 30
0.0
 40
0.0157616432643215
 50
48.4432768564740002
 51
65.8554557727327108
  0
ARC
  5
14A30
  8
0
 10
4428.2777046370174503
 20
244.0692938100847016
 30
0.0
 40
0.0050350648823123
 50
20.3439726288540506
 51
46.1995497203188705
  0
LINE
  5
14A31
  8
0
 10
4428.2234936604199902
 20
244.1238345012199886
 30
0.0
 11
4428.2234936604199902
 21
244.1119637498200063
 31
0.0
  0
LINE
  5
14A32
  8
0
 10
4428.2234936604199902
 20
244.1107356816200138
 30
0.0
 11
4428.2234936604199902
 21
244.0988632802200016
 31
0.0
  0
LINE
  5
14A33
  8
0
 10
4428.2638785658391498
 20
244.1109420079247059
 30
0.0
 11
4428.2786625229191486
 21
244.1224134272200104
 31
0.0
  0
LINE
  5
14A34
  8
0
 10
4428.2938739533201442
 20
244.1215660019200016
 30
0.0
 11
4428.2790899961191826
 21
244.1100945827321027
 31
0.0
  0
LINE
  5
14A35
  8
0
 10
4428.3450690839208619
 20
244.1170615623200035
 30
0.0
 11
4428.3165215035360234
 21
244.106781190131187
 31
0.0
  0
LINE
  5
14A36
  8
0
 10
4428.313568162620868
 20
244.1057176518199867
 30
0.0
 11
4428.285016614219785
 21
244.0954358506199924
 31
0.0
  0
LINE
  5
14A37
  8
0
 10
4428.2918357119197026
 20
244.0946173006200013
 30
0.0
 11
4428.3203872603198761
 21
244.1048991018199956
 31
0.0
  0
LINE
  5
14A38
  8
0
 10
4428.3233406012195701
 20
244.1059626401199978
 30
0.0
 11
4428.35188818161987
 21
244.11624301242
 31
0.0
  0
LINE
  5
14A39
  8
0
 10
4428.3962483239192807
 20
244.1092772005200118
 30
0.0
 11
4428.3558578018200933
 21
244.1008795387199939
 31
0.0
  0
LINE
  5
14A3A
  8
0
 10
4428.4073838637195877
 20
244.1069619915199951
 30
0.0
 11
4428.3669933417213542
 21
244.0985643298199932
 31
0.0
  0
LINE
  5
14A3B
  8
0
 10
4428.3863263724206263
 20
244.0911895895200132
 30
0.0
 11
4428.3368736400198031
 21
244.0852533888200071
 31
0.0
  0
LINE
  5
14A3C
  8
0
 10
4428.3902633803199933
 20
244.0897718194200081
 30
0.0
 11
4428.3408106478200352
 21
244.083835618720002
 31
0.0
  0
LINE
  5
14A3D
  8
0
 10
4428.4408875686203828
 20
244.0977389993200006
 30
0.0
 11
4428.391441708919956
 21
244.0918036236199953
 31
0.0
  0
LINE
  5
14A3E
  8
0
 10
4428.4448245765197498
 20
244.0963212292199955
 30
0.0
 11
4428.3953787168202325
 21
244.0903858535199902
 31
0.0
  0
LINE
  5
14A3F
  8
0
 10
4428.4664897341208416
 20
244.0856771630199944
 30
0.0
 11
4428.4113152550207815
 21
244.0826034055199898
 31
0.0
  0
LINE
  5
14A40
  8
0
 10
4428.4705656246196668
 20
244.0825145288200133
 30
0.0
 11
4428.4153911455196067
 21
244.0794407713200087
 31
0.0
  0
LINE
  5
14A41
  8
0
 10
4428.4774006130201087
 20
244.0710442773199986
 30
0.0
 11
4428.4203054523195533
 21
244.0710442773199986
 31
0.0
  0
LINE
  5
14A42
  8
0
 10
4428.4143987705192558
 20
244.0710442773199986
 30
0.0
 11
4428.3572956736197739
 21
244.0710442773199986
 31
0.0
  0
ARC
  5
14A43
  8
0
 10
4428.2249707812197812
 20
243.5760209550396951
 30
0.0
 40
0.5214857171229041
 50
83.7147078115285126
 51
87.1549138804146253
  0
ARC
  5
14A44
  8
0
 10
4428.2542458797979634
 20
243.8109601728783957
 30
0.0
 40
0.2847079893829292
 50
76.1031437826827641
 51
83.0124408007605155
  0
ARC
  5
14A45
  8
0
 10
4428.2984709012316671
 20
243.9897072509945133
 30
0.0
 40
0.1005711640166936
 50
63.7463264480134129
 51
76.1031437826827641
  0
ARC
  5
14A46
  8
0
 10
4428.3333596786269482
 20
244.0604432593792978
 30
0.0
 40
0.0216990544321967
 50
45.7835459992672895
 51
63.7463264480134129
  0
ARC
  5
14A47
  8
0
 10
4428.3409900638207546
 20
244.0682852495764905
 30
0.0
 40
0.0107574097454887
 50
14.86111957566626
 51
45.7835459992650371
  0
LINE
  5
14A48
  8
0
 10
4428.3513876419201551
 20
244.0710442773199986
 30
0.0
 11
4428.2883417124203334
 21
244.0710442773199986
 31
0.0
  0
ARC
  5
14A49
  8
0
 10
4428.2293527079928026
 20
244.0285182637028072
 30
0.0
 40
0.0467750341359654
 50
74.3125869739315021
 51
81.0812714257510549
  0
ARC
  5
14A4A
  8
0
 10
4428.2369923712931268
 20
244.0557201694865057
 30
0.0
 40
0.0185206869729384
 50
63.5311137589416077
 51
74.3125869739315021
  0
ARC
  5
14A4B
  8
0
 10
4428.2430603209932087
 20
244.0679071625191057
 30
0.0
 40
0.0049066202501065
 50
39.7443873946556465
 51
63.531113758940883
  0
LINE
  5
14A4C
  8
0
 10
4428.282425626620352
 20
244.0710442773199986
 30
0.0
 11
4428.2468330432202492
 21
244.0710442773199986
 31
0.0
  0
LINE
  5
14A4D
  8
0
 10
4428.2888816960203258
 20
244.093553519320011
 30
0.0
 11
4428.2573587313208918
 21
244.0822016706200088
 31
0.0
  0
LINE
  5
14A4E
  8
0
 10
4428.2544006884199916
 20
244.0811364391200016
 30
0.0
 11
4428.2366043967213045
 21
244.0747277522200136
 31
0.0
  0
LINE
  5
14A4F
  8
0
 10
4428.2475815907500873
 20
244.0819549890171061
 30
0.0
 11
4428.2297852990195679
 21
244.0755463021199887
 31
0.0
  0
ARC
  5
14A50
  8
0
 10
4428.2220536050208466
 20
243.8327695315464894
 30
0.0
 40
0.2504896610045429
 50
84.1506982313374152
 51
87.3610486634659367
  0
LINE
  5
14A51
  8
0
 10
4428.2820625984204526
 20
244.0943720692199861
 30
0.0
 11
4428.2505396336191552
 21
244.0830202205200976
 31
0.0
  0
ARC
  5
14A52
  8
0
 10
4428.2199271351209973
 20
245.2266683402108924
 30
0.0
 40
1.2100566426970909
 50
270.1688740310510752
 51
272.7821943121650747
  0
ARC
  5
14A53
  8
0
 10
4428.2338821242256017
 20
244.9939024587118865
 30
0.0
 40
0.97686088126016
 50
273.5209137685835117
 51
276.5356077647170991
  0
ARC
  5
14A54
  8
0
 10
4428.2728408138827945
 20
244.6723345941944956
 30
0.0
 40
0.6529287825558338
 50
276.9536188790573874
 51
280.8947858820362171
  0
ARC
  5
14A55
  8
0
 10
4428.3437064900899713
 20
244.330270463262309
 30
0.0
 40
0.3035354508102393
 50
282.1097895009731928
 51
288.6728341224043106
  0
ARC
  5
14A56
  8
0
 10
4428.4107456732099308
 20
244.1408660397509891
 30
0.0
 40
0.1025630996299291
 50
289.4067685917137283
 51
302.9228947085030086
  0
ARC
  5
14A57
  8
0
 10
4428.4596570822277499
 20
244.072208768927311
 30
0.0
 40
0.0179633460119799
 50
307.392131061569728
 51
351.027432041634313
  0
ARC
  5
14A58
  8
0
 10
4428.2199904938970576
 20
244.9655808437503879
 30
0.0
 40
0.9370996868096167
 50
270.214189724977814
 51
272.6843691222042025
  0
ARC
  5
14A59
  8
0
 10
4428.2309112295206432
 20
244.7877232093198927
 30
0.0
 40
0.7588972014998459
 50
273.6398837971980811
 51
276.4772554106754114
  0
ARC
  5
14A5A
  8
0
 10
4428.2607518476897894
 20
244.5414262094199103
 30
0.0
 40
0.510786525189312
 50
277.0383738204516817
 51
280.730817989315824
  0
ARC
  5
14A5B
  8
0
 10
4428.3168066798034488
 20
244.2709603602908999
 30
0.0
 40
0.2345063926584007
 50
282.3574398707419277
 51
288.5579937143616007
  0
ARC
  5
14A5C
  8
0
 10
4428.3681449381219863
 20
244.1260419556892032
 30
0.0
 40
0.08070988254606
 50
289.7202545417118245
 51
302.3359542502720956
  0
ARC
  5
14A5D
  8
0
 10
4428.4067549437149864
 20
244.0717016583276973
 30
0.0
 40
0.0137433957266104
 50
308.9313822931169966
 51
350.3893785337107829
  0
ARC
  5
14A5E
  8
0
 10
4428.2220016896289962
 20
244.8674323628247862
 30
0.0
 40
0.8377179183015275
 50
270.1020435074497072
 51
276.2752338803512089
  0
ARC
  5
14A5F
  8
0
 10
4428.2818485548868921
 20
244.3863428499471127
 30
0.0
 40
0.3529011258424696
 50
276.269511880755374
 51
287.2207552791887224
  0
ARC
  5
14A60
  8
0
 10
4428.35994842607397
 20
244.132720727332412
 30
0.0
 40
0.0874627762509237
 50
290.2797449713103219
 51
300.70489980717241
  0
ARC
  5
14A61
  8
0
 10
4428.4035122006043821
 20
244.0707936916508913
 30
0.0
 40
0.0109745080195482
 50
320.7518864424640128
 51
352.7418812343979084
  0
ARC
  5
14A62
  8
0
 10
4428.3885636606037224
 20
244.0837738468109137
 30
0.0
 40
0.0307688824895545
 50
301.4301408906450206
 51
319.6450260968838961
  0
ARC
  5
14A63
  8
0
 10
4428.2213231952919159
 20
244.6344359414815983
 30
0.0
 40
0.5928517400752435
 50
270.2097636910405072
 51
276.1675136863469788
  0
ARC
  5
14A64
  8
0
 10
4428.2637661958569879
 20
244.2938332598060072
 30
0.0
 40
0.2495825597935101
 50
276.4574809370348021
 51
287.0327862458946129
  0
ARC
  5
14A65
  8
0
 10
4428.3200756644719149
 20
244.1118111089946012
 30
0.0
 40
0.0589614933088479
 50
290.5894886473884071
 51
301.1201369227114242
  0
ARC
  5
14A66
  8
0
 10
4428.3380629106886772
 20
244.0813370101853934
 30
0.0
 40
0.0235792538713272
 50
301.9741336393435063
 51
314.5738439765408998
  0
ARC
  5
14A67
  8
0
 10
4428.3481231732812375
 20
244.0712925253984906
 30
0.0
 40
0.0093642564822402
 50
313.8586086842761915
 51
348.3849916775441784
  0
ARC
  5
14A68
  8
0
 10
4428.2219934109443784
 20
244.3338339191548982
 30
0.0
 40
0.2778728685357287
 50
272.6969079217465151
 51
275.8964689145212787
  0
ARC
  5
14A69
  8
0
 10
4428.2380434388960566
 20
244.2037038412015022
 30
0.0
 40
0.1467309212228084
 50
277.56422774011412
 51
284.1764888625281742
  0
ARC
  5
14A6A
  8
0
 10
4428.2612535787684465
 20
244.1118197311807023
 30
0.0
 40
0.0519606713170814
 50
284.1764888625281742
 51
294.213891607793812
  0
ARC
  5
14A6B
  8
0
 10
4428.2751719311636407
 20
244.0809040041878006
 30
0.0
 40
0.0180563625746442
 50
294.1697200454204904
 51
308.9421242928473248
  0
ARC
  5
14A6C
  8
0
 10
4428.2829604304579334
 20
244.071329587782202
 30
0.0
 40
0.0057143553575879
 50
308.5421345092779006
 51
340.341228566587688
  0
ARC
  5
14A6D
  8
0
 10
4428.2376211799373777
 20
244.1862314506682026
 30
0.0
 40
0.128020831860535
 50
277.5313457474143775
 51
284.3806348985982027
  0
ARC
  5
14A6E
  8
0
 10
4428.2574151984008495
 20
244.1090305240961129
 30
0.0
 40
0.0483227375887489
 50
284.3806348985982027
 51
294.1445442272673176
  0
ARC
  5
14A6F
  8
0
 10
4428.2707339888747811
 20
244.0793179899744132
 30
0.0
 40
0.0157616432643215
 50
294.1445442272673176
 51
311.5567231435260283
  0
ARC
  5
14A70
  8
0
 10
4428.2777046370174503
 20
244.0711576446553011
 30
0.0
 40
0.0050350648823123
 50
313.8004502796811153
 51
339.6560273711459104
  0
LINE
  5
14A71
  8
0
 10
4428.2234936604199902
 20
244.0166169535200993
 30
0.0
 11
4428.2234936604199902
 21
244.0284877049199963
 31
0.0
  0
LINE
  5
14A72
  8
0
 10
4428.2234936604199902
 20
244.0297157731199889
 30
0.0
 11
4428.2234936604199902
 21
244.0415881745200011
 31
0.0
  0
LINE
  5
14A73
  8
0
 10
4428.2638785658391498
 20
244.0295094468152968
 30
0.0
 11
4428.2786625229191486
 21
244.0180380275199923
 31
0.0
  0
LINE
  5
14A74
  8
0
 10
4428.2938739533201442
 20
244.0188854528200011
 30
0.0
 11
4428.2790899961191826
 21
244.0303568720080136
 31
0.0
  0
LINE
  5
14A75
  8
0
 10
4428.3450690839208619
 20
244.0233898924199991
 30
0.0
 11
4428.3165215035360234
 21
244.0336702646089009
 31
0.0
  0
LINE
  5
14A76
  8
0
 10
4428.313568162620868
 20
244.0347338029201012
 30
0.0
 11
4428.285016614219785
 21
244.0450156041200955
 31
0.0
  0
LINE
  5
14A77
  8
0
 10
4428.2918357119197026
 20
244.0458341541200014
 30
0.0
 11
4428.3203872603198761
 21
244.035552352920007
 31
0.0
  0
LINE
  5
14A78
  8
0
 10
4428.3233406012195701
 20
244.0344888146200049
 30
0.0
 11
4428.35188818161987
 21
244.0242084423200026
 31
0.0
  0
LINE
  5
14A79
  8
0
 10
4428.3962483239192807
 20
244.0311742542199909
 30
0.0
 11
4428.3558578018200933
 21
244.0395719160200088
 31
0.0
  0
LINE
  5
14A7A
  8
0
 10
4428.4073838637195877
 20
244.0334894632200076
 30
0.0
 11
4428.3669933417213542
 21
244.0418871249200095
 31
0.0
  0
LINE
  5
14A7B
  8
0
 10
4428.3863263724206263
 20
244.0492618652199894
 30
0.0
 11
4428.3368736400198031
 21
244.0551980659199955
 31
0.0
  0
LINE
  5
14A7C
  8
0
 10
4428.3902633803199933
 20
244.0506796353199945
 30
0.0
 11
4428.3408106478200352
 21
244.0566158360200006
 31
0.0
  0
LINE
  5
14A7D
  8
0
 10
4428.4408875686203828
 20
244.042712455420002
 30
0.0
 11
4428.391441708919956
 21
244.0486478311200074
 31
0.0
  0
LINE
  5
14A7E
  8
0
 10
4428.4448245765197498
 20
244.0441302255200071
 30
0.0
 11
4428.3953787168202325
 21
244.0500656012200977
 31
0.0
  0
LINE
  5
14A7F
  8
0
 10
4428.4664897341208416
 20
244.0547742917200083
 30
0.0
 11
4428.4113152550207815
 21
244.0578480492200981
 31
0.0
  0
LINE
  5
14A80
  8
0
 10
4428.4705656246196668
 20
244.057936925920103
 30
0.0
 11
4428.4153911455196067
 21
244.0610106834199939
 31
0.0
  0
LINE
  5
14A81
  8
0
 10
4428.4774006130201087
 20
244.069407177420004
 30
0.0
 11
4428.4203054523195533
 21
244.069407177420004
 31
0.0
  0
LINE
  5
14A82
  8
0
 10
4428.4143987705192558
 20
244.069407177420004
 30
0.0
 11
4428.3572956736197739
 21
244.069407177420004
 31
0.0
  0
ARC
  5
14A83
  8
0
 10
4428.2249707812197812
 20
244.5644304997003076
 30
0.0
 40
0.5214857171229041
 50
272.8450861195854031
 51
276.2852921884714874
  0
ARC
  5
14A84
  8
0
 10
4428.2542458797979634
 20
244.3294912818616069
 30
0.0
 40
0.2847079893829292
 50
276.9875591992393993
 51
283.896856217317179
  0
ARC
  5
14A85
  8
0
 10
4428.2984709012316671
 20
244.1507442037454894
 30
0.0
 40
0.1005711640166936
 50
283.896856217317179
 51
296.2536735519865942
  0
ARC
  5
14A86
  8
0
 10
4428.3333596786269482
 20
244.0800081953607048
 30
0.0
 40
0.0216990544321967
 50
296.2536735519865942
 51
314.2164540007327105
  0
ARC
  5
14A87
  8
0
 10
4428.3409900638207546
 20
244.0721662051635121
 30
0.0
 40
0.0107574097454887
 50
314.2164540007349842
 51
345.1388804243337063
  0
LINE
  5
14A88
  8
0
 10
4428.3513876419201551
 20
244.069407177420004
 30
0.0
 11
4428.2883417124203334
 21
244.069407177420004
 31
0.0
  0
ARC
  5
14A89
  8
0
 10
4428.2293527079928026
 20
244.1119331910373091
 30
0.0
 40
0.0467750341359654
 50
278.9187285742489166
 51
285.6874130260684979
  0
ARC
  5
14A8A
  8
0
 10
4428.2369923712931268
 20
244.0847312852534969
 30
0.0
 40
0.0185206869729384
 50
285.6874130260684979
 51
296.4688862410583852
  0
ARC
  5
14A8B
  8
0
 10
4428.2430603209932087
 20
244.072544292220897
 30
0.0
 40
0.0049066202501065
 50
296.4688862410591241
 51
320.2556126053444245
  0
LINE
  5
14A8C
  8
0
 10
4428.282425626620352
 20
244.069407177420004
 30
0.0
 11
4428.2468330432202492
 21
244.069407177420004
 31
0.0
  0
LINE
  5
14A8D
  8
0
 10
4428.2888816960203258
 20
244.0468979354199917
 30
0.0
 11
4428.2573587313208918
 21
244.0582497841199938
 31
0.0
  0
LINE
  5
14A8E
  8
0
 10
4428.2544006884199916
 20
244.0593150156200011
 30
0.0
 11
4428.2366043967213045
 21
244.065723702519989
 31
0.0
  0
LINE
  5
14A8F
  8
0
 10
4428.2475815907500873
 20
244.0584964657230103
 30
0.0
 11
4428.2297852990195679
 21
244.064905152620014
 31
0.0
  0
ARC
  5
14A90
  8
0
 10
4428.2220536050208466
 20
244.3076819231935985
 30
0.0
 40
0.2504896610045429
 50
272.6389513365340918
 51
275.849301768662599
  0
LINE
  5
14A91
  8
0
 10
4428.2820625984204526
 20
244.0460793855199881
 30
0.0
 11
4428.2505396336191552
 21
244.0574312342199903
 31
0.0
  0
ARC
  5
14A92
  8
0
 10
4431.8361304566260515
 20
241.6608222502534886
 30
0.0
 40
0.0393828129397706
 50
255.1019191364275116
 51
269.8406008884954872
  0
ARC
  5
14A93
  8
0
 10
4434.0518017460153715
 20
241.6608222502534886
 30
0.0
 40
0.0393828129397706
 50
270.1593991115045128
 51
284.8980808635724884
  0
ARC
  5
14A95
  8
0
 10
4428.2195566525197137
 20
242.8319865301754987
 30
0.0
 40
1.376603328144504
 50
81.2790170705489601
 51
98.7209829294510257
  0
ARC
  5
14A96
  8
0
 10
4428.2195566525197137
 20
242.6939545795013942
 30
0.0
 40
1.521183678518687
 50
81.5421602771889127
 51
98.4578397228110873
  0
ARC
  5
14A97
  8
0
 10
4428.2195566525197137
 20
243.7572071309130024
 30
0.0
 40
0.3273432209070303
 50
87.2839830034840674
 51
92.7160169965159184
  0
ARC
  5
14A98
  8
0
 10
4428.2195566525197137
 20
243.7839872289096093
 30
0.0
 40
0.2993352979103836
 50
87.3135283426922086
 51
92.6864716569425866
  0
ARC
  5
14A99
  8
0
 10
4428.219556653327345
 20
244.356464282450105
 30
0.0
 40
0.299335354430017
 50
267.3135286962839245
 51
272.6864709948844165
  0
ARC
  5
14A9A
  8
0
 10
4428.2195566514437814
 20
244.3832443674384081
 30
0.0
 40
0.3273432644183494
 50
267.2839835533955011
 51
272.7160168231068269
  0
ARC
  5
14A9B
  8
0
 10
4428.2195566525197137
 20
244.668519697687401
 30
0.0
 40
0.6257153940673837
 50
267.1328538285458762
 51
272.8671461714541238
  0
ARC
  5
14A9C
  8
0
 10
4428.2195566525197137
 20
245.2775453171472861
 30
0.0
 40
1.2658459121272581
 50
263.5718295260198261
 51
276.4281704739801739
  0
ARC
  5
14A9D
  8
0
 10
4428.2195566525197137
 20
243.4719318369378129
 30
0.0
 40
0.6257153142822008
 50
87.1328534626390478
 51
92.8671465373609664
  0
LINE
  5
14A9E
  8
0
 10
4427.9685476804197606
 20
244.057936925920103
 30
0.0
 11
4427.9685476804197606
 21
244.069407177420004
 31
0.0
  0
LINE
  5
14A9F
  8
0
 10
4428.0188078527207836
 20
244.0710442773199986
 30
0.0
 11
4428.0188078527207836
 21
244.0797145462179003
 31
0.0
  0
LINE
  5
14AA0
  8
0
 10
4427.994288728520587
 20
244.0441302255200071
 30
0.0
 11
4427.994288728520587
 21
244.0559812526510086
 31
0.0
  0
LINE
  5
14AA1
  8
0
 10
4428.0317294413207492
 20
244.0334894632200076
 30
0.0
 11
4428.0317294413207492
 21
244.0467341688078022
 31
0.0
  0
LINE
  5
14AA2
  8
0
 10
4428.0872251234195573
 20
244.0242084423200026
 30
0.0
 11
4428.0872251234195573
 21
244.0388358762930068
 31
0.0
  0
LINE
  5
14AA3
  8
0
 10
4428.1187260447195513
 20
244.035552352920007
 30
0.0
 11
4428.1187260447195513
 21
244.0507581495785132
 31
0.0
  0
LINE
  5
14AA4
  8
0
 10
4428.0488499247203436
 20
244.0506796353199945
 30
0.0
 11
4428.0488499247203436
 21
244.069407177420004
 31
0.0
  0
LINE
  5
14AA5
  8
0
 10
4428.0818176314196535
 20
244.0710442773199986
 30
0.0
 11
4428.0818176314196535
 21
244.0858144461122947
 31
0.0
  0
LINE
  5
14AA6
  8
0
 10
4428.1022396650214432
 20
244.0852533888200071
 30
0.0
 11
4428.1022396650214432
 21
244.1028237349831045
 31
0.0
  0
LINE
  5
14AA7
  8
0
 10
4428.0476715961212903
 20
244.0918036236199953
 30
0.0
 11
4428.0476715961212903
 21
244.1036474311690085
 31
0.0
  0
LINE
  5
14AA8
  8
0
 10
4428.0832555032202436
 20
244.1008795387199939
 30
0.0
 11
4428.0832555032202436
 21
244.1157647178424099
 31
0.0
  0
LINE
  5
14AA9
  8
0
 10
4428.122591801505223
 20
244.106781190131187
 30
0.0
 11
4428.122591801505223
 21
244.1199782092488135
 31
0.0
  0
LINE
  5
14AAA
  8
0
 10
4428.1540966908196424
 20
244.0954358506199924
 30
0.0
 11
4428.1540966908196424
 21
244.1083635896659132
 31
0.0
  0
LINE
  5
14AAB
  8
0
 10
4428.1752347392020965
 20
244.1109420079247059
 30
0.0
 11
4428.1752347392020965
 21
244.1230412963386129
 31
0.0
  0
LINE
  5
14AAC
  8
0
 10
4428.1452393517201926
 20
244.0188854528200011
 30
0.0
 11
4428.1452393517201926
 21
244.0314424031004137
 31
0.0
  0
LINE
  5
14AAD
  8
0
 10
4428.1502316090200111
 20
244.0468979354199917
 30
0.0
 11
4428.1502316090200111
 21
244.069407177420004
 31
0.0
  0
LINE
  5
14AAE
  8
0
 10
4428.1507715926200035
 20
244.0710442773199986
 30
0.0
 11
4428.1507715926200035
 21
244.0933590638751127
 31
0.0
  0
LINE
  5
14AAF
  8
0
 10
4428.1885736714202721
 20
244.0830202205200976
 30
0.0
 11
4428.1885736714202721
 21
244.0968796022825984
 31
0.0
  0
LINE
  5
14AB0
  8
0
 10
4428.209328006020769
 20
244.0755463021199887
 30
0.0
 11
4428.209328006020769
 21
244.0831477132084046
 31
0.0
  0
LINE
  5
14AB1
  8
0
 10
4428.1847126166203452
 20
244.0593150156200011
 30
0.0
 11
4428.1847126166203452
 21
244.069407177420004
 31
0.0
  0
LINE
  5
14AB2
  8
0
 10
4428.0277980500195554
 20
244.0826034055199898
 30
0.0
 11
4428.0277980500195554
 21
244.0922988416292014
 31
0.0
  0
LINE
  5
14AB3
  8
0
 10
4428.1922802618200876
 20
244.0710442773199986
 30
0.0
 11
4428.1922802618200876
 21
244.0784112270661126
 31
0.0
  0
LINE
  5
14AB4
  8
0
 10
4428.4705656246196668
 20
244.057936925920103
 30
0.0
 11
4428.4705656246196668
 21
244.069407177420004
 31
0.0
  0
LINE
  5
14AB5
  8
0
 10
4428.4203054523195533
 20
244.0710442773199986
 30
0.0
 11
4428.4203054523195533
 21
244.0797145462179003
 31
0.0
  0
LINE
  5
14AB6
  8
0
 10
4428.4448245765197498
 20
244.0441302255200071
 30
0.0
 11
4428.4448245765197498
 21
244.0559812526510086
 31
0.0
  0
LINE
  5
14AB7
  8
0
 10
4428.4073838637195877
 20
244.0334894632200076
 30
0.0
 11
4428.4073838637195877
 21
244.0467341688078022
 31
0.0
  0
LINE
  5
14AB8
  8
0
 10
4428.35188818161987
 20
244.0242084423200026
 30
0.0
 11
4428.35188818161987
 21
244.0388358762930068
 31
0.0
  0
LINE
  5
14AB9
  8
0
 10
4428.3203872603198761
 20
244.035552352920007
 30
0.0
 11
4428.3203872603198761
 21
244.0507581495785132
 31
0.0
  0
LINE
  5
14ABA
  8
0
 10
4428.3902633803199933
 20
244.0506796353199945
 30
0.0
 11
4428.3902633803199933
 21
244.069407177420004
 31
0.0
  0
LINE
  5
14ABB
  8
0
 10
4428.3572956736197739
 20
244.0710442773199986
 30
0.0
 11
4428.3572956736197739
 21
244.0858144461122947
 31
0.0
  0
LINE
  5
14ABC
  8
0
 10
4428.3368736400198031
 20
244.0852533888200071
 30
0.0
 11
4428.3368736400198031
 21
244.1028237349831045
 31
0.0
  0
LINE
  5
14ABD
  8
0
 10
4428.391441708919956
 20
244.0918036236199953
 30
0.0
 11
4428.391441708919956
 21
244.1036474311690085
 31
0.0
  0
LINE
  5
14ABE
  8
0
 10
4428.3558578018200933
 20
244.1008795387199939
 30
0.0
 11
4428.3558578018200933
 21
244.1157647178424099
 31
0.0
  0
LINE
  5
14ABF
  8
0
 10
4428.3165215035360234
 20
244.106781190131187
 30
0.0
 11
4428.3165215035360234
 21
244.1199782092488135
 31
0.0
  0
LINE
  5
14AC0
  8
0
 10
4428.285016614219785
 20
244.0954358506199924
 30
0.0
 11
4428.285016614219785
 21
244.1083635896659132
 31
0.0
  0
LINE
  5
14AC1
  8
0
 10
4428.2638785658391498
 20
244.1109420079247059
 30
0.0
 11
4428.2638785658391498
 21
244.1230412963386129
 31
0.0
  0
LINE
  5
14AC2
  8
0
 10
4428.2938739533201442
 20
244.0188854528200011
 30
0.0
 11
4428.2938739533201442
 21
244.0314424031004137
 31
0.0
  0
LINE
  5
14AC3
  8
0
 10
4428.2888816960203258
 20
244.0468979354199917
 30
0.0
 11
4428.2888816960203258
 21
244.069407177420004
 31
0.0
  0
LINE
  5
14AC4
  8
0
 10
4428.2883417124203334
 20
244.0710442773199986
 30
0.0
 11
4428.2883417124203334
 21
244.0933590638751127
 31
0.0
  0
LINE
  5
14AC5
  8
0
 10
4428.2505396336191552
 20
244.0830202205200976
 30
0.0
 11
4428.2505396336191552
 21
244.0968796022825984
 31
0.0
  0
LINE
  5
14AC6
  8
0
 10
4428.2297852990195679
 20
244.0755463021199887
 30
0.0
 11
4428.2297852990195679
 21
244.0831477132084046
 31
0.0
  0
LINE
  5
14AC7
  8
0
 10
4428.2544006884199916
 20
244.0593150156200011
 30
0.0
 11
4428.2544006884199916
 21
244.069407177420004
 31
0.0
  0
LINE
  5
14AC8
  8
0
 10
4428.4113152550207815
 20
244.0826034055199898
 30
0.0
 11
4428.4113152550207815
 21
244.0922988416292014
 31
0.0
  0
LINE
  5
14AC9
  8
0
 10
4428.2468330432202492
 20
244.0710442773199986
 30
0.0
 11
4428.2468330432202492
 21
244.0784112270661126
 31
0.0
  0
ARC
  5
14ACA
  8
0
 10
4428.219556713314887
 20
242.8939766536958018
 30
0.0
 40
1.234775396124238
 50
82.4282527952629067
 51
97.5717472047370933
  0
ARC
  5
14ACB
  8
0
 10
4428.1340606452067732
 20
243.5761768421872091
 30
0.0
 40
0.5472820973100119
 50
98.1100040103012105
 51
104.8899528247007993
  0
ARC
  5
14ACC
  8
0
 10
4428.0428640490663383
 20
243.9191608781887055
 30
0.0
 40
0.1923808883806989
 50
104.8899528247007993
 51
116.617984093162093
  0
ARC
  5
14ACD
  8
0
 10
4427.9791101020682618
 20
244.0463748186519979
 30
0.0
 40
0.0500855883668738
 50
116.617984093162093
 51
137.3914454418259083
  0
ARC
  5
14ACE
  8
0
 10
4427.9532546251230087
 20
244.070157274002014
 30
0.0
 40
0.0149556741837379
 50
137.3914454418271021
 51
217.4850389650407863
  0
ARC
  5
14ACF
  8
0
 10
4428.3050515833547252
 20
243.5761722328657868
 30
0.0
 40
0.5472868295507123
 50
75.1100618356651921
 51
81.8899398930549154
  0
ARC
  5
14AD0
  8
0
 10
4428.3962492601749545
 20
243.9191608781887055
 30
0.0
 40
0.1923808883806989
 50
63.3820159068378501
 51
75.1100471752991581
  0
ARC
  5
14AD1
  8
0
 10
4428.4600032071730311
 20
244.0463748186519979
 30
0.0
 40
0.0500855883668738
 50
42.6085545581740632
 51
63.3820159068378501
  0
ARC
  5
14AD2
  8
0
 10
4428.4858586911013845
 20
244.0701572769069116
 30
0.0
 40
0.0149556670770815
 50
322.5149261300900889
 51
42.6085644801800498
  0
ENDSEC
  0
EOF
