  0
SECTION
  2
HEADER
  9
$ACADVER
  1
AC1009
  9
$INSBASE
 10
4441.9895079894913579
 20
240.5407019598351042
 30
0.0
  9
$EXTMIN
 10
4440.7896987508502207
 20
232.328557576936106
 30
-0.0015258207003583
  9
$EXTMAX
 10
4452.6411903200587403
 20
241.9006579370592078
 30
0.0000000349246037
  9
$LIMMIN
 10
0.0
 20
0.0
  9
$LIMMAX
 10
11.6929133858000007
 20
8.2677165353999982
  9
$ORTHOMODE
 70
     0
  9
$REGENMODE
 70
     1
  9
$FILLMODE
 70
     1
  9
$QTEXTMODE
 70
     0
  9
$MIRRTEXT
 70
     0
  9
$DRAGMODE
 70
     2
  9
$LTSCALE
 40
0.6431102362
  9
$OSMODE
 70
     7
  9
$ATTMODE
 70
     1
  9
$TEXTSIZE
 40
0.2
  9
$TRACEWID
 40
0.05
  9
$TEXTSTYLE
  7
STANDARD
  9
$CLAYER
  8
0
  9
$CELTYPE
  6
BYLAYER
  9
$CECOLOR
 62
   256
  9
$DIMSCALE
 40
1.0
  9
$DIMASZ
 40
0.1875
  9
$DIMEXO
 40
0.0625
  9
$DIMDLI
 40
0.4443307087
  9
$DIMRND
 40
0.0
  9
$DIMDLE
 40
0.0
  9
$DIMEXE
 40
0.125
  9
$DIMTP
 40
0.01
  9
$DIMTM
 40
0.01
  9
$DIMTXT
 40
2.0
  9
$DIMCEN
 40
0.1052362205
  9
$DIMTSZ
 40
0.0
  9
$DIMTOL
 70
     1
  9
$DIMLIM
 70
     0
  9
$DIMTIH
 70
     1
  9
$DIMTOH
 70
     1
  9
$DIMSE1
 70
     0
  9
$DIMSE2
 70
     0
  9
$DIMTAD
 70
     0
  9
$DIMZIN
 70
     0
  9
$DIMBLK
  1

  9
$DIMASO
 70
     1
  9
$DIMSHO
 70
     1
  9
$DIMPOST
  1
\X
  9
$DIMAPOST
  1

  9
$DIMALT
 70
     1
  9
$DIMALTD
 70
     2
  9
$DIMALTF
 40
25.3999999999999986
  9
$DIMLFAC
 40
1.0
  9
$DIMTOFL
 70
     0
  9
$DIMTVP
 40
0.0
  9
$DIMTIX
 70
     0
  9
$DIMSOXD
 70
     0
  9
$DIMSAH
 70
     0
  9
$DIMBLK1
  1

  9
$DIMBLK2
  1

  9
$DIMSTYLE
  2
STANDARD
  9
$DIMCLRD
 70
     0
  9
$DIMCLRE
 70
     0
  9
$DIMCLRT
 70
     0
  9
$DIMTFAC
 40
1.0
  9
$DIMGAP
 40
0.09
  9
$LUNITS
 70
     2
  9
$LUPREC
 70
     4
  9
$SKETCHINC
 40
0.1
  9
$FILLETRAD
 40
0.0
  9
$AUNITS
 70
     0
  9
$AUPREC
 70
     0
  9
$MENU
  1
.
  9
$ELEVATION
 40
0.0
  9
$PELEVATION
 40
0.0
  9
$THICKNESS
 40
0.0
  9
$LIMCHECK
 70
     0
  9
$BLIPMODE
 70
     0
  9
$CHAMFERA
 40
0.0
  9
$CHAMFERB
 40
0.0
  9
$SKPOLY
 70
     0
  9
$TDCREATE
 40
2458060.468368056230247
  9
$TDUPDATE
 40
2459499.4483912037685513
  9
$TDINDWG
 40
0.6823565972
  9
$TDUSRTIMER
 40
0.6823565972
  9
$USRTIMER
 70
     1
  9
$ANGBASE
 50
0.0
  9
$ANGDIR
 70
     0
  9
$PDMODE
 70
     0
  9
$PDSIZE
 40
0.3125
  9
$PLINEWID
 40
0.0
  9
$COORDS
 70
     1
  9
$SPLFRAME
 70
     0
  9
$SPLINETYPE
 70
     6
  9
$SPLINESEGS
 70
     8
  9
$ATTDIA
 70
     1
  9
$ATTREQ
 70
     1
  9
$HANDLING
 70
     1
  9
$HANDSEED
  5
1485C
  9
$SURFTAB1
 70
     6
  9
$SURFTAB2
 70
     6
  9
$SURFTYPE
 70
     6
  9
$SURFU
 70
     6
  9
$SURFV
 70
     6
  9
$UCSNAME
  2

  9
$UCSORG
 10
0.0
 20
0.0
 30
0.0
  9
$UCSXDIR
 10
1.0
 20
0.0
 30
0.0
  9
$UCSYDIR
 10
0.0
 20
1.0
 30
0.0
  9
$PUCSNAME
  2

  9
$PUCSORG
 10
0.0
 20
0.0
 30
0.0
  9
$PUCSXDIR
 10
1.0
 20
0.0
 30
0.0
  9
$PUCSYDIR
 10
0.0
 20
1.0
 30
0.0
  9
$USERI1
 70
     0
  9
$USERI2
 70
     0
  9
$USERI3
 70
     0
  9
$USERI4
 70
     0
  9
$USERI5
 70
     0
  9
$USERR1
 40
0.0
  9
$USERR2
 40
0.0
  9
$USERR3
 40
0.0
  9
$USERR4
 40
0.0
  9
$USERR5
 40
0.0
  9
$WORLDVIEW
 70
     1
  9
$SHADEDGE
 70
     3
  9
$SHADEDIF
 70
    70
  9
$TILEMODE
 70
     1
  9
$MAXACTVP
 70
    64
  9
$PLIMCHECK
 70
     0
  9
$PEXTMIN
 10
1.0000000000000000E+20
 20
1.0000000000000000E+20
 30
1.0000000000000000E+20
  9
$PEXTMAX
 10
-1.0000000000000000E+20
 20
-1.0000000000000000E+20
 30
-1.0000000000000000E+20
  9
$PLIMMIN
 10
0.0
 20
0.0
  9
$PLIMMAX
 10
12.0
 20
9.0
  9
$UNITMODE
 70
     0
  9
$VISRETAIN
 70
     1
  9
$PLINEGEN
 70
     0
  9
$PSLTSCALE
 70
     1
  0
ENDSEC
  0
SECTION
  2
TABLES
  0
TABLE
  2
VPORT
 70
     1
  0
VPORT
  2
*ACTIVE
 70
     0
 10
0.0
 20
0.0
 11
1.0
 21
1.0
 12
285.1590480510794805
 22
11.0037755426421899
 13
0.0
 23
0.0
 14
1.0
 24
1.0
 15
0.0
 25
0.0
 16
0.0
 26
0.0
 36
202.37134017897489
 17
4161.556396484375
 27
226.1108322143554972
 37
0.0
 40
9.644412734367366
 41
2.2118055555555549
 42
50.0
 43
0.0
 44
0.0
 50
0.0
 51
0.0
 71
     0
 72
   100
 73
     1
 74
     1
 75
     0
 76
     0
 77
     0
 78
     0
  0
ENDTAB
  0
TABLE
  2
LTYPE
 70
     2
  0
LTYPE
  2
CONTINUOUS
 70
     0
  3
Solid line
 72
    65
 73
     0
 40
0.0
  0
LTYPE
  2
PHANTOM2
 70
     0
  3
___ _ _ ___ _ _ ___ _ _ ___ _ _
 72
    65
 73
     6
 40
1.25
 49
0.625
 49
-0.125
 49
0.125
 49
-0.125
 49
0.125
 49
-0.125
  0
ENDTAB
  0
TABLE
  2
LAYER
 70
     2
  0
LAYER
  2
0
 70
     0
 62
   255
  6
CONTINUOUS
  0
LAYER
  2
DEFPOINTS
 70
     0
 62
     7
  6
CONTINUOUS
  0
ENDTAB
  0
TABLE
  2
STYLE
 70
     1
  0
STYLE
  2
STANDARD
 70
     0
 40
0.0
 41
0.8
 50
0.0
 71
     0
 42
0.2
  3
txt
  4

  0
ENDTAB
  0
TABLE
  2
VIEW
 70
     0
  0
ENDTAB
  0
TABLE
  2
UCS
 70
     0
  0
ENDTAB
  0
TABLE
  2
APPID
 70
    10
  0
APPID
  2
ACAD
 70
     0
  0
APPID
  2
ACAD_MLEADERVER
 70
     0
  0
APPID
  2
ACAD_EXEMPT_FROM_CAD_STANDARDS
 70
     0
  0
APPID
  2
ACAD_NAV_VCDISPLAY
 70
     0
  0
APPID
  2
ACAECLAYERSTANDARD
 70
     0
  0
APPID
  2
ACCMTRANSPARENCY
 70
     0
  0
APPID
  2
ACAD_DSTYLE_DIMJAG
 70
     0
  0
APPID
  2
ACAD_DSTYLE_DIMTALN
 70
     0
  0
APPID
  2
ACDBATTR
 70
     0
  0
APPID
  2
DCO15
 70
     0
  0
ENDTAB
  0
TABLE
  2
DIMSTYLE
 70
     1
  0
DIMSTYLE
  2
STANDARD
 70
     0
  3

  4

  5

  6

  7

 40
1.0
 41
0.1875
 42
0.0625
 43
0.38
 44
0.125
 45
0.0
 46
0.0
 47
0.01
 48
0.01
140
0.15625
141
0.09
142
0.0
143
25.3999999999999986
144
1.0
145
0.0
146
1.0
147
0.09
 71
     1
 72
     0
 73
     1
 74
     1
 75
     0
 76
     0
 77
     0
 78
     4
170
     0
171
     2
172
     0
173
     0
174
     0
175
     0
176
     0
177
     0
178
     0
  0
ENDTAB
  0
ENDSEC
  0
SECTION
  2
BLOCKS
  0
BLOCK
  8
0
  2
$MODEL_SPACE
 70
     0
 10
0.0
 20
0.0
 30
0.0
  3
$MODEL_SPACE
  1

  0
ENDBLK
  5
21
  8
0
  0
BLOCK
 67
     1
  8
0
  2
$PAPER_SPACE
 70
     0
 10
0.0
 20
0.0
 30
0.0
  3
$PAPER_SPACE
  1

  0
ENDBLK
  5
1D
 67
     1
  8
0
  0
ENDSEC
  0
SECTION
  2
ENTITIES
  0
ATTDEF
  5
12CA7
  8
DEFPOINTS
 10
4441.9895329977725851
 20
240.5440573842182062
 30
0.0
 40
0.001
  1
K-76696T-B4
  3

  2
MODELNUMBER
 70
     0
1001
ACDBATTR
1070
     0
1070
     1
  0
ATTDEF
  5
12CA8
  8
DEFPOINTS
 10
4441.9895329977725851
 20
240.5423907175515126
 30
0.0
 40
0.001
  1
STANCE
  3

  2
TRADENAME
 70
     0
1001
ACDBATTR
1070
     0
1070
     1
  0
ATTDEF
  5
12CA9
  8
DEFPOINTS
 10
4441.9895329977725851
 20
240.5407240508849043
 30
0.0
 40
0.001
  1
BATH AND SHOWER FAUCET
  3

  2
PRODUCT
 70
     0
1001
ACDBATTR
1070
     0
1070
     1
  0
LINE
  5
146E5
  8
0
 10
4450.4540749185907771
 20
239.6688201415146011
 30
0.0
 11
4450.4540749185907771
 21
241.4125837783317081
 31
0.0
  0
LINE
  5
146E6
  8
0
 10
4452.4225788555922918
 20
239.6688201413091122
 30
0.0
 11
4452.4225788555922918
 21
241.4125837785371118
 31
0.0
  0
LINE
  5
146E7
  8
0
 10
4451.1621728483969491
 20
239.9637752993594972
 30
0.0
 11
4451.1626480837912823
 21
239.9093175321351055
 31
0.0
  0
ARC
  5
146E8
  8
0
 10
4451.1745574045980902
 20
239.9095126776782081
 30
0.0
 40
0.0119109195229615
 50
180.9387618028335112
 51
265.0235810701606169
  0
ARC
  5
146E9
  8
0
 10
4451.438326887090625
 20
237.7454316405354007
 30
0.0
 40
3.3464490005996761
 50
81.4511574441761894
 51
98.5488425557185792
  0
ARC
  5
146EA
  8
0
 10
4450.9437952499647508
 20
241.0352335970792979
 30
0.0
 40
0.0196850394208712
 50
98.5488428218849606
 51
171.4511575075690075
  0
ARC
  5
146EB
  8
0
 10
4454.2335972064911402
 20
240.5407019598351042
 30
0.0
 40
3.3464490006001668
 50
171.4511574441974062
 51
188.5488425559973962
  0
ARC
  5
146EC
  8
0
 10
4450.9437952497091828
 20
240.046170322335513
 30
0.0
 40
0.0196850391301846
 50
188.5488419014816088
 51
261.451157803138301
  0
ARC
  5
146ED
  8
0
 10
4451.438326887090625
 20
243.3359722791348076
 30
0.0
 40
3.3464490005996841
 50
261.4511574442814208
 51
278.5488425558237964
  0
ARC
  5
146EE
  8
0
 10
4451.438326887090625
 20
237.7454316405346901
 30
0.0
 40
3.3149529376003741
 50
81.6020926115800052
 51
98.3979073883147635
  0
ARC
  5
146EF
  8
0
 10
4454.233597211759843
 20
240.5407019598351042
 30
0.0
 40
3.3149529428693021
 50
171.6020926242680957
 51
188.3979073757317906
  0
ARC
  5
146F0
  8
0
 10
4451.438326887090625
 20
243.3359722791354898
 30
0.0
 40
3.3149529376004092
 50
261.6020926116851797
 51
278.3979073884199806
  0
ARC
  5
146F1
  8
0
 10
4451.438326887090625
 20
237.7454263692351901
 30
0.0
 40
3.311023621999972
 50
81.6526909850224598
 51
98.3473090149775544
  0
ARC
  5
146F2
  8
0
 10
4454.2336024811766038
 20
240.5407019600895069
 30
0.0
 40
3.3110236254860652
 50
171.6526909998347037
 51
188.3473090106008101
  0
ARC
  5
146F3
  8
0
 10
4451.4383268871770269
 20
243.3359775491512949
 30
0.0
 40
3.3110236208161941
 50
261.652690982020772
 51
278.3473090165040844
  0
ARC
  5
146F4
  8
0
 10
4451.438326887085168
 20
240.5407019598181932
 30
0.0
 40
0.533464566882428
 50
253.8541404626267877
 51
255.7657269538703986
  0
ARC
  5
146F5
  8
0
 10
4451.4383268870988104
 20
240.5407019598083878
 30
0.0
 40
0.5334645669277146
 50
104.2342730462370071
 51
106.1458595807175982
  0
ARC
  5
146F6
  8
0
 10
4451.438326887077892
 20
240.5407019598387137
 30
0.0
 40
0.5334645668869659
 50
163.8541404260629122
 51
165.765726904251693
  0
ARC
  5
146F7
  8
0
 10
4451.4383268870769825
 20
240.5407019598316936
 30
0.0
 40
0.5334645668866482
 50
194.2342730957687138
 51
196.145859584388802
  0
LINE
  5
146F8
  8
0
 10
4451.1351772807911402
 20
240.0032824901182948
 30
0.0
 11
4451.1351772807911402
 21
239.9914151526351134
 31
0.0
  0
ARC
  5
146F9
  8
0
 10
4451.438326887090625
 20
243.3359722791282138
 30
0.0
 40
3.3582677164930179
 50
264.820880729972373
 51
267.5139399925905082
  0
LINE
  5
146FA
  8
0
 10
4451.2926575957526438
 20
239.9808653489095889
 30
0.0
 11
4451.2926575957526438
 21
239.9926952383893024
 31
0.0
  0
LINE
  5
146FB
  8
0
 10
4451.1353931862076934
 20
239.9913955901421048
 30
0.0
 11
4451.1358007113913118
 21
239.9715678458350965
 31
0.0
  0
LINE
  5
146FC
  8
0
 10
4451.2277101751105874
 20
239.9843155759029969
 30
0.0
 11
4451.2172101145906709
 21
239.957213171535102
 31
0.0
  0
ARC
  5
146FD
  8
0
 10
4451.1357884168028249
 20
239.7334729489784024
 30
0.0
 40
0.2380948971741026
 50
70.0029585574603033
 51
89.9970413982345434
  0
ARC
  5
146FE
  8
0
 10
4451.218661752756816
 20
240.2034709914391897
 30
0.0
 40
0.2462620984180771
 50
250.3377426391222116
 51
269.6622573165635117
  0
ARC
  5
146FF
  8
0
 10
4451.1985919286626086
 20
240.0896493504214959
 30
0.0
 40
0.128992405130383
 50
250.3376190528244933
 51
269.6623814555002809
  0
ARC
  5
14700
  8
0
 10
4451.1551808524345688
 20
239.8434528966616028
 30
0.0
 40
0.1247253805361656
 50
70.0037185809857334
 51
89.9962819273359145
  0
LINE
  5
14701
  8
0
 10
4451.2648950519087521
 20
239.9821858437412914
 30
0.0
 11
4451.2672249607912818
 21
239.9601742892351126
 31
0.0
  0
LINE
  5
14702
  8
0
 10
4451.3603477494016261
 20
239.9904319389654859
 30
0.0
 11
4451.3495756942902517
 21
239.9529695336350983
 31
0.0
  0
ARC
  5
14703
  8
0
 10
4451.2884016093630635
 20
239.7279855162184958
 30
0.0
 40
0.2331524753454696
 50
74.7887876295961149
 51
95.2112123901594174
  0
ARC
  5
14704
  8
0
 10
4451.3291119583227555
 20
240.1933069350288008
 30
0.0
 40
0.2412070293303925
 50
255.1332396955046988
 51
274.8667603242170117
  0
ARC
  5
14705
  8
0
 10
4451.3192343323544264
 20
240.0804060216742926
 30
0.0
 40
0.1261470444910504
 50
255.1174118872903023
 51
274.8825889573749919
  0
ARC
  5
14706
  8
0
 10
4451.2979112196771894
 20
239.8366817078353961
 30
0.0
 40
0.1223115400611486
 50
74.8042479497804607
 51
95.1957528949021849
  0
LINE
  5
14707
  8
0
 10
4451.3899979165007608
 20
239.9898722770105053
 30
0.0
 11
4451.3969942825906401
 21
239.9540212442350935
 31
0.0
  0
LINE
  5
14708
  8
0
 10
4451.7144809258843452
 20
239.9637752993594972
 30
0.0
 11
4451.7140056904900121
 21
239.9093175321351055
 31
0.0
  0
ARC
  5
14709
  8
0
 10
4451.7020963696822946
 20
239.9095126776782081
 30
0.0
 40
0.0119109195229615
 50
274.9764189298394967
 51
359.0612381971665172
  0
ARC
  5
1470A
  8
0
 10
4451.932858524317453
 20
241.0352335970792979
 30
0.0
 40
0.0196850394208712
 50
8.5488424924293387
 51
81.4511571781150536
  0
ARC
  5
1470B
  8
0
 10
4448.6430565677910636
 20
240.5407019598351042
 30
0.0
 40
3.3464490006002241
 50
351.4511574440024901
 51
8.5488425558025654
  0
ARC
  5
1470C
  8
0
 10
4451.932858524573021
 20
240.046170322335513
 30
0.0
 40
0.0196850391301846
 50
278.5488421968618127
 51
351.4511580985167143
  0
ARC
  5
1470D
  8
0
 10
4448.6430565625214513
 20
240.5407019598351042
 30
0.0
 40
3.3149529428693021
 50
351.6020926242682094
 51
8.3979073757318492
  0
ARC
  5
1470E
  8
0
 10
4448.6430512931046906
 20
240.5407019600895069
 30
0.0
 40
3.3110236254860652
 50
351.6526909893976267
 51
8.3473090001653212
  0
ARC
  5
1470F
  8
0
 10
4451.4383268871952168
 20
240.5407019598181932
 30
0.0
 40
0.533464566882428
 50
284.2342730461296014
 51
286.1458595373727007
  0
ARC
  5
14710
  8
0
 10
4451.4383268871833934
 20
240.5407019598083878
 30
0.0
 40
0.5334645669277146
 50
73.8541404192824018
 51
75.7657269537629787
  0
ARC
  5
14711
  8
0
 10
4451.4383268872034023
 20
240.5407019598387137
 30
0.0
 40
0.5334645668869659
 50
14.2342730957482306
 51
16.1458595739370416
  0
ARC
  5
14712
  8
0
 10
4451.4383268872043118
 20
240.5407019598316936
 30
0.0
 40
0.5334645668866482
 50
343.854140415611198
 51
345.7657269042313146
  0
LINE
  5
14713
  8
0
 10
4451.7414764934910636
 20
240.0032824901182948
 30
0.0
 11
4451.7414764934910636
 21
239.9914151526351134
 31
0.0
  0
ARC
  5
14714
  8
0
 10
4451.4383268871906694
 20
243.3359722791282138
 30
0.0
 40
3.3582677164930179
 50
272.4860600074094918
 51
275.179119270027627
  0
LINE
  5
14715
  8
0
 10
4451.5839961785286505
 20
239.9808653489095889
 30
0.0
 11
4451.5839961785286505
 21
239.9926952383893024
 31
0.0
  0
LINE
  5
14716
  8
0
 10
4451.7412605880726915
 20
239.9913955901421048
 30
0.0
 11
4451.740853062890892
 21
239.9715678458350965
 31
0.0
  0
LINE
  5
14717
  8
0
 10
4451.6489435991697974
 20
239.9843155759029969
 30
0.0
 11
4451.659443659689714
 21
239.957213171535102
 31
0.0
  0
ARC
  5
14718
  8
0
 10
4451.7408653574775599
 20
239.7334729489784024
 30
0.0
 40
0.2380948971741026
 50
90.0029586017654566
 51
109.9970414425396967
  0
ARC
  5
14719
  8
0
 10
4451.6579920215262973
 20
240.2034709914391897
 30
0.0
 40
0.2462620984180771
 50
270.3377426834364883
 51
289.6622573608777884
  0
ARC
  5
1471A
  8
0
 10
4451.6780618456186858
 20
240.0896493504214959
 30
0.0
 40
0.128992405130383
 50
270.3376185444997191
 51
289.662380947175393
  0
ARC
  5
1471B
  8
0
 10
4451.721472921845816
 20
239.8434528966616028
 30
0.0
 40
0.1247253805361656
 50
90.0037180726640713
 51
109.9962814190141955
  0
LINE
  5
1471C
  8
0
 10
4451.6117587223734517
 20
239.9821858437412914
 30
0.0
 11
4451.6094288134900125
 21
239.9601742892351126
 31
0.0
  0
LINE
  5
1471D
  8
0
 10
4451.5163060248787588
 20
239.9904319389654859
 30
0.0
 11
4451.5270780799901331
 21
239.9529695336350983
 31
0.0
  0
ARC
  5
1471E
  8
0
 10
4451.5882521649191403
 20
239.7279855162184958
 30
0.0
 40
0.2331524753454696
 50
84.7887876098405684
 51
105.2112123704038993
  0
ARC
  5
1471F
  8
0
 10
4451.5475418159576293
 20
240.1933069350288008
 30
0.0
 40
0.2412070293303925
 50
265.1332396757829883
 51
284.8667603044953012
  0
ARC
  5
14720
  8
0
 10
4451.5574194419277774
 20
240.0804060216742926
 30
0.0
 40
0.1261470444910504
 50
265.1174110426250081
 51
284.8825881127096977
  0
ARC
  5
14721
  8
0
 10
4451.578742554604105
 20
239.8366817078353961
 30
0.0
 40
0.1223115400611486
 50
84.8042471050978435
 51
105.1957520502194967
  0
LINE
  5
14722
  8
0
 10
4451.4866558577796241
 20
239.9898722770105053
 30
0.0
 11
4451.4796594916906542
 21
239.9540212442350935
 31
0.0
  0
ARC
  5
14723
  8
0
 10
4451.4383268871397377
 20
239.722732857408289
 30
0.0
 40
0.2349525528267906
 50
79.8678607109816738
 51
100.1321392890182977
  0
ARC
  5
14724
  8
0
 10
4451.4383268871397377
 20
240.1934370031515869
 30
0.0
 40
0.242957382716504
 50
260.2050375902124983
 51
279.7949624097875017
  0
ARC
  5
14725
  8
0
 10
4451.4383268829005829
 20
240.0792577933831069
 30
0.0
 40
0.1270625087479829
 50
260.1893857512517911
 51
279.8106145133779137
  0
ARC
  5
14726
  8
0
 10
4451.438326883470836
 20
239.8327105378573094
 30
0.0
 40
0.1232592080778332
 50
79.8835321043900279
 51
100.1164681602237039
  0
ARC
  5
14727
  8
0
 10
4451.4383268871397377
 20
243.2336100756947985
 30
0.0
 40
3.3464566941597078
 50
265.4614815930552254
 51
274.5385184069448883
  0
ARC
  5
14728
  8
0
 10
4450.4934449975253301
 20
241.4125837783317081
 30
0.0
 40
0.0393700789344891
 50
98.8356101270820062
 51
179.9999997039276991
  0
ARC
  5
14729
  8
0
 10
4452.3832087768960264
 20
241.4125837785371118
 30
0.0
 40
0.0393700786946827
 50
359.9999999971403781
 51
81.1643901718262981
  0
ARC
  5
1472A
  8
0
 10
4450.4934449977308759
 20
239.6688201415146011
 30
0.0
 40
0.0393700791399034
 50
180.0000004066077963
 51
261.1643896168322954
  0
ARC
  5
1472B
  8
0
 10
4452.3832087766913901
 20
239.6688201413091122
 30
0.0
 40
0.0393700789001006
 50
278.8356100842078718
 51
359.9999998923289013
  0
ARC
  5
1472C
  8
0
 10
4451.438326887090625
 20
235.3340090464355114
 30
0.0
 40
6.1909448818996751
 50
81.1643901301115136
 51
98.8356098698885006
  0
ARC
  5
1472D
  8
0
 10
4451.438326887090625
 20
245.7473948732354074
 30
0.0
 40
6.1909448819002471
 50
261.1643901301114852
 51
278.8356098698885148
  0
LINE
  5
1472E
  8
0
 10
4440.8477757059908981
 20
232.5092058970058133
 30
0.0
 11
4440.8477757059908981
 21
240.1772493472417978
 31
0.0
  0
LINE
  5
1472F
  8
0
 10
4440.8477757059908981
 20
240.1986634325351133
 30
0.0
 11
4440.8477757059908981
 21
241.6970011724351082
 31
0.0
  0
LINE
  5
14730
  8
0
 10
4443.1312402729909081
 20
232.5092058970058133
 30
0.0
 11
4443.1312402729909081
 21
240.1772493472396093
 31
0.0
  0
LINE
  5
14731
  8
0
 10
4443.1312402729909081
 20
240.1986634325351986
 30
0.0
 11
4443.1312402729909081
 21
241.6970011724351082
 31
0.0
  0
ARC
  5
14732
  8
0
 10
4441.0249410604619698
 20
232.5092058970058133
 30
0.0
 40
0.1771653544707128
 50
180.0000000552074937
 51
269.9999999771235935
  0
ARC
  5
14733
  8
0
 10
4442.9540749185198365
 20
232.5092058970058133
 30
0.0
 40
0.177165354470711
 50
270.0000000228764065
 51
359.9999999447924779
  0
LINE
  5
14734
  8
0
 10
4440.9068308241912746
 20
240.1051831478351062
 30
0.0
 11
4443.0721851547914412
 21
240.1051831478351062
 31
0.0
  0
ARC
  5
14735
  8
0
 10
4440.9060745177539502
 20
240.2408177533652065
 30
0.0
 40
0.1356367141179704
 50
256.0761493231044028
 51
270.3194812826905036
  0
ARC
  5
14736
  8
0
 10
4440.8885391921721748
 20
240.1700870644237966
 30
0.0
 40
0.0627647853569833
 50
237.4838862231719929
 51
256.0761493231044028
  0
ARC
  5
14737
  8
0
 10
4440.8645912216143188
 20
240.1312290494155093
 30
0.0
 40
0.017139270999332
 50
191.1541369571745861
 51
235.1641846029916962
  0
LINE
  5
14738
  8
0
 10
4440.9068308240912302
 20
240.1562935111352033
 30
0.0
 11
4443.0721851405905909
 21
240.1562935111352033
 31
0.0
  0
ARC
  5
14739
  8
0
 10
4440.9065251258207354
 20
240.2379002412457965
 30
0.0
 40
0.081607302680559
 50
247.3229356718256895
 51
270.2146286056412237
  0
ARC
  5
1473A
  8
0
 10
4440.896480868848812
 20
240.2121543487261874
 30
0.0
 40
0.0539833440951061
 50
223.4883097657057078
 51
246.6243030356453971
  0
ARC
  5
1473B
  8
0
 10
4440.8829650754760223
 20
240.1987461626279128
 30
0.0
 40
0.0349524326171375
 50
206.1598203685738895
 51
222.7896771295037865
  0
ARC
  5
1473C
  8
0
 10
4440.8852057766152939
 20
240.1998465883523011
 30
0.0
 40
0.0374487655960757
 50
181.8105034054138116
 51
206.1595665755235984
  0
ARC
  5
1473D
  8
0
 10
4440.8806232555507449
 20
240.1772426684198933
 30
0.0
 40
0.0328475502384922
 50
160.6306820580878139
 51
179.9883501835820994
  0
ARC
  5
1473E
  8
0
 10
4443.0729414612269466
 20
240.2408177533652065
 30
0.0
 40
0.1356367141179704
 50
269.6805187173093827
 51
283.9238506768955972
  0
ARC
  5
1473F
  8
0
 10
4443.0904767868078125
 20
240.1700870644237966
 30
0.0
 40
0.0627647853569833
 50
283.9238506768955972
 51
302.5161137768279787
  0
ARC
  5
14740
  8
0
 10
4443.114424757368397
 20
240.1312290494155093
 30
0.0
 40
0.017139270999332
 50
304.8358153970082753
 51
348.8458630428253855
  0
ARC
  5
14741
  8
0
 10
4443.0724908531601614
 20
240.2379002412457965
 30
0.0
 40
0.081607302680559
 50
269.7853713943587763
 51
292.6770643281741968
  0
ARC
  5
14742
  8
0
 10
4443.0825351101339038
 20
240.2121543487261874
 30
0.0
 40
0.0539833440951061
 50
293.3756969643545744
 51
316.5116902342941785
  0
ARC
  5
14743
  8
0
 10
4443.0960509035048744
 20
240.1987461626279128
 30
0.0
 40
0.0349524326171375
 50
317.2103228704960998
 51
333.8401796314259968
  0
ARC
  5
14744
  8
0
 10
4443.0938102023656029
 20
240.1998465883523011
 30
0.0
 40
0.0374487655960757
 50
333.8404334244763731
 51
358.1894965945861031
  0
ARC
  5
14745
  8
0
 10
4443.0983927234319708
 20
240.1772426684198933
 30
0.0
 40
0.0328475502384922
 50
0.0116498164178525
 51
19.369317941912179
  0
LINE
  5
14746
  8
0
 10
4441.0446260996914134
 20
241.8938515661351971
 30
0.0
 11
4442.9343898792913023
 21
241.8938515661351971
 31
0.0
  0
ARC
  5
14747
  8
0
 10
4441.0446260996914134
 20
241.6970011724351082
 30
0.0
 40
0.196850393699999
 50
90.0
 51
180.0
  0
ARC
  5
14748
  8
0
 10
4442.9343898792913023
 20
241.6970011724351082
 30
0.0
 40
0.1968503937000001
 50
0.0
 51
90.0000000291295947
  0
LINE
  5
14749
  8
0
 10
4445.5667098223430003
 20
241.629042801265598
 30
0.0
 11
4445.5667098223430003
 21
237.2476660271125866
 31
0.0
  0
LINE
  5
1474A
  8
0
 10
4447.8611250542389826
 20
241.6290311194057949
 30
0.0
 11
4447.8611250542389826
 21
237.2476822804848098
 31
0.0
  0
LINE
  5
1474B
  8
0
 10
4447.6841843051352043
 20
241.8059958323352134
 30
0.0
 11
4445.743650589124627
 21
241.8059958323352134
 31
0.0
  0
ARC
  5
1474C
  8
0
 10
4445.7437618322646813
 20
237.2477117081216988
 30
0.0
 40
0.1770520158152622
 50
180.0147828257250922
 51
269.990485970358975
  0
ARC
  5
1474D
  8
0
 10
4447.6840730548174179
 20
237.247711694170107
 30
0.0
 40
0.1770520018654325
 50
270.0095173600565204
 51
359.9904814430469173
  0
ARC
  5
1474E
  8
0
 10
4445.7437209105582951
 20
241.6289847485701046
 30
0.0
 40
0.1770110977333329
 50
90.0227619700497144
 51
179.9812092318252894
  0
ARC
  5
1474F
  8
0
 10
4447.6841139748721616
 20
241.6289847608705088
 30
0.0
 40
0.1770110854365062
 50
0.015005548615776
 51
89.9772351697770887
  0
LINE
  5
14751
  8
0
 10
4447.6841024647719678
 20
237.0706596947472917
 30
0.0
 11
4445.7437324326174348
 21
237.0706596947472917
 31
0.0
  0
LINE
  5
14752
  8
0
 10
4442.9540749185198365
 20
232.3320405425351112
 30
0.0
 11
4441.0249410604619698
 21
232.3320405425351112
 31
0.0
  0
ENDSEC
  0
EOF
