  0
SECTION
  2
HEADER
  9
$ACADVER
  1
AC1009
  9
$INSBASE
 10
3945.9251048493611052
 20
41.9441412044920128
 30
0.0
  9
$EXTMIN
 10
3932.4249054029219224
 20
38.1717631748304314
 30
0.0
  9
$EXTMAX
 10
3951.7967195752839871
 20
51.9951545298835427
 30
0.0
  9
$LIMMIN
 10
0.0
 20
0.0
  9
$LIMMAX
 10
11.6929133858000007
 20
8.2677165353999982
  9
$ORTHOMODE
 70
     0
  9
$REGENMODE
 70
     1
  9
$FILLMODE
 70
     1
  9
$QTEXTMODE
 70
     0
  9
$MIRRTEXT
 70
     0
  9
$DRAGMODE
 70
     2
  9
$LTSCALE
 40
0.6431102362
  9
$OSMODE
 70
  4095
  9
$ATTMODE
 70
     1
  9
$TEXTSIZE
 40
0.2
  9
$TRACEWID
 40
0.05
  9
$TEXTSTYLE
  7
STANDARD
  9
$CLAYER
  8
0
  9
$CELTYPE
  6
BYLAYER
  9
$CECOLOR
 62
   256
  9
$DIMSCALE
 40
1.0
  9
$DIMASZ
 40
0.1875
  9
$DIMEXO
 40
0.0625
  9
$DIMDLI
 40
0.4443307087
  9
$DIMRND
 40
0.0
  9
$DIMDLE
 40
0.0
  9
$DIMEXE
 40
0.125
  9
$DIMTP
 40
0.01
  9
$DIMTM
 40
0.01
  9
$DIMTXT
 40
2.0
  9
$DIMCEN
 40
0.1052362205
  9
$DIMTSZ
 40
0.0
  9
$DIMTOL
 70
     1
  9
$DIMLIM
 70
     0
  9
$DIMTIH
 70
     1
  9
$DIMTOH
 70
     1
  9
$DIMSE1
 70
     0
  9
$DIMSE2
 70
     0
  9
$DIMTAD
 70
     0
  9
$DIMZIN
 70
     0
  9
$DIMBLK
  1

  9
$DIMASO
 70
     1
  9
$DIMSHO
 70
     1
  9
$DIMPOST
  1
\X
  9
$DIMAPOST
  1

  9
$DIMALT
 70
     1
  9
$DIMALTD
 70
     2
  9
$DIMALTF
 40
25.3999999999999986
  9
$DIMLFAC
 40
1.0
  9
$DIMTOFL
 70
     0
  9
$DIMTVP
 40
0.0
  9
$DIMTIX
 70
     0
  9
$DIMSOXD
 70
     0
  9
$DIMSAH
 70
     0
  9
$DIMBLK1
  1

  9
$DIMBLK2
  1

  9
$DIMSTYLE
  2
STANDARD
  9
$DIMCLRD
 70
     0
  9
$DIMCLRE
 70
     0
  9
$DIMCLRT
 70
     0
  9
$DIMTFAC
 40
1.0
  9
$DIMGAP
 40
0.09
  9
$LUNITS
 70
     2
  9
$LUPREC
 70
     4
  9
$SKETCHINC
 40
0.1
  9
$FILLETRAD
 40
0.0
  9
$AUNITS
 70
     0
  9
$AUPREC
 70
     0
  9
$MENU
  1
.
  9
$ELEVATION
 40
0.0
  9
$PELEVATION
 40
0.0
  9
$THICKNESS
 40
0.0
  9
$LIMCHECK
 70
     0
  9
$BLIPMODE
 70
     0
  9
$CHAMFERA
 40
0.0
  9
$CHAMFERB
 40
0.0
  9
$SKPOLY
 70
     0
  9
$TDCREATE
 40
2458060.468368056230247
  9
$TDUPDATE
 40
2459101.5081481481902301
  9
$TDINDWG
 40
0.4394978009
  9
$TDUSRTIMER
 40
0.4394978009
  9
$USRTIMER
 70
     1
  9
$ANGBASE
 50
0.0
  9
$ANGDIR
 70
     0
  9
$PDMODE
 70
     0
  9
$PDSIZE
 40
0.3125
  9
$PLINEWID
 40
0.0
  9
$COORDS
 70
     1
  9
$SPLFRAME
 70
     0
  9
$SPLINETYPE
 70
     6
  9
$SPLINESEGS
 70
     8
  9
$ATTDIA
 70
     1
  9
$ATTREQ
 70
     1
  9
$HANDLING
 70
     1
  9
$HANDSEED
  5
8F78
  9
$SURFTAB1
 70
     6
  9
$SURFTAB2
 70
     6
  9
$SURFTYPE
 70
     6
  9
$SURFU
 70
     6
  9
$SURFV
 70
     6
  9
$UCSNAME
  2

  9
$UCSORG
 10
0.0
 20
0.0
 30
0.0
  9
$UCSXDIR
 10
1.0
 20
0.0
 30
0.0
  9
$UCSYDIR
 10
0.0
 20
1.0
 30
0.0
  9
$PUCSNAME
  2

  9
$PUCSORG
 10
0.0
 20
0.0
 30
0.0
  9
$PUCSXDIR
 10
1.0
 20
0.0
 30
0.0
  9
$PUCSYDIR
 10
0.0
 20
1.0
 30
0.0
  9
$USERI1
 70
     0
  9
$USERI2
 70
     0
  9
$USERI3
 70
     0
  9
$USERI4
 70
     0
  9
$USERI5
 70
     0
  9
$USERR1
 40
0.0
  9
$USERR2
 40
0.0
  9
$USERR3
 40
0.0
  9
$USERR4
 40
0.0
  9
$USERR5
 40
0.0
  9
$WORLDVIEW
 70
     1
  9
$SHADEDGE
 70
     3
  9
$SHADEDIF
 70
    70
  9
$TILEMODE
 70
     1
  9
$MAXACTVP
 70
    64
  9
$PLIMCHECK
 70
     0
  9
$PEXTMIN
 10
1.0000000000000000E+20
 20
1.0000000000000000E+20
 30
1.0000000000000000E+20
  9
$PEXTMAX
 10
-1.0000000000000000E+20
 20
-1.0000000000000000E+20
 30
-1.0000000000000000E+20
  9
$PLIMMIN
 10
0.0
 20
0.0
  9
$PLIMMAX
 10
12.0
 20
9.0
  9
$UNITMODE
 70
     0
  9
$VISRETAIN
 70
     1
  9
$PLINEGEN
 70
     0
  9
$PSLTSCALE
 70
     1
  0
ENDSEC
  0
SECTION
  2
TABLES
  0
TABLE
  2
VPORT
 70
     1
  0
VPORT
  2
*ACTIVE
 70
     0
 10
0.0
 20
0.0
 11
1.0
 21
1.0
 12
177.0881363480228003
 22
-84.3206466063192153
 13
0.0
 23
0.0
 14
1.0
 24
1.0
 15
0.0
 25
0.0
 16
0.0
 26
0.0
 36
5.1040778033513332
 17
3792.35791015625
 27
120.1806564331053977
 37
0.0
 40
69.292413596835587
 41
2.005224660397074
 42
50.0
 43
0.0
 44
0.0
 50
0.0
 51
0.0
 71
     0
 72
   100
 73
     1
 74
     1
 75
     0
 76
     0
 77
     0
 78
     0
  0
ENDTAB
  0
TABLE
  2
LTYPE
 70
     2
  0
LTYPE
  2
CONTINUOUS
 70
     0
  3
Solid line
 72
    65
 73
     0
 40
0.0
  0
LTYPE
  2
PHANTOM2
 70
     0
  3
___ _ _ ___ _ _ ___ _ _ ___ _ _
 72
    65
 73
     6
 40
1.25
 49
0.625
 49
-0.125
 49
0.125
 49
-0.125
 49
0.125
 49
-0.125
  0
ENDTAB
  0
TABLE
  2
LAYER
 70
     2
  0
LAYER
  2
0
 70
     0
 62
   255
  6
CONTINUOUS
  0
LAYER
  2
DEFPOINTS
 70
     0
 62
     7
  6
CONTINUOUS
  0
ENDTAB
  0
TABLE
  2
STYLE
 70
     1
  0
STYLE
  2
STANDARD
 70
     0
 40
0.0
 41
0.8
 50
0.0
 71
     0
 42
0.2
  3
txt
  4

  0
ENDTAB
  0
TABLE
  2
VIEW
 70
     0
  0
ENDTAB
  0
TABLE
  2
UCS
 70
     0
  0
ENDTAB
  0
TABLE
  2
APPID
 70
     9
  0
APPID
  2
ACAD
 70
     0
  0
APPID
  2
ACAD_MLEADERVER
 70
     0
  0
APPID
  2
ACAD_EXEMPT_FROM_CAD_STANDARDS
 70
     0
  0
APPID
  2
ACAD_NAV_VCDISPLAY
 70
     0
  0
APPID
  2
ACAECLAYERSTANDARD
 70
     0
  0
APPID
  2
ACCMTRANSPARENCY
 70
     0
  0
APPID
  2
ACAD_DSTYLE_DIMJAG
 70
     0
  0
APPID
  2
ACAD_DSTYLE_DIMTALN
 70
     0
  0
APPID
  2
ACDBATTR
 70
     0
  0
ENDTAB
  0
TABLE
  2
DIMSTYLE
 70
     1
  0
DIMSTYLE
  2
STANDARD
 70
     0
  3

  4

  5

  6

  7

 40
1.0
 41
0.1875
 42
0.0625
 43
0.38
 44
0.125
 45
0.0
 46
0.0
 47
0.01
 48
0.01
140
0.15625
141
0.09
142
0.0
143
25.3999999999999986
144
1.0
145
0.0
146
1.0
147
0.09
 71
     1
 72
     0
 73
     1
 74
     1
 75
     0
 76
     0
 77
     0
 78
     4
170
     0
171
     2
172
     0
173
     0
174
     0
175
     0
176
     0
177
     0
178
     0
  0
ENDTAB
  0
ENDSEC
  0
SECTION
  2
BLOCKS
  0
BLOCK
  8
0
  2
$MODEL_SPACE
 70
     0
 10
0.0
 20
0.0
 30
0.0
  3
$MODEL_SPACE
  1

  0
ENDBLK
  5
21
  8
0
  0
BLOCK
 67
     1
  8
0
  2
$PAPER_SPACE
 70
     0
 10
0.0
 20
0.0
 30
0.0
  3
$PAPER_SPACE
  1

  0
ENDBLK
  5
1D
 67
     1
  8
0
  0
BLOCK
  8
0
  2
_FILLED
 70
     0
 10
0.0
 20
0.0
 30
0.0
  3
_FILLED
  1

  0
SOLID
  5
69B4
  8
0
  6
BYBLOCK
 62
     0
 10
0.0
 20
0.0
 30
0.0
 11
-1.0
 21
0.1666666667
 31
0.0
 12
-1.0
 22
-0.1666666667
 32
0.0
 13
-1.0
 23
-0.1666666667
 33
0.0
  0
ENDBLK
  5
69B5
  8
0
  6
BYBLOCK
 62
     0
  0
BLOCK
  8
0
  2
A$CDFAF6206
 70
     0
 10
0.0
 20
0.0
 30
0.0
  3
A$CDFAF6206
  1

  0
LINE
  5
6A0E
  8
0
 10
7.4646650085734834
 20
10.9287685970688493
 30
0.0
 11
7.4646650085734896
 21
10.8905784766688498
 31
0.0
  0
ARC
  5
6A0F
  8
0
 10
7.7269027075262349
 20
10.8926811525838598
 30
0.0
 40
0.2622461286616791
 50
180.4593995232625048
 51
217.0214027758331099
  0
LINE
  5
6A10
  8
0
 10
9.767814609867095
 20
10.9287685970688493
 30
0.0
 11
9.767814609867095
 21
10.8905433757650094
 31
0.0
  0
ARC
  5
6A11
  8
0
 10
9.5068669568548287
 20
10.8922438613003703
 30
0.0
 40
0.2609531936261092
 50
322.8847083717149076
 51
359.6266329125650145
  0
LINE
  5
6A12
  8
0
 10
7.517522606271406
 20
10.7347792678688396
 30
0.0
 11
9.7149570120691777
 21
10.7347792678688396
 31
0.0
  0
LINE
  5
6A13
  8
0
 10
7.4646650085734834
 20
10.9287685970688493
 30
0.0
 11
9.7678146123202936
 21
10.9287685970688493
 31
0.0
  0
ARC
  5
6A14
  8
0
 10
4.0826771419203629
 20
8.527951346868889
 30
0.0
 40
4.0826771653999172
 50
13.3117747050523896
 51
32.7200330051415591
  0
ARC
  5
6A15
  8
0
 10
4.0826771460567306
 20
8.5279513475907933
 30
0.0
 40
4.0826771612084691
 50
359.6656501984817851
 51
13.3117747085593798
  0
ARC
  5
6A16
  8
0
 10
13.1498041284835097
 20
8.5279508235212234
 30
0.0
 40
4.0826788382043553
 50
147.2799733478981068
 51
166.6882233021349862
  0
ARC
  5
6A17
  8
0
 10
13.1498064934207992
 20
8.5279506557033251
 30
0.0
 40
4.0826811782395342
 50
166.688228652086309
 51
180.3343397625230011
  0
LINE
  5
6A18
  8
0
 10
8.1652847935202928
 20
8.504127000268852
 30
0.0
 11
9.0671948248202892
 21
8.5041270002687881
 31
0.0
  0
LINE
  5
6A19
  8
0
 10
8.1652847935202786
 20
8.5041270002667204
 30
0.0
 11
8.1652847935202928
 21
8.3607006934688481
 31
0.0
  0
ARC
  5
6A1A
  8
0
 10
5.6196779630382627
 20
8.3631022096452732
 30
0.0
 40
2.545607963272567
 50
342.0511668832173768
 51
359.945947387132378
  0
LINE
  5
6A1B
  8
0
 10
9.0671948248202892
 20
8.5041270002687881
 30
0.0
 11
9.0671948248202892
 21
8.2885990108688503
 31
0.0
  0
ARC
  5
6A1C
  8
0
 10
9.4521885297801163
 20
7.9614488056228501
 30
0.0
 40
0.5052201595850959
 50
139.6436242991769916
 51
174.6757930071850069
  0
ARC
  5
6A1D
  8
0
 10
9.9238413395551746
 20
8.1492417579399508
 30
0.0
 40
0.9848265662939324
 50
188.2263441834095943
 51
209.5593615864376034
  0
ARC
  5
6A1E
  8
0
 10
8.0788764238271256
 20
7.5665710856463297
 30
0.0
 40
0.0393715937169877
 50
162.1669117288323037
 51
227.2023190037006088
  0
ARC
  5
6A1F
  8
0
 10
8.7223682141740682
 20
8.2079667397440517
 30
0.0
 40
0.947895137885075
 50
225.0018610752970858
 51
261.4598823366255829
  0
ARC
  5
6A20
  8
0
 10
8.6645157662702701
 20
8.1695128573935332
 30
0.0
 40
0.9027466462812931
 50
264.7303071214498118
 51
281.8608311947915013
  0
ARC
  5
6A21
  8
0
 10
8.6645157662698935
 20
8.1695128573999671
 30
0.0
 40
0.9027466462876658
 50
299.1741886792128753
 51
299.1743179154552195
  0
ARC
  5
6A22
  8
0
 10
9.0843330931590316
 20
7.4150554710086141
 30
0.0
 40
0.0393703053609601
 50
251.9700352025496954
 51
252.4698971938937859
  0
ARC
  5
6A23
  8
0
 10
9.0843330931590316
 20
7.4150554710086141
 30
0.0
 40
0.0393703053609601
 50
297.2453716727138726
 51
6.8376113572703074
  0
LINE
  5
6A24
  8
0
 10
9.0671948248202892
 20
7.663402160468852
 30
0.0
 11
9.1234233799329516
 21
7.419742732911689
 31
0.0
  0
ARC
  5
6A25
  8
0
 10
8.8843741880892395
 20
9.8961379890094676
 30
0.0
 40
2.5255097382132701
 50
263.792800240752797
 51
274.9514951129821156
  0
ARC
  5
6A26
  8
0
 10
8.8258167405968848
 20
9.2763025889666508
 30
0.0
 40
1.9029970832759311
 50
246.0108363320686067
 51
263.5276935074397215
  0
ARC
  5
6A27
  8
0
 10
8.607491361665744
 20
8.3225444804829642
 30
0.0
 40
1.064510137163637
 50
283.1717405874071005
 51
297.7022170607311864
  0
LINE
  5
6A28
  8
0
 10
9.0671948248202892
 20
8.2885990108688503
 30
0.0
 11
26.2014378595979593
 21
8.2885990108689942
 31
0.0
  0
LINE
  5
6A29
  8
0
 10
26.2014378595979913
 20
7.6634021604689053
 30
0.0
 11
9.0671948248202892
 21
7.6634021604688618
 31
0.0
  0
LINE
  5
6A2A
  8
0
 10
27.8039676758446994
 20
10.9287685970690802
 30
0.0
 11
27.8039676758446888
 21
10.8905784766690807
 31
0.0
  0
ARC
  5
6A2B
  8
0
 10
27.5417299768919399
 20
10.8926811525840801
 30
0.0
 40
0.2622461286616791
 50
322.9785972241680838
 51
359.5406004767386889
  0
LINE
  5
6A2C
  8
0
 10
25.5008180745510913
 20
10.9287685970690305
 30
0.0
 11
25.5008180745510913
 21
10.8905433757651799
 31
0.0
  0
ARC
  5
6A2D
  8
0
 10
25.7617657275633505
 20
10.8922438613005497
 30
0.0
 40
0.2609531936261092
 50
180.3733670874362929
 51
217.1152916282862861
  0
LINE
  5
6A2E
  8
0
 10
27.7511100781467803
 20
10.7347792678690706
 30
0.0
 11
25.5536756723490015
 21
10.7347792678690208
 31
0.0
  0
LINE
  5
6A2F
  8
0
 10
27.8039676758446888
 20
10.9287685970686006
 30
0.0
 11
25.5008180745510806
 21
10.9287685970686006
 31
0.0
  0
ARC
  5
6A30
  8
0
 10
31.1859555424978616
 20
8.5279513468691981
 30
0.0
 40
4.0826771653999172
 50
147.2799669948597057
 51
166.6882252949490066
  0
ARC
  5
6A31
  8
0
 10
31.185955538361501
 20
8.5279513475911024
 30
0.0
 40
4.0826771612084691
 50
166.6882252914419098
 51
180.3343498015194086
  0
ARC
  5
6A32
  8
0
 10
22.1188285559344706
 20
8.5279508235212251
 30
0.0
 40
4.0826788382046102
 50
13.3117766978667795
 51
32.7200266521023977
  0
ARC
  5
6A33
  8
0
 10
22.1188261909974315
 20
8.5279506557034264
 30
0.0
 40
4.0826811782395342
 50
359.665660237478221
 51
13.31177134791497
  0
LINE
  5
6A34
  8
0
 10
27.1033478908979397
 20
8.5041270002690652
 30
0.0
 11
26.2014378595979416
 21
8.5041270002689835
 31
0.0
  0
LINE
  5
6A35
  8
0
 10
27.1033478908979504
 20
8.5041270002669354
 30
0.0
 11
27.1033478908979397
 21
8.3607006934690649
 31
0.0
  0
ARC
  5
6A36
  8
0
 10
29.6489547213799689
 20
8.3631022096455467
 30
0.0
 40
2.545607963272567
 50
180.0540526128687873
 51
197.9488331167837032
  0
LINE
  5
6A37
  8
0
 10
26.2014378595979416
 20
8.5041270002689835
 30
0.0
 11
26.2014378595979487
 21
8.2885990108690457
 31
0.0
  0
ARC
  5
6A38
  8
0
 10
25.8164441546381305
 20
7.9614488056230366
 30
0.0
 40
0.5052201595850959
 50
5.324206992816312
 51
40.3563757008241879
  0
ARC
  5
6A39
  8
0
 10
25.3447913448601803
 20
8.149241757940846
 30
0.0
 40
0.9848265662968968
 50
330.4406384136033807
 51
351.7736558165743759
  0
ARC
  5
6A3A
  8
0
 10
27.1897562605911212
 20
7.5665710856465473
 30
0.0
 40
0.0393715937169877
 50
312.7976809963004143
 51
17.8330882711689185
  0
ARC
  5
6A3B
  8
0
 10
26.5462644702441715
 20
8.2079667397442542
 30
0.0
 40
0.947895137885075
 50
278.5401176633754972
 51
314.9981389247041079
  0
ARC
  5
6A3C
  8
0
 10
26.6041169181479695
 20
8.1695128573937392
 30
0.0
 40
0.9027466462812931
 50
258.139168805210204
 51
275.2696928785518935
  0
ARC
  5
6A3D
  8
0
 10
26.6041169181483497
 20
8.1695128574001732
 30
0.0
 40
0.9027466462876658
 50
240.8256820845460027
 51
240.8258113207880058
  0
ARC
  5
6A3E
  8
0
 10
26.1842995912592293
 20
7.4150554710088086
 30
0.0
 40
0.0393703053609601
 50
287.5301028061073794
 51
288.0299647974517825
  0
ARC
  5
6A3F
  8
0
 10
26.1842995912592293
 20
7.4150554710088086
 30
0.0
 40
0.0393703053609601
 50
173.1623886427310026
 51
242.7546283272870085
  0
LINE
  5
6A40
  8
0
 10
26.2014378595981192
 20
7.6634021604690448
 30
0.0
 11
26.1452093044853093
 21
7.4197427329118826
 31
0.0
  0
ARC
  5
6A41
  8
0
 10
26.384258496328961
 20
9.8961379890096666
 30
0.0
 40
2.5255097382132701
 50
265.0485048870193054
 51
276.2071997592482262
  0
ARC
  5
6A42
  8
0
 10
26.4428159438213299
 20
9.2763025889668516
 30
0.0
 40
1.9029970832759311
 50
276.4723064925619838
 51
293.9891636679327007
  0
ARC
  5
6A43
  8
0
 10
26.6611413227524885
 20
8.3225444804831703
 30
0.0
 40
1.064510137163637
 50
242.2977829392704052
 51
256.8282594125943774
  0
LINE
  5
6A44
  8
0
 62
     4
 10
17.9031473532159602
 20
10.9287685970686006
 30
0.0
 11
24.6329820359843588
 21
20.0952817181593808
 31
0.0
  0
LINE
  5
6A45
  8
0
 62
     4
 10
17.9031473532159602
 20
-0.0000000300842942
 30
0.0
 11
22.3963351323106608
 21
4.993614497796286
 31
0.0
  0
ENDBLK
  5
6A49
  8
0
  0
ENDSEC
  0
SECTION
  2
ENTITIES
  0
ATTDEF
  5
3930
  8
DEFPOINTS
 10
3945.9263305699728335
 20
41.947728903820142
 30
0.0
 40
0.001
  1
K-76697T-4
  3

  2
MODELNUMBER
 70
     0
1001
ACDBATTR
1070
     0
1070
     1
  0
ATTDEF
  5
3931
  8
DEFPOINTS
 10
3945.9263305699728335
 20
41.9460622371534768
 30
0.0
 40
0.001
  1
STANCE
  3

  2
TRADENAME
 70
     0
1001
ACDBATTR
1070
     0
1070
     1
  0
ATTDEF
  5
3932
  8
DEFPOINTS
 10
3945.9263305699728335
 20
41.9443955704868117
 30
0.0
 40
0.001
  1
BATHROOM SINK FAUCET
  3

  2
PRODUCT
 70
     0
1001
ACDBATTR
1070
     0
1070
     1
  0
ARC
  5
8D10
  8
0
 10
3944.8424253905877777
 20
48.1842986930681292
 30
0.0
 40
0.0590551097738944
 50
89.9999919219276876
 51
180.0000080780567941
  0
ARC
  5
8D11
  8
0
 10
3944.8425364705190077
 20
48.1056635674918027
 30
0.0
 40
0.0592075609143001
 50
182.1420196204012996
 51
269.1961522628290027
  0
ARC
  5
8D12
  8
0
 10
3944.826003042252978
 20
47.7099358036773111
 30
0.0
 40
0.3368921878898157
 50
58.8267544565970084
 51
87.3284347761164952
  0
ARC
  5
8D13
  8
0
 10
3944.6521394553001301
 20
47.3953892201280311
 30
0.0
 40
0.696158712486931
 50
47.8043228973501328
 51
59.9839468661571402
  0
ARC
  5
8D14
  8
0
 10
3944.6331130743578797
 20
47.3385365292822087
 30
0.0
 40
0.7514439228052937
 50
10.37127576699298
 51
49.6414533191907523
  0
ARC
  5
8D15
  8
0
 10
3945.6231665693121613
 20
47.4429179457399499
 30
0.0
 40
0.0207674614932821
 50
130.113494718554989
 51
181.2859977305078871
  0
ARC
  5
8D16
  8
0
 10
3945.7926694144957764
 20
47.4984811924425614
 30
0.0
 40
0.1983433513540133
 50
196.408666601146308
 51
210.1197495933664925
  0
ARC
  5
8D17
  8
0
 10
3945.7890188416790807
 20
47.4957234923700611
 30
0.0
 40
0.1938026361428308
 50
209.9561241726921992
 51
224.6075446899903056
  0
ARC
  5
8D18
  8
0
 10
3945.8502577059930445
 20
48.9825588116212671
 30
0.0
 40
1.635113523682262
 50
262.3015002463096721
 51
263.0020032350149108
  0
ARC
  5
8D19
  8
0
 10
3945.5821417787669816
 20
47.4747220185336687
 30
0.0
 40
0.0234413145584899
 50
116.6843572989699993
 51
194.5628448994135056
  0
ARC
  5
8D1A
  8
0
 10
3945.669853019825041
 20
47.344084099455408
 30
0.0
 40
0.1806322701938613
 50
104.7751737237987015
 51
122.9465996339085052
  0
ARC
  5
8D1B
  8
0
 10
3945.5933240252411451
 20
47.447115577566457
 30
0.0
 40
0.0230910067096066
 50
204.224222149088888
 51
215.5688481243097954
  0
ARC
  5
8D1C
  8
0
 10
3945.5892011681808071
 20
47.4445585295946799
 30
0.0
 40
0.0182932094049779
 50
131.065318345751507
 51
202.2185056254384961
  0
ARC
  5
8D1D
  8
0
 10
3945.653506815160199
 20
47.3702418979278974
 30
0.0
 40
0.1165691487525522
 50
106.3974158326700064
 51
130.9001457920973905
  0
ARC
  5
8D1E
  8
0
 10
3945.6477057830288686
 20
47.5069675082829406
 30
0.0
 40
0.1035543405909181
 50
225.0466148358646024
 51
252.1496202662162887
  0
LINE
  5
8D1F
  8
0
 10
3945.5594535767140769
 20
47.4688278929950869
 30
0.0
 11
3945.5722662570151442
 21
47.4376411388920118
 31
0.0
  0
ARC
  5
8D20
  8
0
 10
3945.7445151323809114
 20
47.5010807698814972
 30
0.0
 40
0.1695470458772144
 50
236.5439141971010883
 51
260.4537476443991864
  0
ARC
  5
8D21
  8
0
 10
3945.9346071225058949
 20
48.550378053170121
 30
0.0
 40
1.2359123547123629
 50
259.8306588126524161
 51
269.5593736763412949
  0
ARC
  5
8D22
  8
0
 10
3945.5129959932678503
 20
47.3181257815736132
 30
0.0
 40
0.2204549559866054
 50
107.2224720308711028
 51
124.1144833504106941
  0
ARC
  5
8D23
  8
0
 10
3945.4093604737499845
 20
47.4690644219895432
 30
0.0
 40
0.037383879035165
 50
122.3545998460814985
 51
172.6978325331230906
  0
ARC
  5
8D24
  8
0
 10
3945.434216709696102
 20
47.4816172104902279
 30
0.0
 40
0.0624262830904281
 50
187.1788431208273948
 51
202.0105801455434005
  0
ARC
  5
8D25
  8
0
 10
3945.4443681752381963
 20
47.4887885790119526
 30
0.0
 40
0.074579776398373
 50
204.1961132621007948
 51
239.8031846089621126
  0
ARC
  5
8D26
  8
0
 10
3945.6013782837098915
 20
47.7701579381844894
 30
0.0
 40
0.3967824002316802
 50
240.6431395432879867
 51
259.6636421117186728
  0
ARC
  5
8D27
  8
0
 10
3945.7926147103980838
 20
48.5852957561100283
 30
0.0
 40
1.2337154301149851
 50
257.718497354578119
 51
262.4829011334040274
  0
ARC
  5
8D28
  8
0
 10
3945.6752446820141813
 20
47.0845921293558121
 30
0.0
 40
0.4504414199357952
 50
98.1636281287260459
 51
116.7607894090319007
  0
ARC
  5
8D29
  8
0
 10
3945.4994891114010898
 20
47.4380178354088429
 30
0.0
 40
0.0557763948961599
 50
119.0260994574803988
 51
150.4032204148095104
  0
ARC
  5
8D2A
  8
0
 10
3945.4708799226009432
 20
47.4558449125060235
 30
0.0
 40
0.0221378919423339
 50
153.954262211113786
 51
213.520223781583212
  0
ARC
  5
8D2B
  8
0
 10
3945.5297294250199229
 20
47.5070073467677929
 30
0.0
 40
0.0999708071987169
 50
219.3504352792691918
 51
250.5911946388644935
  0
ARC
  5
8D2C
  8
0
 10
3945.7230543216660408
 20
48.0114996656066424
 30
0.0
 40
0.6402052944213646
 50
249.2761434423040043
 51
262.1496326462385014
  0
ARC
  5
8D2D
  8
0
 10
3945.5021830841919837
 20
47.4955927335331793
 30
0.0
 40
0.0593493435160913
 50
210.3939065149488101
 51
241.8384798398915905
  0
ARC
  5
8D2E
  8
0
 10
3945.6856628682307928
 20
47.8787146201624694
 30
0.0
 40
0.4840876908652277
 50
244.094755560116397
 51
262.336411204507101
  0
ARC
  5
8D2F
  8
0
 10
3945.6484023323050678
 20
47.6769959563340535
 30
0.0
 40
0.2656390237111041
 50
237.2058733618343069
 51
258.9884314902420783
  0
LINE
  5
8D30
  8
0
 10
3944.7833702808147791
 20
48.094075551692022
 30
0.0
 11
3944.7833702808147791
 21
48.1842986845420214
 31
0.0
  0
ARC
  5
8D31
  8
0
 10
3947.0068593738710661
 20
48.1833783289991828
 30
0.0
 40
0.0599825351028645
 50
0.8791653933861852
 51
89.120834606610515
  0
ARC
  5
8D32
  8
0
 10
3947.0077086919977774
 20
48.1055879519860525
 30
0.0
 40
0.0591261630380623
 50
270.0703697859526073
 51
359.9714861640140953
  0
ARC
  5
8D33
  8
0
 10
3946.9346966896541744
 20
47.7372022797146798
 30
0.0
 40
0.3093129485308508
 50
91.0476654160332828
 51
121.9357041032063051
  0
ARC
  5
8D34
  8
0
 10
3946.9659382942109005
 20
47.6637599485953913
 30
0.0
 40
0.3883609582496658
 50
120.1154920840007065
 51
130.6396891825044975
  0
ARC
  5
8D35
  8
0
 10
3947.177807623218996
 20
47.4313793980642586
 30
0.0
 40
0.7027496963910931
 50
131.4078386455427108
 51
176.0693734267669868
  0
ARC
  5
8D36
  8
0
 10
3946.4459071107121417
 20
47.4728069221328326
 30
0.0
 40
0.0315336493194567
 50
332.4486830017917782
 51
12.3508527857920196
  0
LINE
  5
8D37
  8
0
 10
3947.0668348477138352
 20
48.0914534526920221
 30
0.0
 11
3947.0668348477138352
 21
48.1842986845420214
 31
0.0
  0
LINE
  5
8D38
  8
0
 10
3947.0077797296139579
 20
48.243353802842023
 30
0.0
 11
3944.8424253989151111
 21
48.243353802842023
 31
0.0
  0
ARC
  5
8D39
  8
0
 10
3945.924668717941131
 20
46.477801299002067
 30
0.0
 40
0.9370995411722322
 50
90.2141894528042769
 51
92.6843692327992557
  0
ARC
  5
8D3A
  8
0
 10
3945.9249117209928954
 20
46.2097397246299124
 30
0.0
 40
1.2170310845429879
 50
90.1763634153342366
 51
92.7747049634604934
  0
ARC
  5
8D3B
  8
0
 10
3945.9107134777950705
 20
46.4502025515488697
 30
0.0
 40
0.97613532633732
 50
93.5197931087052439
 51
96.5367284246214155
  0
ARC
  5
8D3C
  8
0
 10
3945.9137123548839554
 20
46.6560613287169303
 30
0.0
 40
0.7584932104932367
 50
93.6391280190844384
 51
96.4780111902498305
  0
ARC
  5
8D3D
  8
0
 10
3945.8714826696341333
 20
46.7731854437013013
 30
0.0
 40
0.6507658265777688
 50
96.9470666612626104
 51
100.9013381394395026
  0
ARC
  5
8D3E
  8
0
 10
3945.8836956378809191
 20
46.9033102477664769
 30
0.0
 40
0.5094163295137755
 50
97.0334060723015739
 51
100.7357853937920993
  0
ARC
  5
8D3F
  8
0
 10
3945.8009610257090571
 20
47.1130813868795073
 30
0.0
 40
0.3035666680218078
 50
102.110127325005493
 51
108.672496298370902
  0
ARC
  5
8D40
  8
0
 10
3945.8278525460577839
 20
47.1724216043371172
 30
0.0
 40
0.2345064264047395
 50
102.3574403234106995
 51
108.5579932726924994
  0
ARC
  5
8D41
  8
0
 10
3945.7339259371719891
 20
47.3024907310335507
 30
0.0
 40
0.1025910108177142
 50
109.4086156493515034
 51
122.9210474415223047
  0
ARC
  5
8D42
  8
0
 10
3945.7765218721010569
 20
47.3173244923997274
 30
0.0
 40
0.080727081994371
 50
109.7216040584639956
 51
122.3346049536888955
  0
ARC
  5
8D43
  8
0
 10
3945.6850041338029769
 20
47.3711720369697673
 30
0.0
 40
0.0179655065621444
 50
127.3948894805231049
 51
171.02467362271409
  0
ARC
  5
8D44
  8
0
 10
3945.6850041348361628
 20
47.3751405032957109
 30
0.0
 40
0.0179655076788511
 50
188.9753278028202885
 51
232.6051090939438097
  0
ARC
  5
8D45
  8
0
 10
3945.7379042727829983
 20
47.3716803392254633
 30
0.0
 40
0.0137433952362719
 50
128.9313821392615864
 51
170.389379697829412
  0
ARC
  5
8D46
  8
0
 10
3945.737904272106789
 20
47.3746322000281523
 30
0.0
 40
0.0137433945031051
 50
189.6106191402232923
 51
231.0686190163785909
  0
ARC
  5
8D47
  8
0
 10
3945.7339259379218674
 20
47.4438218101436604
 30
0.0
 40
0.1025910125077406
 50
237.0789526703069043
 51
250.5913842388233945
  0
ARC
  5
8D48
  8
0
 10
3945.7765218702711536
 20
47.4289880437883085
 30
0.0
 40
0.0807270780860768
 50
237.6653948273998935
 51
250.2783963806031124
  0
ARC
  5
8D49
  8
0
 10
3945.8009610223189156
 20
47.6332311404545194
 30
0.0
 40
0.3035666552689068
 50
251.3275035636463031
 51
257.8898728129789788
  0
ARC
  5
8D4A
  8
0
 10
3945.8278525415371405
 20
47.5738909190409274
 30
0.0
 40
0.2345064095404037
 50
251.4420065090561138
 51
257.6425599058700868
  0
ARC
  5
8D4B
  8
0
 10
3945.8715090858918302
 20
47.9732953124230974
 30
0.0
 40
0.6509360032939577
 50
259.0991788292415094
 51
263.0524161179613998
  0
ARC
  5
8D4C
  8
0
 10
3945.8836786137790114
 20
47.8428933767525422
 30
0.0
 40
0.5093061495212737
 50
259.2638138196596174
 51
262.9669943705667947
  0
ARC
  5
8D4D
  8
0
 10
3945.7623780248368348
 20
47.3574990143299317
 30
0.0
 40
0.0360969667532707
 50
102.7755195170716007
 51
152.8428998845218132
  0
ARC
  5
8D4E
  8
0
 10
3945.7623780247090508
 20
47.3888135251545677
 30
0.0
 40
0.0360969665637433
 50
207.1570999749870055
 51
257.2244806234301109
  0
ARC
  5
8D4F
  8
0
 10
3945.8627059898822154
 20
47.0575425920718686
 30
0.0
 40
0.3523892646803863
 50
96.2615339395352834
 51
107.2287332204221002
  0
ARC
  5
8D50
  8
0
 10
3945.9226601626000956
 20
46.5759023284736386
 30
0.0
 40
0.8377652287204626
 50
90.1022179829947447
 51
96.2750594048289372
  0
ARC
  5
8D51
  8
0
 10
3945.9233376362158197
 20
46.8089170719424814
 30
0.0
 40
0.5928807294651115
 50
90.2099094769428547
 51
96.167367900417716
  0
ARC
  5
8D52
  8
0
 10
3945.923781689496991
 20
46.8276768496829874
 30
0.0
 40
0.5729023665826163
 50
89.8678998617239557
 51
96.130791488800412
  0
ARC
  5
8D53
  8
0
 10
3945.9245159834449623
 20
47.0849126008860068
 30
0.0
 40
0.3025688618824705
 50
89.8889223795982133
 51
95.7657231875647028
  0
ARC
  5
8D54
  8
0
 10
3945.8685196820679266
 20
47.224394483316928
 30
0.0
 40
0.1723276716629159
 50
94.0603973327824576
 51
110.8918894565870943
  0
ARC
  5
8D55
  8
0
 10
3945.8121997262601326
 20
47.3651479686219403
 30
0.0
 40
0.0208851194544396
 50
104.2277607265201027
 51
154.9987338887409862
  0
ARC
  5
8D56
  8
0
 10
3945.8820472940610671
 20
47.5852283319783709
 30
0.0
 40
0.2368526313481408
 50
251.4111879072428053
 51
263.6365253034124976
  0
ARC
  5
8D57
  8
0
 10
3945.8143510322552174
 20
47.3830531063722731
 30
0.0
 40
0.0236466282918513
 50
206.9457391028541906
 51
250.723863905368205
  0
ARC
  5
8D58
  8
0
 10
3945.8808508001511655
 20
47.1497518083484266
 30
0.0
 40
0.2493760295305478
 50
96.4530892756080505
 51
107.0371779073006024
  0
ARC
  5
8D59
  8
0
 10
3945.8097979809399476
 20
47.3620804425371702
 30
0.0
 40
0.0253925226576586
 50
103.5502334872342942
 51
152.0681857170538933
  0
ARC
  5
8D5A
  8
0
 10
3945.8097979804610986
 20
47.3842320964570405
 30
0.0
 40
0.025392521908196
 50
207.9318133995691937
 51
256.4497672164291089
  0
ARC
  5
8D5B
  8
0
 10
3945.8808508002498456
 20
47.5965607311454306
 30
0.0
 40
0.249376029410635
 50
252.9628220603528916
 51
263.5469106865548952
  0
ARC
  5
8D5C
  8
0
 10
3945.923781688813051
 20
47.918635658448153
 30
0.0
 40
0.5729023351712126
 50
263.869208242598404
 51
270.1321004539605042
  0
ARC
  5
8D5D
  8
0
 10
3945.927386287165973
 20
47.699603928311042
 30
0.0
 40
0.3408693459942427
 50
264.3993776734587868
 51
269.6161321077428283
  0
ARC
  5
8D5E
  8
0
 10
3945.8628168872728565
 20
47.6893033345654374
 30
0.0
 40
0.3529315687792861
 50
252.7797184763261953
 51
263.7300143637456813
  0
ARC
  5
8D5F
  8
0
 10
3945.9107255970197912
 20
48.2962477289410401
 30
0.0
 40
0.9762735513964972
 50
263.4634852001340164
 51
266.4799932665122242
  0
ARC
  5
8D60
  8
0
 10
3945.9137044477251948
 20
48.0901618834796807
 30
0.0
 40
0.7584035612780338
 50
263.5218209863505194
 51
266.3610398043186933
  0
ARC
  5
8D61
  8
0
 10
3945.9226601635327825
 20
48.1704102278220176
 30
0.0
 40
0.8377652454680102
 50
263.7249406569528105
 51
269.8977819552545725
  0
ARC
  5
8D62
  8
0
 10
3945.9249509903152102
 20
48.2796682143746096
 30
0.0
 40
0.9482575226997346
 50
267.3301660739929275
 51
269.7712752548900994
  0
ARC
  5
8D63
  8
0
 10
3945.9245121553772151
 20
48.5210608864347535
 30
0.0
 40
1.2015180511570169
 50
267.2085182430146801
 51
269.8404133462831851
  0
ARC
  5
8D64
  8
0
 10
3945.8888324650179129
 20
47.3322810180872366
 30
0.0
 40
0.0528733937084824
 50
91.6603482393019249
 51
127.9489292371746956
  0
ARC
  5
8D65
  8
0
 10
3945.8918160949970115
 20
47.335784446359277
 30
0.0
 40
0.0483076516801232
 50
91.8476878533522267
 51
127.7615896589939979
  0
ARC
  5
8D66
  8
0
 10
3945.9245837425291938
 20
47.1090441234490882
 30
0.0
 40
0.2772094313364686
 50
89.892765856458027
 51
95.694546489812609
  0
ARC
  5
8D67
  8
0
 10
3945.924983922123829
 20
47.2538288632160075
 30
0.0
 40
0.1250573126369475
 50
89.9456433400840041
 51
94.6370211891769344
  0
ARC
  5
8D68
  8
0
 10
3945.9097613057811031
 20
47.356875842214798
 30
0.0
 40
0.0208523960117465
 50
94.6941316733174858
 51
124.9151438133677061
  0
ARC
  5
8D69
  8
0
 10
3945.909761305084885
 20
47.3894366941233613
 30
0.0
 40
0.0208523927539049
 50
235.0848522731643016
 51
265.3058695125719169
  0
ARC
  5
8D6A
  8
0
 10
3945.9225432738849122
 20
47.4520035654787122
 30
0.0
 40
0.0845165630562919
 50
264.793599862681674
 51
271.7352672279993726
  0
ARC
  5
8D6B
  8
0
 10
3945.9245837406319879
 20
47.6372683772952783
 30
0.0
 40
0.2772093924347053
 50
264.3054531027332246
 51
270.1072345509663819
  0
ARC
  5
8D6C
  8
0
 10
3945.8918160957509826
 20
47.4105280949047625
 30
0.0
 40
0.0483076534178208
 50
232.2384108068613955
 51
268.1523113188375191
  0
ARC
  5
8D6D
  8
0
 10
3945.8894985229358099
 20
47.4175000245051024
 30
0.0
 40
0.0563625739615296
 50
233.2526800121005977
 51
267.7650025014706898
  0
LINE
  5
8D6E
  8
0
 10
3945.6740935922139215
 20
47.38544507127488
 30
0.0
 11
3945.7292680713139816
 21
47.3823713137748825
 31
0.0
  0
LINE
  5
8D6F
  8
0
 10
3945.6672586038148438
 20
47.3739748197748796
 30
0.0
 11
3945.7243537646140794
 21
47.3739748197748796
 31
0.0
  0
LINE
  5
8D70
  8
0
 10
3945.6672586038148438
 20
47.3723377198748707
 30
0.0
 11
3945.7243537646140794
 21
47.3723377198748707
 31
0.0
  0
LINE
  5
8D71
  8
0
 10
3945.6740935922139215
 20
47.3608674683748774
 30
0.0
 11
3945.7292680713139816
 21
47.363941225874882
 31
0.0
  0
LINE
  5
8D72
  8
0
 10
3945.6781694827141109
 20
47.3577048341748821
 30
0.0
 11
3945.7333439618141711
 21
47.3607785916748867
 31
0.0
  0
LINE
  5
8D73
  8
0
 10
3945.6998346404138829
 20
47.3470607679748809
 30
0.0
 11
3945.7492804999428699
 21
47.3529961436663029
 31
0.0
  0
LINE
  5
8D74
  8
0
 10
3945.703771648214115
 20
47.3456429978748687
 30
0.0
 11
3945.7532175079149965
 21
47.3515783735748812
 31
0.0
  0
LINE
  5
8D75
  8
0
 10
3945.7372753531149101
 20
47.3364200056748672
 30
0.0
 11
3945.7776658751090508
 21
47.344817667373789
 31
0.0
  0
LINE
  5
8D76
  8
0
 10
3945.7484108930148068
 20
47.3341047967748807
 30
0.0
 11
3945.7888014150148592
 21
47.3425024584748826
 31
0.0
  0
LINE
  5
8D77
  8
0
 10
3945.7927710352150825
 20
47.3271389847748694
 30
0.0
 11
3945.8213186156140182
 21
47.3374193570748005
 31
0.0
  0
LINE
  5
8D78
  8
0
 10
3945.7995901329140906
 20
47.3263204348748729
 30
0.0
 11
3945.8281377133148453
 21
47.3366008071748681
 31
0.0
  0
LINE
  5
8D79
  8
0
 10
3945.8310910542140846
 20
47.3376643453748684
 30
0.0
 11
3945.8596426026138033
 21
47.347946146574877
 31
0.0
  0
LINE
  5
8D7A
  8
0
 10
3945.8655692207139509
 20
47.3332874145748832
 30
0.0
 11
3945.8507852635148083
 21
47.3218159952748678
 31
0.0
  0
LINE
  5
8D7B
  8
0
 10
3945.8807806509771581
 20
47.3324399892464101
 30
0.0
 11
3945.8659966939139849
 21
47.3209685699748803
 31
0.0
  0
LINE
  5
8D7C
  8
0
 10
3945.9211655564140528
 20
47.3445187170748696
 30
0.0
 11
3945.9211655564140528
 21
47.3326463155748769
 31
0.0
  0
LINE
  5
8D7D
  8
0
 10
3945.9211655564140528
 20
47.3314182473748772
 30
0.0
 11
3945.9211655564140528
 21
47.3195474959748665
 31
0.0
  0
LINE
  5
8D7E
  8
0
 10
3945.8625966185140896
 20
47.3490099279748691
 30
0.0
 11
3945.8941195832148878
 21
47.3603617766748783
 31
0.0
  0
LINE
  5
8D7F
  8
0
 10
3945.9148739178149299
 20
47.3678356950748665
 30
0.0
 11
3945.8970776261148785
 21
47.3614270081748785
 31
0.0
  0
LINE
  5
8D80
  8
0
 10
3945.8622335902141458
 20
47.3739748197748796
 30
0.0
 11
3945.8978261736137938
 21
47.3739748197748796
 31
0.0
  0
LINE
  5
8D81
  8
0
 10
3945.8622335902141458
 20
47.3723377198748707
 30
0.0
 11
3945.8978261736137938
 21
47.3723377198748707
 31
0.0
  0
LINE
  5
8D82
  8
0
 10
3945.8902585284149609
 20
47.362245558074882
 30
0.0
 11
3945.9080548201141028
 21
47.36865424497487
 31
0.0
  0
LINE
  5
8D83
  8
0
 10
3945.8902585284149609
 20
47.3840669814748665
 30
0.0
 11
3945.9080548201141028
 21
47.3776582945748785
 31
0.0
  0
LINE
  5
8D84
  8
0
 10
3945.8970776261148785
 20
47.3848855314748789
 30
0.0
 11
3945.9148739178149299
 21
47.3784768445748696
 31
0.0
  0
LINE
  5
8D85
  8
0
 10
3945.8625966185140896
 20
47.397302611674867
 30
0.0
 11
3945.8941195832148878
 21
47.3859507629748791
 31
0.0
  0
LINE
  5
8D86
  8
0
 10
3945.8563175044141644
 20
47.3962896062298924
 30
0.0
 11
3945.887300485511787
 21
47.3851322129757691
 31
0.0
  0
LINE
  5
8D87
  8
0
 10
3945.7932715749147974
 20
47.3739748197748796
 30
0.0
 11
3945.8563175044141644
 21
47.3739748197748796
 31
0.0
  0
LINE
  5
8D88
  8
0
 10
3945.7932715749147974
 20
47.3723377198748707
 30
0.0
 11
3945.855777520814172
 21
47.3723377198748707
 31
0.0
  0
LINE
  5
8D89
  8
0
 10
3945.852823504862954
 20
47.3487646965566427
 30
0.0
 11
3945.824271956514167
 21
47.3384828953748809
 31
0.0
  0
LINE
  5
8D8A
  8
0
 10
3945.824271956514167
 20
47.3384828953748809
 30
0.0
 11
3945.824271956514167
 21
47.3536296922918325
 31
0.0
  0
LINE
  5
8D8B
  8
0
 10
3945.887300485511787
 20
47.3611803265739724
 30
0.0
 11
3945.8557956389508945
 21
47.3498350024625267
 31
0.0
  0
LINE
  5
8D8C
  8
0
 10
3945.8557956389508945
 20
47.3498350024625267
 30
0.0
 11
3945.855777520814172
 21
47.3723377198748707
 31
0.0
  0
LINE
  5
8D8D
  8
0
 10
3945.8563175044141644
 20
47.3962896062298924
 30
0.0
 11
3945.8563175044141644
 21
47.3739748197749009
 31
0.0
  0
LINE
  5
8D8E
  8
0
 10
3945.8310910542140846
 20
47.408648194174873
 30
0.0
 11
3945.8596426026138033
 21
47.3983663929748786
 31
0.0
  0
LINE
  5
8D8F
  8
0
 10
3945.8596426026138033
 20
47.3983663929748786
 30
0.0
 11
3945.8596426026138033
 21
47.4112940722600626
 31
0.0
  0
LINE
  5
8D90
  8
0
 10
3945.8659966939139849
 20
47.4253439695748824
 30
0.0
 11
3945.880780650997167
 21
47.4138725503795868
 31
0.0
  0
LINE
  5
8D91
  8
0
 10
3945.880780650997167
 20
47.4138725503795868
 30
0.0
 11
3945.8807806510149021
 21
47.4259704220744496
 31
0.0
  0
LINE
  5
8D92
  8
0
 10
3945.8507852635148083
 20
47.4244965443748683
 30
0.0
 11
3945.8655692207139509
 21
47.4130251250748813
 31
0.0
  0
LINE
  5
8D93
  8
0
 10
3945.7995901329140906
 20
47.4199921047748703
 30
0.0
 11
3945.8281377133148453
 21
47.409711732474868
 31
0.0
  0
LINE
  5
8D94
  8
0
 10
3945.8281377133148453
 20
47.409711732474868
 30
0.0
 11
3945.8281377133148453
 21
47.4228388753843433
 31
0.0
  0
LINE
  5
8D95
  8
0
 10
3945.9211655564140528
 20
47.4267650435748678
 30
0.0
 11
3945.9211655564140528
 21
47.4148942921748713
 31
0.0
  0
LINE
  5
8D96
  8
0
 10
3945.9211655564140528
 20
47.4136662239748787
 30
0.0
 11
3945.9211655564140528
 21
47.4017938225748665
 31
0.0
  0
LINE
  5
8D97
  8
0
 10
3945.7484108930148068
 20
47.4122077428748767
 30
0.0
 11
3945.7888014150148592
 21
47.4038100811748819
 31
0.0
  0
LINE
  5
8D98
  8
0
 10
3945.7888014150148592
 20
47.4038100811748819
 30
0.0
 11
3945.7888014150148592
 21
47.4186774817435577
 31
0.0
  0
LINE
  5
8D99
  8
0
 10
3945.7927710352150825
 20
47.4191735547748934
 30
0.0
 11
3945.8213186156140182
 21
47.4088931824749409
 31
0.0
  0
LINE
  5
8D9A
  8
0
 10
3945.824271956514167
 20
47.4078296442748766
 30
0.0
 11
3945.852823504862954
 21
47.3975478430931219
 31
0.0
  0
LINE
  5
8D9B
  8
0
 10
3945.758332844414781
 20
47.394120131974887
 30
0.0
 11
3945.8077855768137852
 21
47.3881839312748809
 31
0.0
  0
LINE
  5
8D9C
  8
0
 10
3945.8077855768137852
 20
47.3881839312748809
 30
0.0
 11
3945.8077855768137852
 21
47.4055032445748665
 31
0.0
  0
LINE
  5
8D9D
  8
0
 10
3945.7372753531149101
 20
47.3364200056748672
 30
0.0
 11
3945.7372753531149101
 21
47.3496647112626192
 31
0.0
  0
LINE
  5
8D9E
  8
0
 10
3945.8038485690149173
 20
47.3595463784748674
 30
0.0
 11
3945.7543958365149592
 21
47.3536101777748826
 31
0.0
  0
LINE
  5
8D9F
  8
0
 10
3945.7543958365149592
 20
47.3536101777748826
 30
0.0
 11
3945.7543958365149592
 21
47.3723377198748707
 31
0.0
  0
LINE
  5
8DA0
  8
0
 10
3945.7302604464148317
 20
47.3723377198748707
 30
0.0
 11
3945.7873635432138144
 21
47.3723377198748707
 31
0.0
  0
LINE
  5
8DA1
  8
0
 10
3945.7543958365149592
 20
47.3927023618748819
 30
0.0
 11
3945.8038485690149173
 21
47.3867661611748687
 31
0.0
  0
LINE
  5
8DA2
  8
0
 10
3945.7302604464148317
 20
47.3739748197748796
 30
0.0
 11
3945.7873635432138144
 21
47.3739748198162971
 31
0.0
  0
LINE
  5
8DA3
  8
0
 10
3945.7873635432138144
 20
47.3739748198162971
 30
0.0
 11
3945.7873635432138144
 21
47.3887449885748779
 31
0.0
  0
LINE
  5
8DA4
  8
0
 10
3945.6998346404138829
 20
47.3589117951114389
 30
0.0
 11
3945.6998346404138829
 21
47.3470607679748809
 31
0.0
  0
LINE
  5
8DA5
  8
0
 10
3945.6740935922139215
 20
47.3723377198748707
 30
0.0
 11
3945.6740935922139215
 21
47.3608674683748774
 31
0.0
  0
LINE
  5
8DA6
  8
0
 10
3945.7243537646140794
 20
47.3826450886672319
 30
0.0
 11
3945.7243537646140794
 21
47.3739748197759383
 31
0.0
  0
LINE
  5
8DA7
  8
0
 10
3945.6781694827141109
 20
47.3886077054748824
 30
0.0
 11
3945.7333439618068951
 21
47.3855339479753326
 31
0.0
  0
LINE
  5
8DA8
  8
0
 10
3945.7333439618068951
 20
47.3855339479753326
 30
0.0
 11
3945.7333439618141711
 21
47.3952293840748808
 31
0.0
  0
LINE
  5
8DA9
  8
0
 10
3945.6998346404138829
 20
47.3992517716748765
 30
0.0
 11
3945.7492804999428699
 21
47.3933163959834403
 31
0.0
  0
LINE
  5
8DAA
  8
0
 10
3945.703771648214115
 20
47.4006695417748674
 30
0.0
 11
3945.7532175079149965
 21
47.3947341660748833
 31
0.0
  0
LINE
  5
8DAB
  8
0
 10
3945.7532175079149965
 20
47.3947341660748833
 30
0.0
 11
3945.7532175079149965
 21
47.4065779735748833
 31
0.0
  0
LINE
  5
8DAC
  8
0
 10
3945.7372753531149101
 20
47.4098925339748831
 30
0.0
 11
3945.7776658751090508
 21
47.4014948722759613
 31
0.0
  0
LINE
  5
8DAD
  8
0
 10
3945.758332844414781
 20
47.3521924076748704
 30
0.0
 11
3945.8077855768137852
 21
47.3581286083748765
 31
0.0
  0
LINE
  5
8DAE
  8
0
 10
3945.7927710352150825
 20
47.3271389847748694
 30
0.0
 11
3945.7927710352150825
 21
47.3417660814475383
 31
0.0
  0
LINE
  5
8DAF
  8
0
 10
3945.8507852635148083
 20
47.3218159952748678
 30
0.0
 11
3945.8507852635148083
 21
47.3343728004561228
 31
0.0
  0
LINE
  5
8DB0
  8
0
 10
3945.8902585284149609
 20
47.362245558074882
 30
0.0
 11
3945.8902585284149609
 21
47.3723377198748707
 31
0.0
  0
LINE
  5
8DB1
  8
0
 10
3945.8978261738498077
 20
47.3739748201144835
 30
0.0
 11
3945.8978261736137938
 21
47.3813417694748935
 31
0.0
  0
LINE
  5
8DB2
  8
0
 10
3945.8941195832148878
 20
47.3859507629748791
 30
0.0
 11
3945.8941195832148878
 21
47.3998005770748776
 31
0.0
  0
LINE
  5
8DB3
  8
0
 10
3945.9148739178149299
 20
47.3784768445748696
 30
0.0
 11
3945.9148739178149299
 21
47.3860766041748676
 31
0.0
  0
ARC
  5
8DB4
  8
0
 10
3945.92333763525221
 20
47.9373954676019878
 30
0.0
 40
0.5928807293562967
 50
263.8326321921446151
 51
269.790090616178702
  0
ARC
  5
8DB5
  8
0
 10
3945.9255363707761717
 20
46.4778012989839269
 30
0.0
 40
0.9370995411722324
 50
87.3156283699237008
 51
89.7858081499009444
  0
ARC
  5
8DB6
  8
0
 10
3945.9252933565089734
 20
46.2097397246219188
 30
0.0
 40
1.2170310845429879
 50
87.2252926392388304
 51
89.8236341873764133
  0
ARC
  5
8DB7
  8
0
 10
3945.9394916097689929
 20
46.4502025509468126
 30
0.0
 40
0.9761353263373203
 50
83.4632691780967804
 51
86.4802044940021091
  0
ARC
  5
8DB8
  8
0
 10
3945.9364927412921134
 20
46.6560613282403693
 30
0.0
 40
0.7584932104932369
 50
83.5219864124602935
 51
86.3608695836238951
  0
ARC
  5
8DB9
  8
0
 10
3945.9787224314432024
 20
46.7731854414578123
 30
0.0
 40
0.6507658265777689
 50
79.0986594632730231
 51
83.0529309414463484
  0
ARC
  5
8DBA
  8
0
 10
3945.9665094686401972
 20
46.903310246033989
 30
0.0
 40
0.5094163295137756
 50
79.2642122089179111
 51
82.9665915303848038
  0
ARC
  5
8DBB
  8
0
 10
3946.0492440895900472
 20
47.1130813816853475
 30
0.0
 40
0.3035666680218079
 50
71.3275013043512729
 51
77.8898702777023431
  0
ARC
  5
8DBC
  8
0
 10
3946.0223525717228767
 20
47.1724216002681089
 30
0.0
 40
0.2345064264047396
 50
71.4420043300222289
 51
77.6425572793185808
  0
ARC
  5
8DBD
  8
0
 10
3946.1162791860510879
 20
47.3024907230346017
 30
0.0
 40
0.1025910108177142
 50
57.0789501611817371
 51
70.5913819533548264
  0
ARC
  5
8DBE
  8
0
 10
3946.0736832517432049
 20
47.3173244861830185
 30
0.0
 40
0.080727081994371
 50
57.6653926490098385
 51
70.2783935442347314
  0
ARC
  5
8DBF
  8
0
 10
3946.1652009922931938
 20
47.3711720269239009
 30
0.0
 40
0.0179655065621444
 50
8.9753239799896516
 51
52.6051081221824717
  0
ARC
  5
8DC0
  8
0
 10
3946.1652009914269001
 20
47.3751404932498303
 30
0.0
 40
0.0179655076788511
 50
307.3948885087619942
 51
351.0246697998870786
  0
ARC
  5
8DC1
  8
0
 10
3946.1123008533359098
 20
47.3716803313929731
 30
0.0
 40
0.0137433952362719
 50
9.6106179048772784
 51
51.0686154634530709
  0
ARC
  5
8DC2
  8
0
 10
3946.1123008541349009
 20
47.3746321921956621
 30
0.0
 40
0.0137433945031051
 50
308.9313785863362227
 51
350.389378462483478
  0
ARC
  5
8DC3
  8
0
 10
3946.1162791912138346
 20
47.44382180214469
 30
0.0
 40
0.1025910125077407
 50
289.408613363882921
 51
302.9210449324190222
  0
ARC
  5
8DC4
  8
0
 10
3946.0736832582451825
 20
47.4289880375715782
 30
0.0
 40
0.0807270780860768
 50
289.7216012220956145
 51
302.334602775320775
  0
ARC
  5
8DC5
  8
0
 10
3946.0492441147430327
 20
47.6332311352603597
 30
0.0
 40
0.3035666552689069
 50
282.1101247897287863
 51
288.6724940390511733
  0
ARC
  5
8DC6
  8
0
 10
3946.0223525930409778
 20
47.5738909149719191
 30
0.0
 40
0.2345064095404038
 50
282.3574376968338129
 51
288.5579910936339161
  0
ARC
  5
8DC7
  8
0
 10
3945.9786960653991628
 20
47.9732953101807098
 30
0.0
 40
0.6509360032939578
 50
276.947581484745001
 51
280.9008187734493731
  0
ARC
  5
8DC8
  8
0
 10
3945.9665265320550134
 20
47.8428933750193295
 30
0.0
 40
0.5093061495212737
 50
277.0330032321473936
 51
280.736183783047295
  0
ARC
  5
8DC9
  8
0
 10
3946.0878271006881732
 20
47.3574990075214188
 30
0.0
 40
0.0360969667532707
 50
27.15709771819267
 51
77.2244780856557327
  0
ARC
  5
8DCA
  8
0
 10
3946.0878271021269939
 20
47.3888135183460619
 30
0.0
 40
0.0360969665637433
 50
282.775516979271913
 51
332.8428976277156153
  0
ARC
  5
8DCB
  8
0
 10
3945.98749912309313
 20
47.057542589461157
 30
0.0
 40
0.3523892646803864
 50
72.7712643822884218
 51
83.7384636631636852
  0
ARC
  5
8DCC
  8
0
 10
3945.9275449302231209
 20
46.5759023283714484
 30
0.0
 40
0.8377652287204627
 50
83.7249381978862743
 51
89.8977796197234511
  0
ARC
  5
8DCD
  8
0
 10
3945.9268674663558158
 20
46.8089170718686489
 30
0.0
 40
0.5928807294651115
 50
83.8326297022908165
 51
89.7900881257630488
  0
ARC
  5
8DCE
  8
0
 10
3945.9264234138599932
 20
46.8276768496277285
 30
0.0
 40
0.5729023665826164
 50
83.869206113915638
 51
90.1320977409916537
  0
ARC
  5
8DCF
  8
0
 10
3945.9256891306749822
 20
47.0849126008614718
 30
0.0
 40
0.3025688618824706
 50
84.2342744151449665
 51
90.1110752230932093
  0
ARC
  5
8DD0
  8
0
 10
3945.9816854378868811
 20
47.2243944809494494
 30
0.0
 40
0.1723276716629159
 50
69.1081081461313858
 51
85.9396002699149619
  0
ARC
  5
8DD1
  8
0
 10
3946.0380053995850176
 20
47.3651479638980035
 30
0.0
 40
0.0208851194544396
 50
25.0012637139696494
 51
75.7722368761954499
  0
ARC
  5
8DD2
  8
0
 10
3945.9681578409931717
 20
47.5852283301769035
 30
0.0
 40
0.2368526313481409
 50
276.3634722993123205
 51
288.588809695477778
  0
ARC
  5
8DD3
  8
0
 10
3946.0358540943389016
 20
47.3830531017383478
 30
0.0
 40
0.0236466282918513
 50
289.2761336973496782
 51
333.0542584998569851
  0
ARC
  5
8DD4
  8
0
 10
3945.9693543166818017
 20
47.1497518064969228
 30
0.0
 40
0.2493760295305479
 50
72.9628196954004267
 51
83.5469083270893549
  0
ARC
  5
8DD5
  8
0
 10
3946.0404071447769638
 20
47.3620804377127627
 30
0.0
 40
0.0253925226576586
 50
27.9318118856494912
 51
76.4497641154601553
  0
ARC
  5
8DD6
  8
0
 10
3946.0404071461830426
 20
47.3842320916326187
 30
0.0
 40
0.025392521908196
 50
283.5502303862654117
 51
332.0681842031341944
  0
ARC
  5
8DD7
  8
0
 10
3945.9693543352768756
 20
47.5965607292938984
 30
0.0
 40
0.249376029410635
 50
276.4530869161424107
 51
287.0371755423482227
  0
ARC
  5
8DD8
  8
0
 10
3945.9264234601910175
 20
47.9186356583928799
 30
0.0
 40
0.5729023351712127
 50
269.8678971487291278
 51
276.1307893601176033
  0
ARC
  5
8DD9
  8
0
 10
3945.9228188526731174
 20
47.6996039284066029
 30
0.0
 40
0.3408693459942428
 50
270.3838654949774991
 51
275.6006199292575047
  0
ARC
  5
8DDA
  8
0
 10
3945.9873882521351334
 20
47.6893033319593371
 30
0.0
 40
0.3529315687792862
 50
276.2699832389666881
 51
287.2202791263849235
  0
ARC
  5
8DDB
  8
0
 10
3945.9394795677831098
 20
48.2962477283395089
 30
0.0
 40
0.9762735513964974
 50
273.5200043361945745
 51
276.5365124025594241
  0
ARC
  5
8DDC
  8
0
 10
3945.9365007084561512
 20
48.0901618830027573
 30
0.0
 40
0.7584035612780341
 50
273.6389577983899812
 51
276.4781766163587804
  0
ARC
  5
8DDD
  8
0
 10
3945.9275449960050537
 20
48.1704102277198274
 30
0.0
 40
0.8377652454680105
 50
270.1022156474635949
 51
276.275056945762401
  0
ARC
  5
8DDE
  8
0
 10
3945.9252541737951105
 20
48.2796682143682716
 30
0.0
 40
0.9482575226997347
 50
270.2287223478127771
 51
272.6698315287064247
  0
ARC
  5
8DDF
  8
0
 10
3945.9256930188321348
 20
48.5210608864100479
 30
0.0
 40
1.2015180511570169
 50
270.1595842564294117
 51
272.7914793596764866
  0
ARC
  5
8DE0
  8
0
 10
3945.9613726594511718
 20
47.3322810165696595
 30
0.0
 40
0.0528733937084824
 50
52.051068365536878
 51
88.3396493634036517
  0
ARC
  5
8DE1
  8
0
 10
3945.9583890296189566
 20
47.3357844449665635
 30
0.0
 40
0.0483076516801232
 50
52.2384079437300102
 51
88.1523097493479355
  0
ARC
  5
8DE2
  8
0
 10
3945.925621372599835
 20
47.1090441234273669
 30
0.0
 40
0.2772094313364687
 50
84.3054511128817978
 51
90.1072317462337224
  0
ARC
  5
8DE3
  8
0
 10
3945.9252211990637988
 20
47.2538288632110621
 30
0.0
 40
0.1250573126369475
 50
85.3629764135409062
 51
90.0543542626108859
  0
ARC
  5
8DE4
  8
0
 10
3945.9404438197170748
 20
47.3568758415729079
 30
0.0
 40
0.0208523960117465
 50
55.0848537893410608
 51
85.305865929388446
  0
ARC
  5
8DE5
  8
0
 10
3945.9404438217761708
 20
47.3894366934814713
 30
0.0
 40
0.0208523927539049
 50
274.6941280901339724
 51
304.915145329544373
  0
ARC
  5
8DE6
  8
0
 10
3945.9276618555950336
 20
47.4520035653716334
 30
0.0
 40
0.0845165630562919
 50
268.2647303747174874
 51
275.2063977400246131
  0
ARC
  5
8DE7
  8
0
 10
3945.9256213965991265
 20
47.637268377273557
 30
0.0
 40
0.2772093924347054
 50
269.8927630517254102
 51
275.6945444999611823
  0
ARC
  5
8DE8
  8
0
 10
3945.9583890319931925
 20
47.4105280935120206
 30
0.0
 40
0.0483076534178208
 50
271.8476862838625721
 51
307.7615867958419926
  0
ARC
  5
8DE9
  8
0
 10
3945.9607066050998583
 20
47.4175000230153998
 30
0.0
 40
0.0563625739615297
 50
272.2349951012515135
 51
306.747317590602222
  0
LINE
  5
8DEA
  8
0
 10
3946.1761115344797872
 20
47.38544506077249
 30
0.0
 11
3946.1209370552510336
 21
47.3823713055810316
 31
0.0
  0
LINE
  5
8DEB
  8
0
 10
3946.182946522400016
 20
47.3739748089865174
 30
0.0
 11
3946.1258513615998709
 21
47.3739748113754118
 31
0.0
  0
LINE
  5
8DEC
  8
0
 10
3946.1829465223318039
 20
47.3723377090865228
 30
0.0
 11
3946.125851361531204
 21
47.3723377114754172
 31
0.0
  0
LINE
  5
8DED
  8
0
 10
3946.1761115334511487
 20
47.3608674578724873
 30
0.0
 11
3946.1209370544797821
 21
47.3639412176810168
 31
0.0
  0
LINE
  5
8DEE
  8
0
 10
3946.1720356428199921
 20
47.3577048238430294
 30
0.0
 11
3946.1168611638481707
 21
47.3607785836515802
 31
0.0
  0
LINE
  5
8DEF
  8
0
 10
3946.1503704846732035
 20
47.3470607585495102
 30
0.0
 11
3946.1009246253938727
 21
47.3529961363097982
 31
0.0
  0
LINE
  5
8DF0
  8
0
 10
3946.1464334768152185
 20
47.3456429886142374
 30
0.0
 11
3946.0969876173630837
 21
47.3515783663830874
 31
0.0
  0
LINE
  5
8DF1
  8
0
 10
3946.1129297715278881
 20
47.3364199978160585
 30
0.0
 11
3946.0725392498848123
 21
47.3448176612049423
 31
0.0
  0
LINE
  5
8DF2
  8
0
 10
3946.1017942315320397
 20
47.334104789381982
 30
0.0
 11
3946.0614037098830522
 21
47.3425024527719529
 31
0.0
  0
LINE
  5
8DF3
  8
0
 10
3946.0574340890398162
 20
47.3271389792380432
 30
0.0
 11
3946.0288865090710715
 21
47.3374193527324323
 31
0.0
  0
LINE
  5
8DF4
  8
0
 10
3946.0506149913057925
 20
47.3263204296233511
 30
0.0
 11
3946.0220674113370478
 21
47.3366008031177969
 31
0.0
  0
LINE
  5
8DF5
  8
0
 10
3946.0191140704810095
 20
47.337664341441382
 30
0.0
 11
3945.9905625225101176
 21
47.3479461438359905
 31
0.0
  0
LINE
  5
8DF6
  8
0
 10
3945.98463590379788
 20
47.333287412083962
 30
0.0
 11
3945.9994198605181737
 21
47.3218159921653978
 31
0.0
  0
LINE
  5
8DF7
  8
0
 10
3945.9694244734992026
 20
47.3324399873919504
 30
0.0
 11
3945.9842084300821625
 21
47.3209685675018434
 31
0.0
  0
LINE
  5
8DF8
  8
0
 10
3945.9290395685670774
 20
47.3445187169101587
 30
0.0
 11
3945.929039568070948
 21
47.3326463154101589
 31
0.0
  0
LINE
  5
8DF9
  8
0
 10
3945.9290395680191068
 20
47.3314182472101521
 30
0.0
 11
3945.9290395675229774
 21
47.3195474958101485
 31
0.0
  0
LINE
  5
8DFA
  8
0
 10
3945.9876085066548512
 20
47.3490099253595886
 30
0.0
 11
3945.9560855424301735
 21
47.3603617753785429
 31
0.0
  0
LINE
  5
8DFB
  8
0
 10
3945.9353312081429976
 20
47.3678356946469066
 30
0.0
 11
3945.9531274995752028
 21
47.3614270070022982
 31
0.0
  0
LINE
  5
8DFC
  8
0
 10
3945.9879715359998045
 20
47.3739748171444006
 30
0.0
 11
3945.9523789526001565
 21
47.3739748186336129
 31
0.0
  0
LINE
  5
8DFD
  8
0
 10
3945.9879715359311376
 20
47.3723377172443989
 30
0.0
 11
3945.9523789525319444
 21
47.3723377187336183
 31
0.0
  0
LINE
  5
8DFE
  8
0
 10
3945.9599465973092265
 20
47.3622455566169833
 30
0.0
 11
3945.9421503058770213
 21
47.3686542442615774
 31
0.0
  0
LINE
  5
8DFF
  8
0
 10
3945.9599465982219044
 20
47.384066980016982
 30
0.0
 11
3945.9421503062549164
 21
47.3776582938615789
 31
0.0
  0
LINE
  5
8E00
  8
0
 10
3945.9531275005560929
 20
47.3848855303022916
 30
0.0
 11
3945.9353312085881953
 21
47.3784768441469026
 31
0.0
  0
LINE
  5
8E01
  8
0
 10
3945.9876085086762032
 20
47.3973026090595866
 30
0.0
 11
3945.9560855435011035
 21
47.3859507616785294
 31
0.0
  0
LINE
  5
8E02
  8
0
 10
3945.9938876227338369
 20
47.3962896033518817
 30
0.0
 11
3945.9629046411691888
 21
47.3851322113941222
 31
0.0
  0
LINE
  5
8E03
  8
0
 10
3946.0569335513000624
 20
47.3739748142589789
 30
0.0
 11
3945.9938876217997858
 21
47.3739748168968475
 31
0.0
  0
LINE
  5
8E04
  8
0
 10
3946.0569335512318503
 20
47.3723377143589772
 30
0.0
 11
3945.9944276053311114
 21
47.3723377169742719
 31
0.0
  0
LINE
  5
8E05
  8
0
 10
3945.9973816202959824
 20
47.348764693532452
 30
0.0
 11
3946.0259331682150332
 21
47.3384828911560618
 31
0.0
  0
LINE
  5
8E06
  8
0
 10
3946.0259331682150332
 20
47.3384828911560618
 30
0.0
 11
3946.0259331688512248
 21
47.3536878414780205
 31
0.0
  0
LINE
  5
8E07
  8
0
 10
3945.9629046401669257
 20
47.3611803249923184
 30
0.0
 11
3945.9944094862530619
 21
47.349834999562681
 31
0.0
  0
LINE
  5
8E08
  8
0
 10
3945.9944094862530619
 20
47.349834999562681
 30
0.0
 11
3945.9944276053311114
 21
47.3723377169742719
 31
0.0
  0
LINE
  5
8E09
  8
0
 10
3945.9938876227338369
 20
47.3962896033518817
 30
0.0
 11
3945.9938876217997858
 21
47.3739748168968902
 31
0.0
  0
LINE
  5
8E0A
  8
0
 10
3946.0191140734509645
 20
47.4086481902413794
 30
0.0
 11
3945.9905625246201453
 21
47.3983663902359922
 31
0.0
  0
LINE
  5
8E0B
  8
0
 10
3945.9905625246201453
 20
47.3983663902359922
 30
0.0
 11
3945.9905625251622041
 21
47.411294069521162
 31
0.0
  0
LINE
  5
8E0C
  8
0
 10
3945.9842084344491013
 20
47.4253439671018526
 30
0.0
 11
3945.9694244768870703
 21
47.4138725485251271
 31
0.0
  0
LINE
  5
8E0D
  8
0
 10
3945.9694244768870703
 20
47.4138725485251271
 30
0.0
 11
3945.9694244773759237
 21
47.425970420219997
 31
0.0
  0
LINE
  5
8E0E
  8
0
 10
3945.9994198648141719
 20
47.4244965412653983
 30
0.0
 11
3945.9846359071339066
 21
47.413025122583953
 31
0.0
  0
LINE
  5
8E0F
  8
0
 10
3946.0506149952248052
 20
47.4199920995233484
 30
0.0
 11
3946.0220674143952238
 21
47.4097117284177969
 31
0.0
  0
LINE
  5
8E10
  8
0
 10
3946.0220674143952238
 20
47.4097117284177969
 30
0.0
 11
3946.0220674149441038
 21
47.4228388713272579
 31
0.0
  0
LINE
  5
8E11
  8
0
 10
3945.9290395720090601
 20
47.4267650434101498
 30
0.0
 11
3945.9290395715120212
 21
47.4148942920101391
 31
0.0
  0
LINE
  5
8E12
  8
0
 10
3945.9290395714610895
 20
47.4136662238101465
 30
0.0
 11
3945.9290395709640507
 21
47.4017938224101627
 31
0.0
  0
LINE
  5
8E13
  8
0
 10
3946.1017942347989447
 20
47.4122077354819922
 30
0.0
 11
3946.0614037124478273
 21
47.4038100754719522
 31
0.0
  0
LINE
  5
8E14
  8
0
 10
3946.0614037124478273
 20
47.4038100754719522
 30
0.0
 11
3946.0614037130699217
 21
47.4186774760406209
 31
0.0
  0
LINE
  5
8E15
  8
0
 10
3946.057434092891981
 20
47.4191735492380388
 30
0.0
 11
3946.0288865120610353
 21
47.4088931781325513
 31
0.0
  0
LINE
  5
8E16
  8
0
 10
3946.0259331711158666
 20
47.4078296400560575
 30
0.0
 11
3945.9973816223368885
 21
47.3975478400689028
 31
0.0
  0
LINE
  5
8E17
  8
0
 10
3946.0918722826431804
 20
47.39412012499713
 30
0.0
 11
3946.0424195499940652
 21
47.3881839263662599
 31
0.0
  0
LINE
  5
8E18
  8
0
 10
3946.0424195499940652
 20
47.3881839263662599
 30
0.0
 11
3946.0424195507189324
 21
47.4055032396662526
 31
0.0
  0
LINE
  5
8E19
  8
0
 10
3946.1129297715278881
 20
47.3364199978160585
 30
0.0
 11
3946.1129297720831346
 21
47.3496647034038034
 31
0.0
  0
LINE
  5
8E1A
  8
0
 10
3946.046356556596038
 20
47.3595463734015212
 30
0.0
 11
3946.0958092888481588
 21
47.3536101706323933
 31
0.0
  0
LINE
  5
8E1B
  8
0
 10
3946.0958092888481588
 20
47.3536101706323933
 30
0.0
 11
3946.0958092896307789
 21
47.3723377127324028
 31
0.0
  0
LINE
  5
8E1C
  8
0
 10
3946.119944679731816
 20
47.372337711722551
 30
0.0
 11
3946.0628415829310143
 21
47.3723377141117865
 31
0.0
  0
LINE
  5
8E1D
  8
0
 10
3946.0958092904829755
 20
47.3927023547323927
 30
0.0
 11
3946.0463565577351801
 21
47.3867661561015225
 31
0.0
  0
LINE
  5
8E1E
  8
0
 10
3946.1199446798000281
 20
47.3739748116225599
 30
0.0
 11
3946.0628415830001359
 21
47.3739748140531916
 31
0.0
  0
LINE
  5
8E1F
  8
0
 10
3946.0628415830001359
 20
47.3739748140531916
 30
0.0
 11
3946.0628415836181375
 21
47.3887449828117866
 31
0.0
  0
LINE
  5
8E20
  8
0
 10
3946.1503704851688781
 20
47.3589117856860895
 30
0.0
 11
3946.1503704846732035
 21
47.3470607585495102
 31
0.0
  0
LINE
  5
8E21
  8
0
 10
3946.1761115339318167
 20
47.372337709372502
 30
0.0
 11
3946.1761115334511487
 21
47.3608674578724873
 31
0.0
  0
LINE
  5
8E22
  8
0
 10
3946.1258513619618498
 20
47.3826450802677783
 30
0.0
 11
3946.1258513615998709
 21
47.3739748113764776
 31
0.0
  0
LINE
  5
8E23
  8
0
 10
3946.1720356441119293
 20
47.3886076951430297
 30
0.0
 11
3946.1168611648918159
 21
47.3855339399520332
 31
0.0
  0
LINE
  5
8E24
  8
0
 10
3946.1168611648918159
 20
47.3855339399520332
 30
0.0
 11
3946.1168611652888103
 21
47.3952293760515673
 31
0.0
  0
LINE
  5
8E25
  8
0
 10
3946.1503704868578097
 20
47.39925176224952
 30
0.0
 11
3946.1009246270809854
 21
47.3933163886269426
 31
0.0
  0
LINE
  5
8E26
  8
0
 10
3946.1464334791171495
 20
47.4006695325142431
 30
0.0
 11
3946.0969876191688854
 21
47.3947341588830895
 31
0.0
  0
LINE
  5
8E27
  8
0
 10
3946.0969876191688854
 20
47.3947341588830895
 30
0.0
 11
3946.0969876196641053
 21
47.4065779663830895
 31
0.0
  0
LINE
  5
8E28
  8
0
 10
3946.1129297746028897
 20
47.4098925261160673
 30
0.0
 11
3946.072539252255865
 21
47.4014948661071074
 31
0.0
  0
LINE
  5
8E29
  8
0
 10
3946.0918722808878556
 20
47.3521924006971204
 30
0.0
 11
3946.0424195487371435
 21
47.3581286034662625
 31
0.0
  0
LINE
  5
8E2A
  8
0
 10
3946.0574340890398162
 20
47.3271389792380432
 30
0.0
 11
3946.0574340896519061
 21
47.341766075910698
 31
0.0
  0
LINE
  5
8E2B
  8
0
 10
3945.9994198605181737
 20
47.3218159921653978
 30
0.0
 11
3945.9994198610429521
 21
47.3343727973466528
 31
0.0
  0
LINE
  5
8E2C
  8
0
 10
3945.9599465973092265
 20
47.3622455566169833
 30
0.0
 11
3945.9599465977307773
 21
47.3723377184169792
 31
0.0
  0
LINE
  5
8E2D
  8
0
 10
3945.9523789523650521
 20
47.3739748189732168
 30
0.0
 11
3945.9523789529080204
 21
47.3813417683336127
 31
0.0
  0
LINE
  5
8E2E
  8
0
 10
3945.9560855435011035
 20
47.3859507616785294
 30
0.0
 11
3945.9560855440809064
 21
47.3998005757785208
 31
0.0
  0
LINE
  5
8E2F
  8
0
 10
3945.9353312085881953
 20
47.3784768441469026
 30
0.0
 11
3945.9353312089060637
 21
47.3860766037469006
 31
0.0
  0
ARC
  5
8E30
  8
0
 10
3945.9268675145358429
 20
47.9373954675281269
 30
0.0
 40
0.5928807293562968
 50
270.2099069865273009
 51
276.1673654105638889
  0
LINE
  5
8E31
  8
0
 10
3947.0077813098141633
 20
48.0464618335420184
 30
0.0
 11
3944.84170582814113
 21
48.0464618335420184
 31
0.0
  0
ARC
  5
8E32
  8
0
 10
3945.5030747323908145
 20
47.4918886567111187
 30
0.0
 40
0.0310702007378018
 50
189.4475540977117021
 51
231.4177571593905043
  0
ARC
  5
8E33
  8
0
 10
3945.5497118430548653
 20
47.5439190017590079
 30
0.0
 40
0.1009073448453572
 50
229.1409347754380974
 51
243.3979168890693074
  0
ARC
  5
8E34
  8
0
 10
3945.8912314833592063
 20
45.8041564165363795
 30
0.0
 40
1.780656234387306
 50
88.9100720601347376
 51
104.4224977047392997
  0
ARC
  5
8E35
  8
0
 10
3945.8750036525880205
 20
46.0117385046264502
 30
0.0
 40
1.5414576448655961
 50
93.8003990254384945
 51
99.8509709176324236
  0
ARC
  5
8E36
  8
0
 10
3945.9236991637558276
 20
45.3600178435671211
 30
0.0
 40
2.1949793787699008
 50
89.9633668864858862
 51
93.941142705552906
  0
ARC
  5
8E37
  8
0
 10
3945.8110407782901348
 20
46.8528709867030031
 30
0.0
 40
0.6917010243895101
 50
96.7952542121359727
 51
105.706816830892393
  0
ARC
  5
8E38
  8
0
 10
3945.9193686382159285
 20
46.0123623144955403
 30
0.0
 40
1.539144324913263
 50
89.7865498937455158
 51
97.0973967293160882
  0
ARC
  5
8E39
  8
0
 10
3945.8009114448750552
 20
46.9136244906771793
 30
0.0
 40
0.5963576461841166
 50
97.8377784041360883
 51
107.5991223877737042
  0
ARC
  5
8E3A
  8
0
 10
3945.9338869926650659
 20
45.8355268642540068
 30
0.0
 40
1.6825869842303769
 50
90.2991303538522203
 51
97.3172640156708013
  0
ARC
  5
8E3B
  8
0
 10
3945.6896330332679099
 20
47.3541588864314775
 30
0.0
 40
0.1316258541686785
 50
105.4281187131702069
 51
127.345583962404703
  0
ARC
  5
8E3C
  8
0
 10
3945.8618014250978376
 20
46.7194948872411899
 30
0.0
 40
0.7892267731163173
 50
94.320173603554295
 51
105.2194097793150007
  0
ARC
  5
8E3D
  8
0
 10
3945.9233551439779148
 20
46.0570212115100972
 30
0.0
 40
1.454500238850831
 50
89.9311653791692009
 51
94.772194343877473
  0
ARC
  5
8E3E
  8
0
 10
3945.5174788657068348
 20
47.4737658729761307
 30
0.0
 40
0.0254877455612664
 50
135.5973697121484065
 51
176.7584259479394859
  0
ARC
  5
8E3F
  8
0
 10
3945.5582306596388662
 20
47.4344191662514305
 30
0.0
 40
0.0821342074116718
 50
115.9689047776865038
 51
135.878488410324195
  0
ARC
  5
8E40
  8
0
 10
3945.521559376093137
 20
47.4779712597615813
 30
0.0
 40
0.0296565739047687
 50
185.3480478649809982
 51
234.9464865965967988
  0
LINE
  5
8E41
  8
0
 10
3945.49203169811517
 20
47.4960899730005082
 30
0.0
 11
3945.4920319006141654
 21
47.4752071020920425
 31
0.0
  0
ARC
  5
8E42
  8
0
 10
3946.0575357171951509
 20
47.4984812000864167
 30
0.0
 40
0.1983433513540133
 50
329.8802537136696174
 51
343.5913367058922745
  0
ARC
  5
8E43
  8
0
 10
3946.0611862901710083
 20
47.4957235002246279
 30
0.0
 40
0.1938026361428307
 50
315.3924586170554107
 51
330.0438791343411822
  0
ARC
  5
8E44
  8
0
 10
3945.9999473400398529
 20
48.9825588159412106
 30
0.0
 40
1.635113523682262
 50
276.9980000720170779
 51
277.6985030607086742
  0
ARC
  5
8E45
  8
0
 10
3946.268063354295009
 20
47.4747220383289132
 30
0.0
 40
0.0234413145584899
 50
345.4371584076270096
 51
63.315646008055289
  0
ARC
  5
8E46
  8
0
 10
3946.1803521207771155
 20
47.3440841141880711
 30
0.0
 40
0.1806322701938613
 50
57.0534036731187797
 51
75.2248295832423537
  0
ARC
  5
8E47
  8
0
 10
3946.2568811094151897
 20
47.447115596716273
 30
0.0
 40
0.0230910067096065
 50
324.4311551827311177
 51
335.7757811579535883
  0
ARC
  5
8E48
  8
0
 10
3946.2610039666219564
 20
47.4445585489824708
 30
0.0
 40
0.0182932094049779
 50
337.7814976815940895
 51
48.934684961278478
  0
ARC
  5
8E49
  8
0
 10
3946.1966983239331057
 20
47.3702419136040405
 30
0.0
 40
0.1165691487525521
 50
49.0998575149332268
 51
73.6025874743596944
  0
ARC
  5
8E4A
  8
0
 10
3946.2024993481709316
 20
47.5069675242939127
 30
0.0
 40
0.1035543405909181
 50
287.8503830408055819
 51
314.9533884711653968
  0
LINE
  5
8E4B
  8
0
 10
3946.2907515566880647
 20
47.4688279140998617
 30
0.0
 11
3946.2779388781877969
 21
47.4376411592572467
 31
0.0
  0
ARC
  5
8E4C
  8
0
 10
3946.1056899991608589
 20
47.5010807803047825
 30
0.0
 40
0.1695470458772144
 50
279.5462556626357014
 51
303.4560891099268929
  0
ARC
  5
8E4D
  8
0
 10
3945.911264400690925
 20
48.5970480997475107
 30
0.0
 40
1.282620506501841
 50
270.6181755802130056
 51
279.9917994786637792
  0
ARC
  5
8E4E
  8
0
 10
3946.3372091488331534
 20
47.3181258053598484
 30
0.0
 40
0.2204549559866054
 50
55.8855199566181327
 51
72.7775312761478972
  0
ARC
  5
8E4F
  8
0
 10
3946.4409562228211144
 20
47.4691762472614016
 30
0.0
 40
0.0372297515576439
 50
16.1821691126283511
 51
57.6983674721234507
  0
ARC
  5
8E50
  8
0
 10
3946.4058369570120703
 20
47.488788606759293
 30
0.0
 40
0.0745797763983729
 50
300.1968186980654991
 51
335.8038900449291191
  0
ARC
  5
8E51
  8
0
 10
3946.2488268323008924
 20
47.7701579568694186
 30
0.0
 40
0.3967824002316802
 50
280.3363611953204213
 51
299.3568637637380903
  0
ARC
  5
8E52
  8
0
 10
3946.057590358563175
 20
48.5852957637570526
 30
0.0
 40
1.2337154301149851
 50
277.5171021736351236
 51
282.2815059524597245
  0
ARC
  5
8E53
  8
0
 10
3946.1749604735659887
 20
47.0845921437772716
 30
0.0
 40
0.4504414199357951
 50
63.2392138979964216
 51
81.8363751783226263
  0
ARC
  5
8E54
  8
0
 10
3946.350716023779114
 20
47.4380178599746714
 30
0.0
 40
0.0557763948961599
 50
29.5967828922231604
 51
60.9739038495601022
  0
ARC
  5
8E55
  8
0
 10
3946.3793252115510768
 20
47.4558449387231391
 30
0.0
 40
0.0221378919423339
 50
326.4797795254552284
 51
26.0457410959194711
  0
ARC
  5
8E56
  8
0
 10
3946.3204757061789678
 20
47.5070073695881874
 30
0.0
 40
0.0999708071987169
 50
289.4088086681526875
 51
320.6495680277812994
  0
ARC
  5
8E57
  8
0
 10
3946.1271507804140128
 20
48.0114996772685885
 30
0.0
 40
0.6402052944213645
 50
277.8503706607930894
 51
290.7238598647256822
  0
ARC
  5
8E58
  8
0
 10
3946.3480220476649265
 20
47.4955927579435269
 30
0.0
 40
0.0593493435160913
 50
298.1615234671572807
 51
329.6060967920798248
  0
ARC
  5
8E59
  8
0
 10
3946.1645422415131179
 20
47.8787146339825966
 30
0.0
 40
0.4840876908652277
 50
277.6635921025284119
 51
295.9052477469189171
  0
ARC
  5
8E5A
  8
0
 10
3946.2018027890821941
 20
47.6769959723048089
 30
0.0
 40
0.265639023711104
 50
281.0115718167982095
 51
302.7941299452078283
  0
ARC
  5
8E5B
  8
0
 10
3946.3471303996811912
 20
47.4918886810700016
 30
0.0
 40
0.0310702007378018
 50
308.5822461476495278
 51
350.5524492093235267
  0
ARC
  5
8E5C
  8
0
 10
3946.3004932860130793
 20
47.5439190234260565
 30
0.0
 40
0.1009073448453572
 50
296.6020864179621981
 51
310.8590685316011104
  0
ARC
  5
8E5D
  8
0
 10
3945.9589737461251389
 20
45.8041564184913668
 30
0.0
 40
1.7806562343873049
 50
75.5775056022785066
 51
91.0899312468823439
  0
ARC
  5
8E5E
  8
0
 10
3945.9752015649150962
 20
46.0117385075180891
 30
0.0
 40
1.5414576448655961
 50
80.1490323893952166
 51
86.1996042816083019
  0
ARC
  5
8E5F
  8
0
 10
3945.92650609136399
 20
45.3600178436481229
 30
0.0
 40
2.1949793787699008
 50
86.0588606014691777
 51
90.0366364205328154
  0
ARC
  5
8E60
  8
0
 10
3946.0391643906650643
 20
46.8528709932864871
 30
0.0
 40
0.69170102438951
 50
74.2931864761368956
 51
83.204749094897835
  0
ARC
  5
8E61
  8
0
 10
3945.9308365792521727
 20
46.0123623148264969
 30
0.0
 40
1.539144324913263
 50
82.902606577716341
 51
90.2134534132954542
  0
ARC
  5
8E62
  8
0
 10
3946.0492937205731323
 20
46.9136244978453334
 30
0.0
 40
0.5963576461841165
 50
72.4008809192616951
 51
82.1622249029004621
  0
ARC
  5
8E63
  8
0
 10
3945.8914296607767938
 20
45.4616200223788027
 30
0.0
 40
2.0567465588030198
 50
83.321696425161079
 51
89.061915740587466
  0
ARC
  5
8E64
  8
0
 10
3946.1605721067539889
 20
47.3541589000224832
 30
0.0
 40
0.1316258541686784
 50
52.6544193446312434
 51
74.5718845938669119
  0
ARC
  5
8E65
  8
0
 10
3945.9884037515548698
 20
46.7194948908948504
 30
0.0
 40
0.7892267731163172
 50
74.7805935277173575
 51
85.67982970348028
  0
ARC
  5
8E66
  8
0
 10
3945.9268500710168155
 20
46.0570212132979222
 30
0.0
 40
1.4545002371609821
 50
85.2278089617548034
 51
90.0688378332189785
  0
ARC
  5
8E67
  8
0
 10
3946.3327262674101803
 20
47.4737658965036218
 30
0.0
 40
0.0254877455612664
 50
3.241577359095499
 51
44.4026335948740822
  0
ARC
  5
8E68
  8
0
 10
3946.2919744757500666
 20
47.4344191874267906
 30
0.0
 40
0.0821342074116718
 50
44.1215148967162278
 51
64.03109852934125
  0
ARC
  5
8E69
  8
0
 10
3946.3286457567819525
 20
47.4779712830535487
 30
0.0
 40
0.0296565739047687
 50
305.0535167104480934
 51
354.651955442053918
  0
LINE
  5
8E6A
  8
0
 10
3946.3581734337149101
 20
47.4960899979967834
 30
0.0
 11
3946.3581732324200857
 21
47.4752071270882894
 31
0.0
  0
ARC
  5
8E6B
  8
0
 10
3946.2288333971710017
 20
47.4437283703972312
 30
0.0
 40
0.0190103039592352
 50
356.149846777920402
 51
52.4506673870781981
  0
ARC
  5
8E6C
  8
0
 10
3944.8440665097091369
 20
48.0920683760968686
 30
0.0
 40
0.0607294076705055
 50
178.1059647578518934
 51
247.824090796496705
  0
ARC
  5
8E6D
  8
0
 10
3944.7347751022998636
 20
47.9062474563568088
 30
0.0
 40
0.1557290638199054
 50
19.8885039202201703
 51
56.3160955710569482
  0
ARC
  5
8E6E
  8
0
 10
3944.2083855947012125
 20
47.7059413207469376
 30
0.0
 40
0.7189251054778703
 50
6.3010727304868501
 51
20.6286054758163999
  0
ARC
  5
8E6F
  8
0
 10
3934.7077800684201065
 20
47.2972351154086184
 30
0.0
 40
10.2335136564666094
 50
359.466797739712888
 51
1.5559102381617931
  0
ARC
  5
8E70
  8
0
 10
3942.9113596713191328
 20
47.5398935221494128
 30
0.0
 40
2.0264668552007881
 50
0.9954619763194347
 51
6.9426822497758378
  0
ARC
  5
8E71
  8
0
 10
3947.0058874381211353
 20
48.0922061400464429
 30
0.0
 40
0.0609520571793269
 50
292.3456772808560231
 51
359.2924454589012839
  0
ARC
  5
8E72
  8
0
 10
3947.115430026129161
 20
47.9062474563568088
 30
0.0
 40
0.1557290638199054
 50
123.683904428942995
 51
160.1114960797798119
  0
ARC
  5
8E73
  8
0
 10
3947.6418195337278121
 20
47.7059413207469376
 30
0.0
 40
0.7189251054778703
 50
159.3713945241835859
 51
173.6989272695130921
  0
ARC
  5
8E74
  8
0
 10
3957.1424250600080086
 20
47.2972351154086184
 30
0.0
 40
10.2335136564666094
 50
178.4440897618381996
 51
180.533202260287112
  0
ARC
  5
8E75
  8
0
 10
3948.9388454571089824
 20
47.5398935221494128
 30
0.0
 40
2.0264668552007881
 50
173.0573177502240867
 51
179.0045380236805102
  0
LINE
  5
8E76
  8
0
 10
3944.9408505957148918
 20
47.2020020301920198
 30
0.0
 11
3944.9408505957148918
 21
41.9441412044920128
 31
0.0
  0
LINE
  5
8E77
  8
0
 10
3944.9408505957148918
 20
41.9441412044920128
 30
0.0
 11
3946.9093545327032189
 21
41.9441412044920128
 31
0.0
  0
LINE
  5
8E78
  8
0
 10
3946.9093545327032189
 20
41.9441412044920128
 30
0.0
 11
3946.9093545327141328
 21
47.2020020301920198
 31
0.0
  0
ARC
  5
8E79
  8
0
 10
3949.5457996351137808
 20
45.0779994495920207
 30
0.0
 40
0.0393700374999991
 50
90.0009640363970504
 51
177.9915187623815029
  0
ARC
  5
8E7A
  8
0
 10
3949.5416767502060793
 20
44.9598908367442789
 30
0.0
 40
0.0393722993622197
 50
178.0024437773207069
 51
255.0972749951089895
  0
ARC
  5
8E7B
  8
0
 10
3949.4906000016740109
 20
44.7692965512864873
 30
0.0
 40
0.1579473525554315
 50
1.6265700615178369
 51
74.9732417133703564
  0
ARC
  5
8E7C
  8
0
 10
3950.0720707795771887
 20
44.0508132191721771
 30
0.0
 40
0.3359448001142053
 50
165.809939533403508
 51
180.0635818448855048
  0
CIRCLE
  5
8E7D
  8
0
 10
3950.6495120131139629
 20
44.644928606092023
 30
0.0
 40
0.1771653542999996
  0
LINE
  5
8E7E
  8
0
 10
3949.5064537845951236
 20
45.0793792682910492
 30
0.0
 11
3949.5023283768141482
 21
44.961263231892012
 31
0.0
  0
LINE
  5
8E7F
  8
0
 10
3949.6484837108141619
 20
44.7737799168920176
 30
0.0
 11
3949.6652600445140706
 21
44.1331175823920177
 31
0.0
  0
LINE
  5
8E80
  8
0
 10
3949.6652625735141555
 20
44.0504404170920196
 30
0.0
 11
3949.6652625735141555
 21
41.9441412044920128
 31
0.0
  0
ARC
  5
8E81
  8
0
 10
3951.7532243910141005
 20
45.0779994495920207
 30
0.0
 40
0.0393700374999991
 50
2.0084812376184789
 51
89.9990359636029638
  0
ARC
  5
8E82
  8
0
 10
3951.7573472759218021
 20
44.9598908367442789
 30
0.0
 40
0.0393722993622197
 50
284.9027250048908968
 51
1.997556222679274
  0
ARC
  5
8E83
  8
0
 10
3951.8084240244561443
 20
44.7692965512864873
 30
0.0
 40
0.1579473525554241
 50
105.0267582866295015
 51
178.3734299384834117
  0
ARC
  5
8E84
  8
0
 10
3951.226953246552057
 20
44.0508132191721771
 30
0.0
 40
0.3359448001142053
 50
359.9364181551139836
 51
14.1900604665964298
  0
LINE
  5
8E85
  8
0
 10
3951.792570241534122
 20
45.0793792682910492
 30
0.0
 11
3951.7966956493141879
 21
44.961263231892012
 31
0.0
  0
LINE
  5
8E86
  8
0
 10
3951.6505403153141742
 20
44.7737799168920176
 30
0.0
 11
3951.633763981615175
 21
44.1331175823920177
 31
0.0
  0
LINE
  5
8E87
  8
0
 10
3951.6337614526141806
 20
44.0504404170920196
 30
0.0
 11
3951.6337614526141806
 21
41.9441412044920128
 31
0.0
  0
LINE
  5
8E88
  8
0
 10
3949.5457989726892265
 20
45.1173694870864423
 30
0.0
 11
3951.7532250534391096
 21
45.1173694870864423
 31
0.0
  0
LINE
  5
8E89
  8
0
 10
3949.6652600445140706
 20
44.1331175823920177
 30
0.0
 11
3951.633763981615175
 21
44.1331175823920177
 31
0.0
  0
LINE
  5
8E8A
  8
0
 10
3949.6652625735141555
 20
44.0504404170920196
 30
0.0
 11
3951.6337614526141806
 21
44.0504404170920196
 31
0.0
  0
LINE
  5
8E8B
  8
0
 10
3949.6652625735141555
 20
41.9441412044920128
 30
0.0
 11
3951.6337614526141806
 21
41.9441412044920128
 31
0.0
  0
LINE
  5
8E8C
  8
0
 10
3949.7440002020139218
 20
41.9441412044920128
 30
0.0
 11
3949.7440002020139218
 21
44.0504404170920196
 31
0.0
  0
LINE
  5
8E8D
  8
0
 10
3951.5550238241148691
 20
44.0504404170920196
 30
0.0
 11
3951.5550238241148691
 21
41.9441412044920128
 31
0.0
  0
LINE
  5
8E8E
  8
0
 10
3951.7628269893311881
 20
44.9205191572920128
 30
0.0
 11
3949.5361970367980575
 21
44.9205191572920128
 31
0.0
  0
ARC
  5
8E8F
  8
0
 10
3949.5689919365700007
 20
44.7640630135048312
 30
0.0
 40
0.1564590194504148
 50
1.134681973244424
 51
89.6526182447543079
  0
ARC
  5
8E90
  8
0
 10
3951.7300320895578807
 20
44.7640630135048312
 30
0.0
 40
0.1564590194504148
 50
90.3473817552457064
 51
178.8653180267556024
  0
LINE
  5
8E91
  8
0
 10
3949.738727359062068
 20
44.1331175823920177
 30
0.0
 11
3949.725419490015156
 21
44.7671611791920228
 31
0.0
  0
LINE
  5
8E92
  8
0
 10
3951.560296587177163
 20
44.1331175823920177
 30
0.0
 11
3951.5736044939148996
 21
44.7671611802920211
 31
0.0
  0
ARC
  5
8E94
  8
0
 10
3945.9299729712570297
 20
46.1501297436676197
 30
0.0
 40
1.2815814837449531
 50
90.2177422530608766
 51
98.0133099750059671
  0
ARC
  5
8E95
  8
0
 10
3945.7802018143938767
 20
47.1505597688633813
 30
0.0
 40
0.2701862147460774
 50
96.1371606759994819
 51
117.0802848078494947
  0
ARC
  5
8E96
  8
0
 10
3945.6759895622149088
 20
47.359686769177948
 30
0.0
 40
0.0366242023436063
 50
120.8615256235703015
 51
145.8900564263624062
  0
ARC
  5
8E97
  8
0
 10
3945.6566778204519323
 20
47.3731985978331736
 30
0.0
 40
0.0130624904203723
 50
147.4588044912082125
 51
191.9969846813376932
  0
ARC
  5
8E98
  8
0
 10
3945.7063065826641832
 20
47.3892471157333404
 30
0.0
 40
0.0651657770943622
 50
196.7345348212321881
 51
201.6178997369445085
  0
ARC
  5
8E99
  8
0
 10
3945.911239653766188
 20
45.934047410218561
 30
0.0
 40
1.4977187216760011
 50
82.8004627892099734
 51
89.4696616988228755
  0
ARC
  5
8E9A
  8
0
 10
3946.0712314502670779
 20
47.1511961972352793
 30
0.0
 40
0.2701862147460774
 50
63.1703054898432583
 51
84.1134296216953175
  0
ARC
  5
8E9B
  8
0
 10
3946.1745280654090493
 20
47.3607769813378425
 30
0.0
 40
0.0366242023436063
 50
34.3605338713328976
 51
59.3890646741123618
  0
ARC
  5
8E9C
  8
0
 10
3946.1937805269749333
 20
47.3743731428241901
 30
0.0
 40
0.0130624904203723
 50
348.253605616354605
 51
32.7917858064791972
  0
ARC
  5
8E9D
  8
0
 10
3946.1440820494390209
 20
47.3902044502904829
 30
0.0
 40
0.0651657770943622
 50
337.0792214006031031
 51
343.5160554764614176
  0
ENDSEC
  0
EOF
