  0
SECTION
  2
HEADER
  9
$ACADVER
  1
AC1009
  9
$INSBASE
 10
3222.8698507588319444
 20
205.0386276773286056
 30
0.0
  9
$EXTMIN
 10
3217.1685038900291147
 20
200.2016018052460993
 30
-0.0000000349181948
  9
$EXTMAX
 10
3235.8027645925740217
 20
205.0511433877925072
 30
0.0000000814935746
  9
$LIMMIN
 10
0.0
 20
0.0
  9
$LIMMAX
 10
11.6929133858000007
 20
8.2677165353999982
  9
$ORTHOMODE
 70
     0
  9
$REGENMODE
 70
     1
  9
$FILLMODE
 70
     1
  9
$QTEXTMODE
 70
     0
  9
$MIRRTEXT
 70
     0
  9
$DRAGMODE
 70
     2
  9
$LTSCALE
 40
0.6431102362
  9
$OSMODE
 70
  2039
  9
$ATTMODE
 70
     1
  9
$TEXTSIZE
 40
0.2
  9
$TRACEWID
 40
0.05
  9
$TEXTSTYLE
  7
STANDARD
  9
$CLAYER
  8
0
  9
$CELTYPE
  6
BYLAYER
  9
$CECOLOR
 62
   256
  9
$DIMSCALE
 40
1.0
  9
$DIMASZ
 40
0.1875
  9
$DIMEXO
 40
0.0625
  9
$DIMDLI
 40
0.4443307087
  9
$DIMRND
 40
0.0
  9
$DIMDLE
 40
0.0
  9
$DIMEXE
 40
0.125
  9
$DIMTP
 40
0.01
  9
$DIMTM
 40
0.01
  9
$DIMTXT
 40
2.0
  9
$DIMCEN
 40
0.1052362205
  9
$DIMTSZ
 40
0.0
  9
$DIMTOL
 70
     1
  9
$DIMLIM
 70
     0
  9
$DIMTIH
 70
     1
  9
$DIMTOH
 70
     1
  9
$DIMSE1
 70
     0
  9
$DIMSE2
 70
     0
  9
$DIMTAD
 70
     0
  9
$DIMZIN
 70
     0
  9
$DIMBLK
  1

  9
$DIMASO
 70
     1
  9
$DIMSHO
 70
     1
  9
$DIMPOST
  1
\X
  9
$DIMAPOST
  1

  9
$DIMALT
 70
     1
  9
$DIMALTD
 70
     2
  9
$DIMALTF
 40
25.3999999999999986
  9
$DIMLFAC
 40
1.0
  9
$DIMTOFL
 70
     0
  9
$DIMTVP
 40
0.0
  9
$DIMTIX
 70
     0
  9
$DIMSOXD
 70
     0
  9
$DIMSAH
 70
     0
  9
$DIMBLK1
  1

  9
$DIMBLK2
  1

  9
$DIMSTYLE
  2
STANDARD
  9
$DIMCLRD
 70
     0
  9
$DIMCLRE
 70
     0
  9
$DIMCLRT
 70
     0
  9
$DIMTFAC
 40
1.0
  9
$DIMGAP
 40
0.09
  9
$LUNITS
 70
     2
  9
$LUPREC
 70
     4
  9
$SKETCHINC
 40
0.1
  9
$FILLETRAD
 40
0.0
  9
$AUNITS
 70
     0
  9
$AUPREC
 70
     0
  9
$MENU
  1
.
  9
$ELEVATION
 40
0.0
  9
$PELEVATION
 40
0.0
  9
$THICKNESS
 40
0.0
  9
$LIMCHECK
 70
     0
  9
$BLIPMODE
 70
     0
  9
$CHAMFERA
 40
0.0
  9
$CHAMFERB
 40
0.0
  9
$SKPOLY
 70
     0
  9
$TDCREATE
 40
2458060.468368056230247
  9
$TDUPDATE
 40
2459194.594131943769753
  9
$TDINDWG
 40
0.6391505787
  9
$TDUSRTIMER
 40
0.6391505787
  9
$USRTIMER
 70
     1
  9
$ANGBASE
 50
0.0
  9
$ANGDIR
 70
     0
  9
$PDMODE
 70
     0
  9
$PDSIZE
 40
0.3125
  9
$PLINEWID
 40
0.0
  9
$COORDS
 70
     1
  9
$SPLFRAME
 70
     0
  9
$SPLINETYPE
 70
     6
  9
$SPLINESEGS
 70
     8
  9
$ATTDIA
 70
     1
  9
$ATTREQ
 70
     1
  9
$HANDLING
 70
     1
  9
$HANDSEED
  5
284D5
  9
$SURFTAB1
 70
     6
  9
$SURFTAB2
 70
     6
  9
$SURFTYPE
 70
     6
  9
$SURFU
 70
     6
  9
$SURFV
 70
     6
  9
$UCSNAME
  2

  9
$UCSORG
 10
0.0
 20
0.0
 30
0.0
  9
$UCSXDIR
 10
1.0
 20
0.0
 30
0.0
  9
$UCSYDIR
 10
0.0
 20
1.0
 30
0.0
  9
$PUCSNAME
  2

  9
$PUCSORG
 10
0.0
 20
0.0
 30
0.0
  9
$PUCSXDIR
 10
1.0
 20
0.0
 30
0.0
  9
$PUCSYDIR
 10
0.0
 20
1.0
 30
0.0
  9
$USERI1
 70
     0
  9
$USERI2
 70
     0
  9
$USERI3
 70
     0
  9
$USERI4
 70
     0
  9
$USERI5
 70
     0
  9
$USERR1
 40
0.0
  9
$USERR2
 40
0.0
  9
$USERR3
 40
0.0
  9
$USERR4
 40
0.0
  9
$USERR5
 40
0.0
  9
$WORLDVIEW
 70
     1
  9
$SHADEDGE
 70
     3
  9
$SHADEDIF
 70
    70
  9
$TILEMODE
 70
     1
  9
$MAXACTVP
 70
    64
  9
$PLIMCHECK
 70
     0
  9
$PEXTMIN
 10
1.0000000000000000E+20
 20
1.0000000000000000E+20
 30
1.0000000000000000E+20
  9
$PEXTMAX
 10
-1.0000000000000000E+20
 20
-1.0000000000000000E+20
 30
-1.0000000000000000E+20
  9
$PLIMMIN
 10
0.0
 20
0.0
  9
$PLIMMAX
 10
12.0
 20
9.0
  9
$UNITMODE
 70
     0
  9
$VISRETAIN
 70
     1
  9
$PLINEGEN
 70
     0
  9
$PSLTSCALE
 70
     1
  0
ENDSEC
  0
SECTION
  2
TABLES
  0
TABLE
  2
VPORT
 70
     1
  0
VPORT
  2
*ACTIVE
 70
     0
 10
0.0
 20
0.0
 11
1.0
 21
1.0
 12
-77.2074809930736592
 22
7.3648610206315652
 13
0.0
 23
0.0
 14
1.0
 24
1.0
 15
0.0
 25
0.0
 16
0.0
 26
0.0
 36
96.5995694866707311
 17
3303.693115234375
 27
195.2615115758877096
 37
0.0
 40
7.0575889151699283
 41
2.6486111111111108
 42
50.0
 43
0.0
 44
0.0
 50
0.0
 51
0.0
 71
     0
 72
   100
 73
     1
 74
     1
 75
     0
 76
     0
 77
     0
 78
     0
  0
ENDTAB
  0
TABLE
  2
LTYPE
 70
     2
  0
LTYPE
  2
CONTINUOUS
 70
     0
  3
Solid line
 72
    65
 73
     0
 40
0.0
  0
LTYPE
  2
PHANTOM2
 70
     0
  3
___ _ _ ___ _ _ ___ _ _ ___ _ _
 72
    65
 73
     6
 40
1.25
 49
0.625
 49
-0.125
 49
0.125
 49
-0.125
 49
0.125
 49
-0.125
  0
ENDTAB
  0
TABLE
  2
LAYER
 70
     2
  0
LAYER
  2
0
 70
     0
 62
   255
  6
CONTINUOUS
  0
LAYER
  2
DEFPOINTS
 70
     0
 62
     7
  6
CONTINUOUS
  0
ENDTAB
  0
TABLE
  2
STYLE
 70
     1
  0
STYLE
  2
STANDARD
 70
     0
 40
0.0
 41
0.8
 50
0.0
 71
     0
 42
0.2
  3
txt
  4

  0
ENDTAB
  0
TABLE
  2
VIEW
 70
     0
  0
ENDTAB
  0
TABLE
  2
UCS
 70
     0
  0
ENDTAB
  0
TABLE
  2
APPID
 70
     9
  0
APPID
  2
ACAD
 70
     0
  0
APPID
  2
ACAD_MLEADERVER
 70
     0
  0
APPID
  2
ACAD_EXEMPT_FROM_CAD_STANDARDS
 70
     0
  0
APPID
  2
ACAD_NAV_VCDISPLAY
 70
     0
  0
APPID
  2
ACAECLAYERSTANDARD
 70
     0
  0
APPID
  2
ACCMTRANSPARENCY
 70
     0
  0
APPID
  2
ACAD_DSTYLE_DIMJAG
 70
     0
  0
APPID
  2
ACAD_DSTYLE_DIMTALN
 70
     0
  0
APPID
  2
ACDBATTR
 70
     0
  0
ENDTAB
  0
TABLE
  2
DIMSTYLE
 70
     1
  0
DIMSTYLE
  2
STANDARD
 70
     0
  3

  4

  5

  6

  7

 40
1.0
 41
0.1875
 42
0.0625
 43
0.38
 44
0.125
 45
0.0
 46
0.0
 47
0.01
 48
0.01
140
0.15625
141
0.09
142
0.0
143
25.3999999999999986
144
1.0
145
0.0
146
1.0
147
0.09
 71
     1
 72
     0
 73
     1
 74
     1
 75
     0
 76
     0
 77
     0
 78
     4
170
     0
171
     2
172
     0
173
     0
174
     0
175
     0
176
     0
177
     0
178
     0
  0
ENDTAB
  0
ENDSEC
  0
SECTION
  2
BLOCKS
  0
BLOCK
  8
0
  2
$MODEL_SPACE
 70
     0
 10
0.0
 20
0.0
 30
0.0
  3
$MODEL_SPACE
  1

  0
ENDBLK
  5
21
  8
0
  0
BLOCK
 67
     1
  8
0
  2
$PAPER_SPACE
 70
     0
 10
0.0
 20
0.0
 30
0.0
  3
$PAPER_SPACE
  1

  0
ENDBLK
  5
1D
 67
     1
  8
0
  0
BLOCK
  8
0
  2
_FILLED
 70
     0
 10
0.0
 20
0.0
 30
0.0
  3
_FILLED
  1

  0
SOLID
  5
24AE6
  8
0
  6
BYBLOCK
 62
     0
 10
0.0
 20
0.0
 30
0.0
 11
-1.0
 21
0.1666666667
 31
0.0
 12
-1.0
 22
-0.1666666667
 32
0.0
 13
-1.0
 23
-0.1666666667
 33
0.0
  0
ENDBLK
  5
24AE7
  8
0
  6
BYBLOCK
 62
     0
  0
ENDSEC
  0
SECTION
  2
ENTITIES
  0
LINE
  5
27EDD
  8
0
 10
3218.8437954031310255
 20
205.0386276773286056
 30
0.0
 11
3220.9903943034310032
 21
205.0386276773286056
 31
0.0
  0
LINE
  5
27EDE
  8
0
 10
3220.9903943034310032
 20
205.0386276773286056
 30
0.0
 11
3220.9804275585388496
 21
203.8965518294286881
 31
0.0
  0
ARC
  5
27EDF
  8
0
 10
3220.9410589789440564
 20
203.896895393816493
 30
0.0
 40
0.039370078687884
 50
269.9999999828297064
 51
359.5000000019854269
  0
LINE
  5
27EE0
  8
0
 10
3220.9410589789317783
 20
203.8575253151286972
 30
0.0
 11
3218.8931307277321139
 21
203.8575253157426914
 31
0.0
  0
ARC
  5
27EE1
  8
0
 10
3218.8931307277439373
 20
203.8968953944520024
 30
0.0
 40
0.0393700787092968
 50
180.5000009225857127
 51
269.9999999828297064
  0
LINE
  5
27EE2
  8
0
 10
3218.8537621481318638
 20
203.8965518294286881
 30
0.0
 11
3218.8437954031310255
 21
205.0386276773286056
 31
0.0
  0
LINE
  5
27EE3
  8
0
 10
3219.2773310738321015
 20
203.8575253150287097
 30
0.0
 11
3219.2773310738321015
 21
203.2276041696285915
 31
0.0
  0
LINE
  5
27EE4
  8
0
 10
3219.2773310738321015
 20
203.2276041696285915
 30
0.0
 11
3219.2970162240308127
 21
203.207919015828594
 31
0.0
  0
LINE
  5
27EE5
  8
0
 10
3219.2970162240308127
 20
203.207919015828594
 30
0.0
 11
3220.5371734826321699
 21
203.207919015828594
 31
0.0
  0
LINE
  5
27EE6
  8
0
 10
3220.5371734826321699
 20
203.207919015828594
 30
0.0
 11
3220.5568586328308811
 21
203.2276041696285915
 31
0.0
  0
LINE
  5
27EE7
  8
0
 10
3220.5568586328308811
 20
203.2276041696285915
 30
0.0
 11
3220.5568586328308811
 21
203.8575253150287097
 31
0.0
  0
LINE
  5
27EE8
  8
0
 10
3219.4938665068320915
 20
203.207919015828594
 30
0.0
 11
3219.4938665068320915
 21
203.1547694095287113
 31
0.0
  0
LINE
  5
27EE9
  8
0
 10
3219.4938665068320915
 20
203.1547694095287113
 30
0.0
 11
3219.4997720186320294
 21
203.1488638977286882
 31
0.0
  0
LINE
  5
27EEA
  8
0
 10
3219.3068586328317906
 20
203.1488638978287042
 30
0.0
 11
3220.5273310738321015
 21
203.1488638978287042
 31
0.0
  0
ARC
  5
27EEB
  8
0
 10
3219.3068586326789955
 20
203.1291788584813105
 30
0.0
 40
0.0196850392473493
 50
89.9999995556562453
 51
180.0000001532690987
  0
LINE
  5
27EEC
  8
0
 10
3219.2871735934309072
 20
203.1291788584285882
 30
0.0
 11
3219.2871735943799649
 21
202.7748481497285979
 31
0.0
  0
ARC
  5
27EED
  8
0
 10
3219.1887483977429838
 20
202.7748481494654129
 30
0.0
 40
0.0984251966367112
 50
269.9999993531819769
 51
0.000000153269149
  0
LINE
  5
27EEE
  8
0
 10
3218.9525279242320721
 20
202.6764229528286876
 30
0.0
 11
3226.7871735934309072
 21
202.6764229528286876
 31
0.0
  0
ARC
  5
27EEF
  8
0
 10
3226.7871735934309072
 20
202.6567379133286124
 30
0.0
 40
0.019685039499997
 50
0.0000005821345316
 51
89.9999999999739515
  0
LINE
  5
27EF0
  8
0
 10
3226.806858632931835
 20
202.6567379135287013
 30
0.0
 11
3226.8068586545318794
 21
200.5307536615277115
 31
0.0
  0
ARC
  5
27EF1
  8
0
 10
3226.7871736153329039
 20
200.530753661327708
 30
0.0
 40
0.0196850391990875
 50
269.9999362535044725
 51
0.00000058213616
  0
LINE
  5
27EF2
  8
0
 10
3226.7871735935318611
 20
200.511068622128704
 30
0.0
 11
3218.9525279242320721
 21
200.511068622128704
 31
0.0
  0
ARC
  5
27EF3
  8
0
 10
3218.9525279242320721
 20
200.5307536615287063
 30
0.0
 40
0.0196850394000023
 50
180.0000000001643912
 51
270.0
  0
LINE
  5
27EF4
  8
0
 10
3218.9328428848320982
 20
200.5307536615287063
 30
0.0
 11
3218.9328428848261865
 21
202.6567379135287013
 31
0.0
  0
ARC
  5
27EF5
  8
0
 10
3218.952527924126116
 20
202.6567379135287013
 30
0.0
 40
0.0196850392999366
 50
89.9999996908822482
 51
180.0000000001643912
  0
LINE
  5
27EF6
  8
0
 10
3218.8933010184309751
 20
202.6762496649814977
 30
0.0
 11
3217.3854270081369577
 21
202.6630219323286894
 31
0.0
  0
ARC
  5
27EF7
  8
0
 10
3217.385598790333006
 20
202.6433376424741937
 30
0.0
 40
0.0196850394004807
 50
90.5000000009295746
 51
179.9999998415198093
  0
LINE
  5
27EF8
  8
0
 10
3217.3659137509321226
 20
202.6433376425285928
 30
0.0
 11
3217.365913745124999
 21
200.544153932528701
 31
0.0
  0
ARC
  5
27EF9
  8
0
 10
3217.3855987843639923
 20
200.5441539324741882
 30
0.0
 40
0.0196850392395016
 50
179.9999998415181892
 51
269.5000126924279016
  0
LINE
  5
27EFA
  8
0
 10
3217.3854270065321543
 20
200.5244696427427016
 30
0.0
 11
3218.893301025062101
 21
200.5112422458443007
 31
0.0
  0
ARC
  5
27EFB
  8
0
 10
3218.8934728029239523
 20
200.5309265388470124
 30
0.0
 40
0.0196850425107657
 50
269.5000126924539927
 51
359.9990132447118185
  0
LINE
  5
27EFC
  8
0
 10
3218.9131578454312148
 20
200.5309261998287127
 30
0.0
 11
3218.9131578454312148
 21
202.6565653752286948
 31
0.0
  0
ARC
  5
27EFD
  8
0
 10
3218.8934728062108661
 20
202.6565653753038987
 30
0.0
 40
0.0196850392195019
 50
359.9999988635448176
 51
90.500016262174384
  0
LINE
  5
27EFE
  8
0
 10
3218.9131578454312148
 20
202.6075253150287097
 30
0.0
 11
3218.9328428848320982
 21
202.6075253150287097
 31
0.0
  0
LINE
  5
27EFF
  8
0
 10
3218.9131578454312148
 20
200.9736670473286893
 30
0.0
 11
3218.9328428848320982
 21
200.9736670473286893
 31
0.0
  0
ARC
  5
27F00
  8
0
 10
3220.5273310740731176
 20
203.1291788586700875
 30
0.0
 40
0.0196850390585937
 50
359.9999992973346252
 51
90.0000007026540345
  0
LINE
  5
27F01
  8
0
 10
3220.547016113132031
 20
203.1291788584285882
 30
0.0
 11
3220.5470161087860106
 21
202.7748481497285979
 31
0.0
  0
ARC
  5
27F02
  8
0
 10
3220.6454567611208404
 20
202.7748481485213858
 30
0.0
 40
0.0984406523353154
 50
179.9999992973345115
 51
268.9846549554434887
  0
LINE
  5
27F03
  8
0
 10
3220.3403231997322109
 20
203.207919015828594
 30
0.0
 11
3220.3403231997322109
 21
203.1547694095287113
 31
0.0
  0
LINE
  5
27F04
  8
0
 10
3220.3403231997322109
 20
203.1547694095287113
 30
0.0
 11
3220.3344176879318184
 21
203.1488638977286882
 31
0.0
  0
LINE
  5
27F05
  8
0
 10
3219.4938665068320915
 20
203.1547694095287113
 30
0.0
 11
3220.3403231997322109
 21
203.1547694095287113
 31
0.0
  0
LINE
  5
27F06
  8
0
 10
3219.2773310738321015
 20
203.2276041696285915
 30
0.0
 11
3219.6710318612308583
 21
203.22760797772861
 31
0.0
  0
LINE
  5
27F07
  8
0
 10
3220.1631578454321243
 20
203.2276041696285915
 30
0.0
 11
3220.5568586328308811
 21
203.2276041696285915
 31
0.0
  0
LINE
  5
27F08
  8
0
 10
3219.6710318612308583
 20
203.6213048426286889
 30
0.0
 11
3219.6710318612308583
 21
203.22760797772861
 31
0.0
  0
ARC
  5
27F09
  8
0
 10
3219.9713870163559477
 20
204.0047632307243077
 30
0.0
 40
0.8331767558381041
 50
248.8694675389855036
 51
253.0172540428472985
  0
ARC
  5
27F0A
  8
0
 10
3219.9170948533310366
 20
202.9088358421433895
 30
0.0
 40
0.7537632737187678
 50
70.9467975935846482
 51
109.0532024088686995
  0
LINE
  5
27F0B
  8
0
 10
3220.1631578454330338
 20
203.6213048426803027
 30
0.0
 11
3220.1631578454330338
 21
203.2276041696285915
 31
0.0
  0
ARC
  5
27F0C
  8
0
 10
3219.8540151167840122
 20
204.0301696103570066
 30
0.0
 40
0.8600468088001614
 50
287.0492073573656739
 51
291.0663441895957249
  0
LINE
  5
27F0D
  8
0
 10
3219.6710318612308583
 20
203.6213048426286889
 30
0.0
 11
3220.1631578454321243
 21
203.6213048426286889
 31
0.0
  0
LINE
  5
27F0E
  8
0
 10
3220.9800869793320999
 20
202.6764229528286876
 30
0.0
 11
3220.9800869793320999
 21
202.6961079922286899
 31
0.0
  0
LINE
  5
27F0F
  8
0
 10
3220.9800869793320999
 20
202.6961079922286899
 30
0.0
 11
3221.2163074517320638
 21
202.6961079922286899
 31
0.0
  0
LINE
  5
27F10
  8
0
 10
3221.2163074517320638
 20
202.6961079922286899
 30
0.0
 11
3221.2163074517320638
 21
202.6764229528286876
 31
0.0
  0
LINE
  5
27F11
  8
0
 10
3232.1138940067321528
 20
205.0386276773286056
 30
0.0
 11
3234.1217680225308868
 21
205.0386276773286056
 31
0.0
  0
LINE
  5
27F12
  8
0
 10
3234.1217680225308868
 20
205.0386276773286056
 30
0.0
 11
3234.1174557456311049
 21
204.7915775014286908
 31
0.0
  0
ARC
  5
27F13
  8
0
 10
3234.0879314539420193
 20
204.7920940655282038
 30
0.0
 40
0.0295288103088557
 50
270.6576726778288275
 51
358.9976415503207932
  0
ARC
  5
27F14
  8
0
 10
3233.1178306004189835
 20
289.6069135568910724
 30
0.0
 40
84.8498960637831061
 50
270.4940860330061128
 51
270.6553139052148254
  0
ARC
  5
27F15
  8
0
 10
3233.8500226703768021
 20
204.7011193752157965
 30
0.0
 40
0.0590551185599111
 50
90.4891497518984664
 51
175.7881684374160898
  0
ARC
  5
27F16
  8
0
 10
7963.8967280717588437
 20
121.1482567488880022
 30
0.0
 40
4730.8435614130130489
 50
178.987976713711987
 51
179.0040141672471918
  0
ARC
  5
27F17
  8
0
 10
3233.7380875113708498
 20
203.3780104942362073
 30
0.0
 40
0.0300361444186082
 50
271.0524613103252136
 51
6.6075474751993744
  0
ARC
  5
27F18
  8
0
 10
3232.4973384030909074
 20
203.3775047232809925
 30
0.0
 40
0.0295266525735971
 50
180.9989490334399136
 51
269.4125549224851284
  0
ARC
  5
27F19
  8
0
 10
-33219.0445713239678298
 20
-432.2176982226300765
 30
0.0
 40
36457.0533086291834479
 50
0.9989490334398865
 51
1.0010371749977951
  0
ARC
  5
27F1A
  8
0
 10
3232.3855689763090595
 20
204.7009436352848013
 30
0.0
 40
0.0592314986976255
 50
4.3758358856758912
 51
89.4393030364021513
  0
ARC
  5
27F1B
  8
0
 10
3233.1168033401681896
 20
289.4966880904826212
 30
0.0
 40
84.7396658302267554
 50
269.3445332513304038
 51
269.5059698333503206
  0
ARC
  5
27F1C
  8
0
 10
3232.147728963182999
 20
204.7920926651956961
 30
0.0
 40
0.0295271739413352
 50
180.9992724687193117
 51
269.3582094207484943
  0
LINE
  5
27F1D
  8
0
 10
3232.1138940067321528
 20
205.0386276773286056
 30
0.0
 11
3232.1182062798320658
 21
204.7915777198286946
 31
0.0
  0
LINE
  5
27F1E
  8
0
 10
3232.7048984446028044
 20
203.3460968790286074
 30
0.0
 11
3233.5307635846597805
 21
203.3460968790286074
 31
0.0
  0
ARC
  5
27F1F
  8
0
 10
3233.286581508818017
 20
279.0554009515885241
 30
0.0
 40
75.7115386076555694
 50
269.4024794432169756
 51
269.5597987692701167
  0
ARC
  5
27F20
  8
0
 10
3232.9490805204459321
 20
279.0554009515885241
 30
0.0
 40
75.7115386076555694
 50
270.4402012307298833
 51
270.5975205567830244
  0
LINE
  5
27F21
  8
0
 10
3232.9288546366310584
 20
203.3181552363286926
 30
0.0
 11
3233.3068073925319368
 21
203.3181552363286926
 31
0.0
  0
LINE
  5
27F22
  8
0
 10
3233.3068073925319368
 20
203.3181552363286926
 30
0.0
 11
3233.3068073925319368
 21
202.9835095670287046
 31
0.0
  0
LINE
  5
27F23
  8
0
 10
3233.7379097547318452
 20
202.9835095670287046
 30
0.0
 11
3232.4977522744002272
 21
202.9835095671286922
 31
0.0
  0
ARC
  5
27F24
  8
0
 10
3232.4977522743961345
 20
202.9539820081637913
 30
0.0
 40
0.0295275589648441
 50
89.9999999953621881
 51
180.0000004563111133
  0
LINE
  5
27F25
  8
0
 10
3232.4682247154310062
 20
202.9539820079286017
 30
0.0
 11
3232.4682247176269811
 21
202.6783914569286082
 31
0.0
  0
ARC
  5
27F26
  8
0
 10
3232.4977522779108767
 20
202.6783914571637979
 30
0.0
 40
0.0295275602842224
 50
180.0000004563079017
 51
255.6644484381218092
  0
ARC
  5
27F27
  8
0
 10
3233.7379097549028302
 20
202.9539820080993024
 30
0.0
 40
0.0295275589292956
 50
359.99999986280028
 51
90.0000003312385246
  0
LINE
  5
27F28
  8
0
 10
3233.7674373138320334
 20
202.9539820080287029
 30
0.0
 11
3233.7674373130889762
 21
202.6437639976693958
 31
0.0
  0
ARC
  5
27F29
  8
0
 10
3233.0074344650188323
 20
202.3743331641192071
 30
0.0
 40
0.50162535343828
 50
104.2984567109155023
 51
141.6996917450383933
  0
ARC
  5
27F2A
  8
0
 10
3233.1186228466608554
 20
202.0614808992638984
 30
0.0
 40
0.8328046050065765
 50
90.2719446007393032
 51
106.3957680827637944
  0
ARC
  5
27F2B
  8
0
 10
3233.1172227490319528
 20
202.0626400372701141
 30
0.0
 40
0.8316400040472938
 50
73.5943597307392992
 51
90.1758650490338027
  0
ARC
  5
27F2C
  8
0
 10
3233.2386060957987866
 20
202.3902525595783004
 30
0.0
 40
0.483674263374967
 50
37.5784225290078524
 51
76.428096907583523
  0
ARC
  5
27F2D
  8
0
 10
3235.0505836004599587
 20
207.4237170757872093
 30
0.0
 40
4.9491833491801751
 50
253.2219483146135133
 51
254.9735904298464959
  0
ARC
  5
27F2E
  8
0
 10
3241.2439410983001835
 20
232.8789122020521916
 30
0.0
 40
31.1458230873945894
 50
256.1106053134665785
 51
257.9750835762667975
  0
ARC
  5
27F2F
  8
0
 10
3233.9364790682539024
 20
198.9751191046989902
 30
0.0
 40
3.537427592234859
 50
70.1885626629345154
 51
76.6192809994268771
  0
ARC
  5
27F30
  8
0
 10
3234.7413331628617925
 20
201.1357571521353123
 30
0.0
 40
1.232137241159788
 50
51.1347591697454789
 51
71.3475183593833435
  0
ARC
  5
27F31
  8
0
 10
3235.0803596128871504
 20
201.7198347658917896
 30
0.0
 40
0.5738579856785652
 50
11.4896965362759609
 51
40.8426604267733424
  0
ARC
  5
27F32
  8
0
 10
3234.5455020911467727
 20
201.5859699244261094
 30
0.0
 40
1.12493197046447
 50
3.0767421086316591
 51
12.7449344523355794
  0
ARC
  5
27F33
  8
0
 10
3231.6538340368051649
 20
201.4414411649993895
 30
0.0
 40
4.0202038993306024
 50
356.9855813674038814
 51
2.9216029618042332
  0
ARC
  5
27F34
  8
0
 10
3223.9280630782350272
 20
201.4553081147305136
 30
0.0
 40
11.7425733887099906
 50
357.1761406823038101
 51
358.9007267110739008
  0
ARC
  5
27F35
  8
0
 10
3234.6027824995207993
 20
200.9359905885619924
 30
0.0
 40
1.0552562855650189
 50
343.9114341786553268
 51
356.7846382804297036
  0
ARC
  5
27F36
  8
0
 10
3235.1708959812708599
 20
200.7671460664248002
 30
0.0
 40
0.4626274235703644
 50
322.3822434434484876
 51
344.5052218296285105
  0
ARC
  5
27F37
  8
0
 10
3235.2627281784712068
 20
200.7305155213626051
 30
0.0
 40
0.3685213946376453
 50
277.7002517836854736
 51
318.174666903140519
  0
ARC
  5
27F38
  8
0
 10
3234.4411942541300959
 20
206.9288662905098874
 30
0.0
 40
6.6210772949226682
 50
270.5147556337171864
 51
277.5583808199036184
  0
ARC
  5
27F39
  8
0
 10
3233.1352707663390902
 20
241.6691564924888098
 30
0.0
 40
41.3836314860467667
 50
269.9758557560489862
 51
271.8907547075140201
  0
ARC
  5
27F3A
  8
0
 10
3233.2131333163988529
 20
200.2664365347200999
 30
0.0
 40
0.0281353970420881
 50
137.1675418608267023
 51
179.5481594401668985
  0
ARC
  5
27F3B
  8
0
 10
3234.6492387215412236
 20
200.2551110212575907
 30
0.0
 40
1.4642854595127279
 50
179.5481594401668985
 51
180.3659042964746959
  0
ARC
  5
27F3C
  8
0
 10
3233.1569162693290309
 20
200.2466100594166107
 30
0.0
 40
0.0280797278320124
 50
283.8563921870597824
 51
358.2648367799827156
  0
ARC
  5
27F3D
  8
0
 10
3233.1356387854280001
 20
200.3834258764458127
 30
0.0
 40
0.1664507374053486
 50
269.6144564803586263
 51
279.6850166029366278
  0
ARC
  5
27F3E
  8
0
 10
3233.1182284446649646
 20
200.9821873877438918
 30
0.0
 40
0.7653818604275137
 50
269.9702324660793238
 51
271.2195690270187924
  0
ARC
  5
27F3F
  8
0
 10
3233.7399654017249304
 20
200.2828817251970008
 30
0.0
 40
0.4348992331632
 50
179.6058612720268002
 51
180.8751165995321912
  0
ARC
  5
27F40
  8
0
 10
3233.3337060087737882
 20
200.2775828642712952
 30
0.0
 40
0.0286206585776104
 50
182.690317696657786
 51
241.919992492472204
  0
ARC
  5
27F41
  8
0
 10
3233.3537618139298502
 20
200.3446218911018093
 30
0.0
 40
0.0981921207741157
 50
250.0347809586938013
 51
266.6861341956671936
  0
ARC
  5
27F42
  8
0
 10
3233.3676447055031531
 20
200.6114524296162926
 30
0.0
 40
0.3653823396653928
 50
266.9314852366234163
 51
270.7005615770681857
  0
ARC
  5
27F43
  8
0
 10
3233.3734651844820291
 20
200.4753808612886132
 30
0.0
 40
0.2292874510744864
 50
269.6618965419917231
 51
280.0777730253269056
  0
ARC
  5
27F44
  8
0
 10
3233.4084997528138956
 20
200.2796235459196907
 30
0.0
 40
0.030420874548434
 50
279.6267383087068197
 51
331.8615106691730716
  0
ARC
  5
27F45
  8
0
 10
3233.4080974181388228
 20
200.2788211684282942
 30
0.0
 40
0.0304104931689265
 50
333.5523168126666178
 51
358.7298588414820983
  0
LINE
  5
27F46
  8
0
 10
3233.4385004393498093
 20
200.2781470794147936
 30
0.0
 11
3233.4385028281308223
 21
200.2866359636495019
 31
0.0
  0
ARC
  5
27F47
  8
0
 10
3233.5468477070348854
 20
200.2762289455727966
 30
0.0
 40
0.0187149331196917
 50
33.5707936252164032
 51
37.8844796194821427
  0
ARC
  5
27F48
  8
0
 10
3233.5350330604928786
 20
200.2683879912015072
 30
0.0
 40
0.0328947229059834
 50
14.4654667422057397
 51
33.5707936252231818
  0
ARC
  5
27F49
  8
0
 10
3233.545621618432051
 20
200.2711195707697982
 30
0.0
 40
0.0219595006317543
 50
358.6750349734546148
 51
14.4654667422041605
  0
ARC
  5
27F4A
  8
0
 10
3233.975593962270068
 20
200.2611746865873101
 30
0.0
 40
0.4081278360654668
 50
178.6750349734545864
 51
181.3498891761012999
  0
ARC
  5
27F4B
  8
0
 10
3233.5962070935897827
 20
200.2522346737324028
 30
0.0
 40
0.0286356491139443
 50
181.3498891760964113
 51
249.5591940853871904
  0
ARC
  5
27F4C
  8
0
 10
3233.6067488337680516
 20
200.3002786920685026
 30
0.0
 40
0.0776433782395798
 50
254.6583429752786003
 51
271.206615856573876
  0
ARC
  5
27F4D
  8
0
 10
3233.6211245800291181
 20
200.8092123891611038
 30
0.0
 40
0.5866982139255937
 50
268.7556666241612788
 51
274.7032649354288765
  0
ARC
  5
27F4E
  8
0
 10
3233.6693199335509235
 20
200.2605810952408945
 30
0.0
 40
0.0360914498952326
 50
269.8589378549276034
 51
313.9046295130448812
  0
ARC
  5
27F4F
  8
0
 10
3233.6742512475598232
 20
200.2535749448717013
 30
0.0
 40
0.0276547153115806
 50
316.6104005548725127
 51
359.9608977174369784
  0
ARC
  5
27F50
  8
0
 10
3249.0628547088949745
 20
200.2430727818970126
 30
0.0
 40
15.3609523296957793
 50
179.8772053104891882
 51
179.9608977174370068
  0
ARC
  5
27F51
  8
0
 10
3233.7301821114529048
 20
200.2748620476176882
 30
0.0
 40
0.0282671244934391
 50
148.9060990181334034
 51
177.7051606132343977
  0
ARC
  5
27F52
  8
0
 10
3233.8031703160709185
 20
200.2940475697878924
 30
0.0
 40
0.0274279700246907
 50
187.4631058107472938
 51
229.4933245238860877
  0
ARC
  5
27F53
  8
0
 10
3233.8071770352048588
 20
200.2987377285218997
 30
0.0
 40
0.0335965506689672
 50
229.493324523885093
 51
258.5384103333814778
  0
ARC
  5
27F54
  8
0
 10
3233.830558945597204
 20
200.4666307579354907
 30
0.0
 40
0.2030566197407555
 50
261.4873798543638941
 51
273.6631453503774196
  0
ARC
  5
27F55
  8
0
 10
3233.8391368627990232
 20
200.4665348250989894
 30
0.0
 40
0.202593513526169
 50
271.243181891956624
 51
283.534888610767382
  0
ARC
  5
27F56
  8
0
 10
3233.8781722622347843
 20
200.299966692470889
 30
0.0
 40
0.0315325236626034
 50
285.4101939488353992
 51
334.0881820203024972
  0
ARC
  5
27F57
  8
0
 10
3233.8780873820328452
 20
200.2986286811112961
 30
0.0
 40
0.0310489709902357
 50
336.3780959281247078
 51
349.0873056040152278
  0
ARC
  5
27F58
  8
0
 10
3234.0535489480330398
 20
200.2878330539228955
 30
0.0
 40
0.0303161110116921
 50
1.362216358393282
 51
16.3558729803552296
  0
ARC
  5
27F59
  8
0
 10
3233.679995532682824
 20
200.2789500877019009
 30
0.0
 40
0.4039751283093706
 50
358.800420708329284
 51
1.362216358393282
  0
ARC
  5
27F5A
  8
0
 10
3234.1119707685911635
 20
200.2714104473913892
 30
0.0
 40
0.0281036283464111
 50
181.8710955134459084
 51
246.7855275862137034
  0
ARC
  5
27F5B
  8
0
 10
3234.1242663863540656
 20
200.3201453219656969
 30
0.0
 40
0.0781407136874544
 50
252.595329454603899
 51
270.2551739100982218
  0
ARC
  5
27F5C
  8
0
 10
3234.1309554919798757
 20
200.647468211314191
 30
0.0
 40
0.4055124097666026
 50
269.1040152778688821
 51
278.2952637499943762
  0
ARC
  5
27F5D
  8
0
 10
3234.1870552686341398
 20
200.2774223794328918
 30
0.0
 40
0.0313164992986191
 50
274.4049780544488044
 51
352.5960510877096112
  0
ARC
  5
27F5E
  8
0
 10
3224.7046798890701211
 20
200.3353286579246912
 30
0.0
 40
9.5136324199736695
 50
359.6269530632683882
 51
359.7854123431324069
  0
ARC
  5
27F5F
  8
0
 10
3234.6230666525989363
 20
200.3148603023537078
 30
0.0
 40
0.0288158955090358
 50
190.5796366369033024
 51
241.845455842042611
  0
ARC
  5
27F60
  8
0
 10
3234.6299260586379205
 20
200.3306563353131935
 30
0.0
 40
0.0460010114367761
 50
243.5964406996035052
 51
268.3644692335143986
  0
ARC
  5
27F61
  8
0
 10
3234.6404695300789172
 20
200.5465526163546031
 30
0.0
 40
0.2621468109192884
 50
267.4077346957324153
 51
284.2415492798537002
  0
ARC
  5
27F62
  8
0
 10
3234.6991112911177879
 20
200.3211247419025938
 30
0.0
 40
0.0292531463698385
 50
281.5338298845213103
 51
345.8654488896171983
  0
LINE
  5
27F63
  8
0
 10
3232.928862017830852
 20
203.3181552363286926
 30
0.0
 11
3232.928862017830852
 21
202.9835095670287046
 31
0.0
  0
LINE
  5
27F64
  8
0
 10
3232.99972077843222
 20
203.3181552363286926
 30
0.0
 11
3232.99972077843222
 21
203.3460968790286074
 31
0.0
  0
LINE
  5
27F65
  8
0
 10
3233.2359412508308196
 20
203.3181552363286926
 30
0.0
 11
3233.2359412508308196
 21
203.3460968790286074
 31
0.0
  0
ARC
  5
27F66
  8
0
 10
3231.1860865915032264
 20
207.4200713749621912
 30
0.0
 40
4.9454008146250654
 50
285.0260746237897251
 51
286.77952101416912
  0
ARC
  5
27F67
  8
0
 10
3224.9917204958210277
 20
232.8789122020521916
 30
0.0
 40
31.1458230873945894
 50
282.0249164237332025
 51
283.8893946865334215
  0
ARC
  5
27F68
  8
0
 10
3232.2991825258682184
 20
198.9751191046989902
 30
0.0
 40
3.537427592234859
 50
103.3807190005730945
 51
109.8114373370654988
  0
ARC
  5
27F69
  8
0
 10
3231.494328431258964
 20
201.1357571521353123
 30
0.0
 40
1.232137241159788
 50
108.6524816406165996
 51
128.8652408302544927
  0
ARC
  5
27F6A
  8
0
 10
3231.1553019812340608
 20
201.7198347658917896
 30
0.0
 40
0.5738579856785652
 50
139.1573395732266079
 51
168.510303463724
  0
ARC
  5
27F6B
  8
0
 10
3231.6901595029748933
 20
201.5859699244261094
 30
0.0
 40
1.12493197046447
 50
167.255065547664401
 51
176.9232578913683085
  0
ARC
  5
27F6C
  8
0
 10
3234.5818275573169558
 20
201.4414411649993895
 30
0.0
 40
4.0202038993306024
 50
177.0783970381957033
 51
183.0144186325960902
  0
ARC
  5
27F6D
  8
0
 10
3242.307598515886184
 20
201.4553081147305136
 30
0.0
 40
11.7425733887099906
 50
181.0992732889260139
 51
182.8238593176945983
  0
ARC
  5
27F6E
  8
0
 10
3231.6328790945999572
 20
200.9359905885619924
 30
0.0
 40
1.0552562855650189
 50
183.2153617195702111
 51
196.0885658213447016
  0
ARC
  5
27F6F
  8
0
 10
3231.0647656128498966
 20
200.7671460664248002
 30
0.0
 40
0.4626274235703644
 50
195.4947781703714895
 51
217.6177565565513987
  0
ARC
  5
27F70
  8
0
 10
3230.9729334156500045
 20
200.7305155213626051
 30
0.0
 40
0.3685213946376453
 50
221.8253330968595094
 51
262.2997482163145264
  0
ARC
  5
27F71
  8
0
 10
3231.7944673399920248
 20
206.9288662905098874
 30
0.0
 40
6.6210772949226682
 50
262.4416191800963816
 51
269.4852443662828136
  0
ARC
  5
27F72
  8
0
 10
3233.100390905894983
 20
241.6691596614149091
 30
0.0
 40
41.3836346558247996
 50
268.1092453291653896
 51
270.0241470418524727
  0
ARC
  5
27F73
  8
0
 10
3233.0225282777228131
 20
200.2664365347200999
 30
0.0
 40
0.0281353970420881
 50
0.4518405598331169
 51
42.8324581391732409
  0
ARC
  5
27F74
  8
0
 10
3231.5864228725808971
 20
200.2551110212575907
 30
0.0
 40
1.4642854595127279
 50
359.6340957035251904
 51
0.4518405598331169
  0
ARC
  5
27F75
  8
0
 10
3233.0787453247921803
 20
200.2466100594166107
 30
0.0
 40
0.0280797278320124
 50
181.7351632200173128
 51
256.1436078129402176
  0
ARC
  5
27F76
  8
0
 10
3233.1000228086941206
 20
200.3834258764458127
 30
0.0
 40
0.1664507374053486
 50
260.3149833970633722
 51
270.3855435196413737
  0
ARC
  5
27F77
  8
0
 10
3233.1174331494571561
 20
200.9821873877438918
 30
0.0
 40
0.7653818604275137
 50
268.7804309729813212
 51
270.0297675339206194
  0
ARC
  5
27F78
  8
0
 10
3232.4956961923971903
 20
200.2828817251970008
 30
0.0
 40
0.4348992331632
 50
359.1248834004661035
 51
0.3941387279747754
  0
ARC
  5
27F79
  8
0
 10
3232.9019555853478778
 20
200.2775828642712952
 30
0.0
 40
0.0286206585776104
 50
298.080007507527796
 51
357.3096823033421856
  0
ARC
  5
27F7A
  8
0
 10
3232.8818997801918158
 20
200.3446218911018093
 30
0.0
 40
0.0981921207741157
 50
273.3138658043328064
 51
289.9652190413062272
  0
ARC
  5
27F7B
  8
0
 10
3232.8680168886189676
 20
200.6114524296162926
 30
0.0
 40
0.3653823396653928
 50
269.2994384229318143
 51
273.0685147633765837
  0
ARC
  5
27F7C
  8
0
 10
3232.8621964096400916
 20
200.4753808612886132
 30
0.0
 40
0.2292874510744864
 50
259.9222269746729808
 51
270.3381034580082769
  0
ARC
  5
27F7D
  8
0
 10
3232.8271618413082251
 20
200.2796235459196907
 30
0.0
 40
0.030420874548434
 50
208.1384893308269
 51
260.3732616912931803
  0
ARC
  5
27F7E
  8
0
 10
3232.8275641759828432
 20
200.2788211684282942
 30
0.0
 40
0.0304104931689265
 50
181.27014115851631
 51
206.4476831873334959
  0
LINE
  5
27F7F
  8
0
 10
3232.7971611547718567
 20
200.2781470794147936
 30
0.0
 11
3232.7971587659899342
 21
200.2866359636495019
 31
0.0
  0
ARC
  5
27F80
  8
0
 10
3232.6888138870867806
 20
200.2762289455727966
 30
0.0
 40
0.0187149331196917
 50
142.1155203805178076
 51
146.4292063747836039
  0
ARC
  5
27F81
  8
0
 10
3232.7006285336301517
 20
200.2683879912015072
 30
0.0
 40
0.0328947229059834
 50
146.4292063747768111
 51
165.5345332577942088
  0
ARC
  5
27F82
  8
0
 10
3232.6900399756900697
 20
200.2711195707697982
 30
0.0
 40
0.0219595006317543
 50
165.5345332577958004
 51
181.3249650265452999
  0
ARC
  5
27F83
  8
0
 10
3232.2600676318511432
 20
200.2611746865873101
 30
0.0
 40
0.4081278360654668
 50
358.6501108238986149
 51
1.3249650265453861
  0
ARC
  5
27F84
  8
0
 10
3232.6394545005318832
 20
200.2522346737324028
 30
0.0
 40
0.0286356491139443
 50
290.4408059146127812
 51
358.6501108239035034
  0
ARC
  5
27F85
  8
0
 10
3232.6289127603540692
 20
200.3002786920685026
 30
0.0
 40
0.0776433782395798
 50
268.793384143426124
 51
285.3416570247214281
  0
ARC
  5
27F86
  8
0
 10
3232.6145370140930027
 20
200.8092123891611038
 30
0.0
 40
0.5866982139255937
 50
265.2967350645711235
 51
271.2443333758387212
  0
ARC
  5
27F87
  8
0
 10
3232.5663416605711973
 20
200.2605810952408945
 30
0.0
 40
0.0360914498952326
 50
226.0953704869550052
 51
270.1410621450725102
  0
ARC
  5
27F88
  8
0
 10
3232.5614103465609332
 20
200.2535749448717013
 30
0.0
 40
0.0276547153115806
 50
180.0391022825612879
 51
223.3895994451274873
  0
ARC
  5
27F89
  8
0
 10
3217.172806885225782
 20
200.2430727818970126
 30
0.0
 40
15.3609523296957793
 50
0.0391022825630251
 51
0.1227946895108098
  0
ARC
  5
27F8A
  8
0
 10
3232.5054794826692159
 20
200.2748620476176882
 30
0.0
 40
0.0282671244934391
 50
2.2948393867656529
 51
31.0939009818666001
  0
ARC
  5
27F8B
  8
0
 10
3232.432491278049838
 20
200.2940475697878924
 30
0.0
 40
0.0274279700246907
 50
310.5066754761139123
 51
352.5368941892526777
  0
ARC
  5
27F8C
  8
0
 10
3232.4284845589168071
 20
200.2987377285218997
 30
0.0
 40
0.0335965506689672
 50
281.4615896666185222
 51
310.5066754761148786
  0
ARC
  5
27F8D
  8
0
 10
3232.4051026485240072
 20
200.4666307579354907
 30
0.0
 40
0.2030566197407555
 50
266.3368546496225804
 51
278.5126201456359922
  0
ARC
  5
27F8E
  8
0
 10
3232.3965247313230975
 20
200.4665348250989894
 30
0.0
 40
0.202593513526169
 50
256.465111389232618
 51
268.756818108043376
  0
ARC
  5
27F8F
  8
0
 10
3232.3574893318859722
 20
200.299966692470889
 30
0.0
 40
0.0315325236626034
 50
205.9118179796973891
 51
254.5898060511646008
  0
ARC
  5
27F90
  8
0
 10
3232.3575742120888208
 20
200.2986286811112961
 30
0.0
 40
0.0310489709902357
 50
190.9126943959846869
 51
203.6219040718754059
  0
ARC
  5
27F91
  8
0
 10
3232.182112646089081
 20
200.2878330539228955
 30
0.0
 40
0.0303161110116921
 50
163.6441270196447135
 51
178.6377836416050968
  0
ARC
  5
27F92
  8
0
 10
3232.5556660614379325
 20
200.2789500877019009
 30
0.0
 40
0.4039751283093706
 50
178.6377836416050968
 51
181.1995792916706876
  0
ARC
  5
27F93
  8
0
 10
3232.1236908255309572
 20
200.2714104473913892
 30
0.0
 40
0.0281036283464111
 50
293.214472413786325
 51
358.1289044865525284
  0
ARC
  5
27F94
  8
0
 10
3232.1113952077680551
 20
200.3201453219656969
 30
0.0
 40
0.0781407136874544
 50
269.7448260899017782
 51
287.4046705453960726
  0
ARC
  5
27F95
  8
0
 10
3232.1047061021417903
 20
200.647468211314191
 30
0.0
 40
0.4055124097666026
 50
261.7047362500056238
 51
270.8959847221311179
  0
ARC
  5
27F96
  8
0
 10
3232.0486063254879809
 20
200.2774223794328918
 30
0.0
 40
0.0313164992986191
 50
187.4039489122903888
 51
265.5950219455511956
  0
ARC
  5
27F97
  8
0
 10
3241.5309817050510901
 20
200.3353286579246912
 30
0.0
 40
9.5136324199736695
 50
180.2145876568658878
 51
180.3730469367316118
  0
ARC
  5
27F98
  8
0
 10
3231.6125949415218201
 20
200.3148603023537078
 30
0.0
 40
0.0288158955090358
 50
298.154544157957389
 51
349.4203633630967261
  0
ARC
  5
27F99
  8
0
 10
3231.6057355354842002
 20
200.3306563353131935
 30
0.0
 40
0.0460010114367761
 50
271.635530766485715
 51
296.4035593003965232
  0
ARC
  5
27F9A
  8
0
 10
3231.5951920640418393
 20
200.5465526163546031
 30
0.0
 40
0.2621468109192884
 50
255.7584507201464135
 51
272.5922653042676984
  0
ARC
  5
27F9B
  8
0
 10
3231.5365503030047876
 20
200.3211247419025938
 30
0.0
 40
0.0292531463698385
 50
194.134551110382688
 51
258.4661701154786897
  0
LINE
  5
27F9C
  8
0
 10
3226.8959061150230809
 20
205.0386276773286056
 30
0.0
 11
3224.7493072147231032
 21
205.0386276773286056
 31
0.0
  0
LINE
  5
27F9D
  8
0
 10
3224.7493072147231032
 20
205.0386276773286056
 30
0.0
 11
3224.7592739596148022
 21
203.8965518294286881
 31
0.0
  0
ARC
  5
27F9E
  8
0
 10
3224.7986425392109595
 20
203.896895393816493
 30
0.0
 40
0.039370078687884
 50
180.4999999980146015
 51
270.0000000171702936
  0
LINE
  5
27F9F
  8
0
 10
3224.7986425392227829
 20
203.8575253151286972
 30
0.0
 11
3226.8465707904229021
 21
203.8575253157426914
 31
0.0
  0
ARC
  5
27FA0
  8
0
 10
3226.8465707904110786
 20
203.8968953944520024
 30
0.0
 40
0.0393700787092968
 50
270.0000000171702936
 51
359.4999990774143157
  0
LINE
  5
27FA1
  8
0
 10
3226.8859393700231522
 20
203.8965518294286881
 30
0.0
 11
3226.8959061150230809
 21
205.0386276773286056
 31
0.0
  0
LINE
  5
27FA2
  8
0
 10
3226.4623704443220049
 20
203.8575253150287097
 30
0.0
 11
3226.4623704443220049
 21
203.2276041696285915
 31
0.0
  0
LINE
  5
27FA3
  8
0
 10
3226.4623704443220049
 20
203.2276041696285915
 30
0.0
 11
3226.442685294122839
 21
203.207919015828594
 31
0.0
  0
LINE
  5
27FA4
  8
0
 10
3226.442685294122839
 20
203.207919015828594
 30
0.0
 11
3225.202528035522846
 21
203.207919015828594
 31
0.0
  0
LINE
  5
27FA5
  8
0
 10
3225.202528035522846
 20
203.207919015828594
 30
0.0
 11
3225.1828428853232253
 21
203.2276041696285915
 31
0.0
  0
LINE
  5
27FA6
  8
0
 10
3225.1828428853232253
 20
203.2276041696285915
 30
0.0
 11
3225.1828428853232253
 21
203.8575253150287097
 31
0.0
  0
LINE
  5
27FA7
  8
0
 10
3226.2458350113229244
 20
203.207919015828594
 30
0.0
 11
3226.2458350113229244
 21
203.1547694095287113
 31
0.0
  0
LINE
  5
27FA8
  8
0
 10
3226.2458350113229244
 20
203.1547694095287113
 30
0.0
 11
3226.2399294995229866
 21
203.1488638977286882
 31
0.0
  0
LINE
  5
27FA9
  8
0
 10
3226.4328428853232253
 20
203.1488638978287042
 30
0.0
 11
3225.2123704443229144
 21
203.1488638978287042
 31
0.0
  0
ARC
  5
27FAA
  8
0
 10
3226.4328428854760205
 20
203.1291788584813105
 30
0.0
 40
0.0196850392473493
 50
359.9999998467308728
 51
90.0000004443437405
  0
LINE
  5
27FAB
  8
0
 10
3226.4525279247231992
 20
203.1291788584285882
 30
0.0
 11
3226.452527923775051
 21
202.7748481497285979
 31
0.0
  0
ARC
  5
27FAC
  8
0
 10
3226.5509531204120321
 20
202.7748481494654129
 30
0.0
 40
0.0984251966367112
 50
179.9999998467307876
 51
270.0000006468179095
  0
LINE
  5
27FAD
  8
0
 10
3226.8464004992320042
 20
202.6762496649814977
 30
0.0
 11
3228.3621485253261199
 21
202.6630219323286894
 31
0.0
  0
ARC
  5
27FAE
  8
0
 10
3228.361976743130981
 20
202.6433376424741937
 30
0.0
 40
0.0196850394004807
 50
0.0000001584801698
 51
89.4999999990704396
  0
LINE
  5
27FAF
  8
0
 10
3228.3816617825318644
 20
202.6433376425285928
 30
0.0
 11
3228.3816617883380786
 21
200.544153932528701
 31
0.0
  0
ARC
  5
27FB0
  8
0
 10
3228.3619767490981758
 20
200.5441539324741882
 30
0.0
 40
0.0196850392395016
 50
270.4999873075720984
 51
0.0000001584817982
  0
LINE
  5
27FB1
  8
0
 10
3228.3621485269318327
 20
200.5244696427427016
 30
0.0
 11
3226.8464004926008784
 21
200.5112422458443007
 31
0.0
  0
ARC
  5
27FB2
  8
0
 10
3226.8462287147399365
 20
200.5309265388470124
 30
0.0
 40
0.0196850425107657
 50
180.0009867552865899
 51
270.499987307546121
  0
LINE
  5
27FB3
  8
0
 10
3226.8265436722322193
 20
200.5309261998287127
 30
0.0
 11
3226.8265436722322193
 21
202.6565653752286948
 31
0.0
  0
ARC
  5
27FB4
  8
0
 10
3226.8462287114512037
 20
202.6565653753038987
 30
0.0
 40
0.0196850392195019
 50
89.4999837378256302
 51
180.0000011364552108
  0
LINE
  5
27FB5
  8
0
 10
3226.8265436722322193
 20
202.6075253150287097
 30
0.0
 11
3226.8068586333229177
 21
202.6075253150287097
 31
0.0
  0
LINE
  5
27FB6
  8
0
 10
3226.8265436722322193
 20
200.9736670473286893
 30
0.0
 11
3226.8068586333229177
 21
200.9736670473286893
 31
0.0
  0
ARC
  5
27FB7
  8
0
 10
3225.2123704440818983
 20
203.1291788586700875
 30
0.0
 40
0.0196850390585937
 50
89.9999992973459513
 51
180.0000007026654032
  0
LINE
  5
27FB8
  8
0
 10
3225.1926854050229849
 20
203.1291788584285882
 30
0.0
 11
3225.1926854093680959
 21
202.7748481497285979
 31
0.0
  0
ARC
  5
27FB9
  8
0
 10
3225.0942447570328113
 20
202.7748481485213858
 30
0.0
 40
0.0984406523353154
 50
271.0153450445565113
 51
0.0000007026654424
  0
LINE
  5
27FBA
  8
0
 10
3225.3993783184218955
 20
203.207919015828594
 30
0.0
 11
3225.3993783184218955
 21
203.1547694095287113
 31
0.0
  0
LINE
  5
27FBB
  8
0
 10
3225.3993783184218955
 20
203.1547694095287113
 30
0.0
 11
3225.4052838302218333
 21
203.1488638977286882
 31
0.0
  0
LINE
  5
27FBC
  8
0
 10
3226.2458350113229244
 20
203.1547694095287113
 30
0.0
 11
3225.3993783184218955
 21
203.1547694095287113
 31
0.0
  0
LINE
  5
27FBD
  8
0
 10
3226.4623704443220049
 20
203.2276041696285915
 30
0.0
 11
3226.0686696569218839
 21
203.22760797772861
 31
0.0
  0
LINE
  5
27FBE
  8
0
 10
3225.5765436727228916
 20
203.2276041696285915
 30
0.0
 11
3225.1828428853232253
 21
203.2276041696285915
 31
0.0
  0
LINE
  5
27FBF
  8
0
 10
3226.0686696569218839
 20
203.6213048426286889
 30
0.0
 11
3226.0686696569218839
 21
203.22760797772861
 31
0.0
  0
ARC
  5
27FC0
  8
0
 10
3225.7683145017981587
 20
204.0047632307243077
 30
0.0
 40
0.8331767558381041
 50
286.9827459571525878
 51
291.1305324610145249
  0
ARC
  5
27FC1
  8
0
 10
3225.8226066648221604
 20
202.9088358421433895
 30
0.0
 40
0.7537632737187678
 50
70.9467975911312436
 51
109.0532024064152949
  0
LINE
  5
27FC2
  8
0
 10
3225.5765436727228916
 20
203.6213048426803027
 30
0.0
 11
3225.5765436727228916
 21
203.2276041696285915
 31
0.0
  0
ARC
  5
27FC3
  8
0
 10
3225.8856864013691848
 20
204.0301696103568077
 30
0.0
 40
0.8600468087998931
 50
248.9336558104043036
 51
252.9507926426342124
  0
LINE
  5
27FC4
  8
0
 10
3226.0686696569218839
 20
203.6213048426286889
 30
0.0
 11
3225.5765436727228916
 21
203.6213048426286889
 31
0.0
  0
LINE
  5
27FC5
  8
0
 10
3227.3934728059839472
 20
202.6714754716147127
 30
0.0
 11
3227.3934728060321504
 21
202.8529387339287098
 31
0.0
  0
ARC
  5
27FC6
  8
0
 10
3227.4013468217358422
 20
202.8529387339243044
 30
0.0
 40
0.0078740157043367
 50
90.0000000315527444
 51
179.9999999684293073
  0
LINE
  5
27FC7
  8
0
 10
3227.40134682173084
 20
202.8608127496287068
 30
0.0
 11
3227.9446535757319907
 21
202.8608127499277884
 31
0.0
  0
ARC
  5
27FC8
  8
0
 10
3227.9446535757360834
 20
202.8529384015251935
 30
0.0
 40
0.0078743484026802
 50
0.002418653123748
 51
90.0000000315527444
  0
LINE
  5
27FC9
  8
0
 10
3227.9525279241320277
 20
202.8529387339287098
 30
0.0
 11
3227.9525357902780343
 21
202.6665966028548098
 31
0.0
  0
LINE
  5
27FCA
  8
0
 10
3228.3816617849602153
 20
201.7654934861481877
 30
0.0
 11
3230.6015678821768233
 21
201.8704718638092004
 31
0.0
  0
LINE
  5
27FCB
  8
0
 10
3231.8679643258160468
 20
202.5016251839240056
 30
0.0
 11
3228.3816617833790588
 21
202.3370010358734987
 31
0.0
  0
ARC
  5
27FCC
  8
0
 10
3231.9675533641661787
 20
201.5160163142938075
 30
0.0
 40
1.4118007322380151
 50
185.4142302325334128
 51
194.7814414327191912
  0
ARC
  5
27FCD
  8
0
 10
3231.0241680818407985
 20
201.2670900444678068
 30
0.0
 40
0.436126565972096
 50
194.7814414327175996
 51
214.1300725491529136
  0
ARC
  5
27FCE
  8
0
 10
3230.9084710541328604
 20
201.188668674594112
 30
0.0
 40
0.2963563492831367
 50
214.1300725491529136
 51
256.8328418955243251
  0
ARC
  5
27FCF
  8
0
 10
3231.239963999552856
 20
202.605648954905007
 30
0.0
 40
1.751595397567951
 50
256.8328418955243251
 51
265.564064144456097
  0
ARC
  5
27FD0
  8
0
 10
3232.3110654761840124
 20
222.090894127802386
 30
0.0
 40
21.2658504247946887
 50
266.747416982708387
 51
269.5533415309761835
  0
ARC
  5
27FD1
  8
0
 10
3232.9792021509201732
 20
257.9509221890775734
 30
0.0
 40
57.1313187490977867
 50
269.1636533964702949
 51
270.139027845170574
  0
ARC
  5
27FD2
  8
0
 10
3234.2681082299550326
 20
201.5160163142938075
 30
0.0
 40
1.4118007322380151
 50
345.2185585672808088
 51
354.5857697674649103
  0
ARC
  5
27FD3
  8
0
 10
3235.2114935122808674
 20
201.2670900444678068
 30
0.0
 40
0.436126565972096
 50
325.8699274508471149
 51
345.2185585672822867
  0
ARC
  5
27FD4
  8
0
 10
3235.3271905399888055
 20
201.188668674594112
 30
0.0
 40
0.2963563492831367
 50
283.1671581044756749
 51
325.8699274508471149
  0
ARC
  5
27FD5
  8
0
 10
3234.99569759456881
 20
202.605648954905007
 30
0.0
 40
1.751595397567951
 50
274.4359358555440167
 51
283.1671581044756749
  0
ARC
  5
27FD6
  8
0
 10
3233.9245961179390179
 20
222.090894127802386
 30
0.0
 40
21.2658504247946887
 50
270.4466584690238165
 51
273.252583017291613
  0
ARC
  5
27FD7
  8
0
 10
3233.2564594427099109
 20
257.9509222697803921
 30
0.0
 40
57.1313188297992411
 50
269.8609721555067722
 51
270.836346602826211
  0
CIRCLE
  5
27FD8
  8
0
 10
3233.117831014631065
 20
204.526816653628714
 30
0.0
 40
0.0925196849999992
  0
CIRCLE
  5
27FD9
  8
0
 10
3233.117831014631065
 20
204.526816653628714
 30
0.0
 40
0.1338582676999991
  0
LINE
  5
27FDA
  8
0
 10
3232.3861485529409947
 20
204.760172298290513
 30
0.0
 11
3233.8495134791269265
 21
204.760172298290513
 31
0.0
  0
LINE
  5
27FDB
  8
0
 10
3233.0194058177321494
 20
205.0386276773286056
 30
0.0
 11
3233.0194058177321494
 21
204.9992575985286862
 31
0.0
  0
LINE
  5
27FDC
  8
0
 10
3233.0194058177321494
 20
204.9992575985286862
 30
0.0
 11
3233.2162562114308457
 21
204.9992575985286862
 31
0.0
  0
LINE
  5
27FDD
  8
0
 10
3233.2162562114308457
 20
204.9992575985286862
 30
0.0
 11
3233.2162562114308457
 21
205.0386276773286056
 31
0.0
  0
ATTDEF
  5
28179
  8
DEFPOINTS
 10
3222.8709560619090553
 20
205.0368396921616068
 30
0.0
 40
0.001
  1
K-76699T-9
  3

  2
MODELNUMBER
 70
     0
1001
ACDBATTR
1070
     0
1070
     1
  0
ATTDEF
  5
2817A
  8
DEFPOINTS
 10
3222.8709560619090553
 20
205.0351730254949985
 30
0.0
 40
0.001
  1
STANCE
  3

  2
TRADENAME
 70
     0
1001
ACDBATTR
1070
     0
1070
     1
  0
ATTDEF
  5
2817B
  8
DEFPOINTS
 10
3222.8709560619090553
 20
205.0335063588283049
 30
0.0
 40
0.001
  1
BATH AND SHOWER FAUCET
  3

  2
PRODUCT
 70
     0
1001
ACDBATTR
1070
     0
1070
     1
  0
ENDSEC
  0
EOF
