  0
SECTION
  2
HEADER
  9
$ACADVER
  1
AC1009
  9
$INSBASE
 10
3256.4634915446308696
 20
143.8604956239786077
 30
0.0
  9
$EXTMIN
 10
3251.4555505584307866
 20
124.7677609598658961
 30
-0.0000000349181948
  9
$EXTMAX
 10
3256.6731408255141105
 20
176.0164671934693956
 30
0.0000000814935746
  9
$LIMMIN
 10
0.0
 20
0.0
  9
$LIMMAX
 10
11.6929133858000007
 20
8.2677165353999982
  9
$ORTHOMODE
 70
     0
  9
$REGENMODE
 70
     1
  9
$FILLMODE
 70
     1
  9
$QTEXTMODE
 70
     0
  9
$MIRRTEXT
 70
     0
  9
$DRAGMODE
 70
     2
  9
$LTSCALE
 40
0.6431102362
  9
$OSMODE
 70
  2039
  9
$ATTMODE
 70
     1
  9
$TEXTSIZE
 40
0.2
  9
$TRACEWID
 40
0.05
  9
$TEXTSTYLE
  7
STANDARD
  9
$CLAYER
  8
0
  9
$CELTYPE
  6
BYLAYER
  9
$CECOLOR
 62
   256
  9
$DIMSCALE
 40
1.0
  9
$DIMASZ
 40
0.1875
  9
$DIMEXO
 40
0.0625
  9
$DIMDLI
 40
0.4443307087
  9
$DIMRND
 40
0.0
  9
$DIMDLE
 40
0.0
  9
$DIMEXE
 40
0.125
  9
$DIMTP
 40
0.01
  9
$DIMTM
 40
0.01
  9
$DIMTXT
 40
2.0
  9
$DIMCEN
 40
0.1052362205
  9
$DIMTSZ
 40
0.0
  9
$DIMTOL
 70
     1
  9
$DIMLIM
 70
     0
  9
$DIMTIH
 70
     1
  9
$DIMTOH
 70
     1
  9
$DIMSE1
 70
     0
  9
$DIMSE2
 70
     0
  9
$DIMTAD
 70
     0
  9
$DIMZIN
 70
     0
  9
$DIMBLK
  1

  9
$DIMASO
 70
     1
  9
$DIMSHO
 70
     1
  9
$DIMPOST
  1
\X
  9
$DIMAPOST
  1

  9
$DIMALT
 70
     1
  9
$DIMALTD
 70
     2
  9
$DIMALTF
 40
25.3999999999999986
  9
$DIMLFAC
 40
1.0
  9
$DIMTOFL
 70
     0
  9
$DIMTVP
 40
0.0
  9
$DIMTIX
 70
     0
  9
$DIMSOXD
 70
     0
  9
$DIMSAH
 70
     0
  9
$DIMBLK1
  1

  9
$DIMBLK2
  1

  9
$DIMSTYLE
  2
STANDARD
  9
$DIMCLRD
 70
     0
  9
$DIMCLRE
 70
     0
  9
$DIMCLRT
 70
     0
  9
$DIMTFAC
 40
1.0
  9
$DIMGAP
 40
0.09
  9
$LUNITS
 70
     2
  9
$LUPREC
 70
     4
  9
$SKETCHINC
 40
0.1
  9
$FILLETRAD
 40
0.0
  9
$AUNITS
 70
     0
  9
$AUPREC
 70
     0
  9
$MENU
  1
.
  9
$ELEVATION
 40
0.0
  9
$PELEVATION
 40
0.0
  9
$THICKNESS
 40
0.0
  9
$LIMCHECK
 70
     0
  9
$BLIPMODE
 70
     0
  9
$CHAMFERA
 40
0.0
  9
$CHAMFERB
 40
0.0
  9
$SKPOLY
 70
     0
  9
$TDCREATE
 40
2458060.468368056230247
  9
$TDUPDATE
 40
2459194.593900463078171
  9
$TDINDWG
 40
0.6389075231
  9
$TDUSRTIMER
 40
0.6389075231
  9
$USRTIMER
 70
     1
  9
$ANGBASE
 50
0.0
  9
$ANGDIR
 70
     0
  9
$PDMODE
 70
     0
  9
$PDSIZE
 40
0.3125
  9
$PLINEWID
 40
0.0
  9
$COORDS
 70
     1
  9
$SPLFRAME
 70
     0
  9
$SPLINETYPE
 70
     6
  9
$SPLINESEGS
 70
     8
  9
$ATTDIA
 70
     1
  9
$ATTREQ
 70
     1
  9
$HANDLING
 70
     1
  9
$HANDSEED
  5
2865E
  9
$SURFTAB1
 70
     6
  9
$SURFTAB2
 70
     6
  9
$SURFTYPE
 70
     6
  9
$SURFU
 70
     6
  9
$SURFV
 70
     6
  9
$UCSNAME
  2

  9
$UCSORG
 10
0.0
 20
0.0
 30
0.0
  9
$UCSXDIR
 10
1.0
 20
0.0
 30
0.0
  9
$UCSYDIR
 10
0.0
 20
1.0
 30
0.0
  9
$PUCSNAME
  2

  9
$PUCSORG
 10
0.0
 20
0.0
 30
0.0
  9
$PUCSXDIR
 10
1.0
 20
0.0
 30
0.0
  9
$PUCSYDIR
 10
0.0
 20
1.0
 30
0.0
  9
$USERI1
 70
     0
  9
$USERI2
 70
     0
  9
$USERI3
 70
     0
  9
$USERI4
 70
     0
  9
$USERI5
 70
     0
  9
$USERR1
 40
0.0
  9
$USERR2
 40
0.0
  9
$USERR3
 40
0.0
  9
$USERR4
 40
0.0
  9
$USERR5
 40
0.0
  9
$WORLDVIEW
 70
     1
  9
$SHADEDGE
 70
     3
  9
$SHADEDIF
 70
    70
  9
$TILEMODE
 70
     1
  9
$MAXACTVP
 70
    64
  9
$PLIMCHECK
 70
     0
  9
$PEXTMIN
 10
1.0000000000000000E+20
 20
1.0000000000000000E+20
 30
1.0000000000000000E+20
  9
$PEXTMAX
 10
-1.0000000000000000E+20
 20
-1.0000000000000000E+20
 30
-1.0000000000000000E+20
  9
$PLIMMIN
 10
0.0
 20
0.0
  9
$PLIMMAX
 10
12.0
 20
9.0
  9
$UNITMODE
 70
     0
  9
$VISRETAIN
 70
     1
  9
$PLINEGEN
 70
     0
  9
$PSLTSCALE
 70
     1
  0
ENDSEC
  0
SECTION
  2
TABLES
  0
TABLE
  2
VPORT
 70
     1
  0
VPORT
  2
*ACTIVE
 70
     0
 10
0.0
 20
0.0
 11
1.0
 21
1.0
 12
-49.6287695424025515
 22
-44.8693974992200992
 13
0.0
 23
0.0
 14
1.0
 24
1.0
 15
0.0
 25
0.0
 16
0.0
 26
0.0
 36
96.5995694866707311
 17
3303.693115234375
 27
195.2615115758877096
 37
0.0
 40
51.6751864519137314
 41
2.6486111111111108
 42
50.0
 43
0.0
 44
0.0
 50
0.0
 51
0.0
 71
     0
 72
   100
 73
     1
 74
     1
 75
     0
 76
     0
 77
     0
 78
     0
  0
ENDTAB
  0
TABLE
  2
LTYPE
 70
     2
  0
LTYPE
  2
CONTINUOUS
 70
     0
  3
Solid line
 72
    65
 73
     0
 40
0.0
  0
LTYPE
  2
PHANTOM2
 70
     0
  3
___ _ _ ___ _ _ ___ _ _ ___ _ _
 72
    65
 73
     6
 40
1.25
 49
0.625
 49
-0.125
 49
0.125
 49
-0.125
 49
0.125
 49
-0.125
  0
ENDTAB
  0
TABLE
  2
LAYER
 70
     2
  0
LAYER
  2
0
 70
     0
 62
   255
  6
CONTINUOUS
  0
LAYER
  2
DEFPOINTS
 70
     0
 62
     7
  6
CONTINUOUS
  0
ENDTAB
  0
TABLE
  2
STYLE
 70
     1
  0
STYLE
  2
STANDARD
 70
     0
 40
0.0
 41
0.8
 50
0.0
 71
     0
 42
0.2
  3
txt
  4

  0
ENDTAB
  0
TABLE
  2
VIEW
 70
     0
  0
ENDTAB
  0
TABLE
  2
UCS
 70
     0
  0
ENDTAB
  0
TABLE
  2
APPID
 70
     9
  0
APPID
  2
ACAD
 70
     0
  0
APPID
  2
ACAD_MLEADERVER
 70
     0
  0
APPID
  2
ACAD_EXEMPT_FROM_CAD_STANDARDS
 70
     0
  0
APPID
  2
ACAD_NAV_VCDISPLAY
 70
     0
  0
APPID
  2
ACAECLAYERSTANDARD
 70
     0
  0
APPID
  2
ACCMTRANSPARENCY
 70
     0
  0
APPID
  2
ACAD_DSTYLE_DIMJAG
 70
     0
  0
APPID
  2
ACAD_DSTYLE_DIMTALN
 70
     0
  0
APPID
  2
ACDBATTR
 70
     0
  0
ENDTAB
  0
TABLE
  2
DIMSTYLE
 70
     1
  0
DIMSTYLE
  2
STANDARD
 70
     0
  3

  4

  5

  6

  7

 40
1.0
 41
0.1875
 42
0.0625
 43
0.38
 44
0.125
 45
0.0
 46
0.0
 47
0.01
 48
0.01
140
0.15625
141
0.09
142
0.0
143
25.3999999999999986
144
1.0
145
0.0
146
1.0
147
0.09
 71
     1
 72
     0
 73
     1
 74
     1
 75
     0
 76
     0
 77
     0
 78
     4
170
     0
171
     2
172
     0
173
     0
174
     0
175
     0
176
     0
177
     0
178
     0
  0
ENDTAB
  0
ENDSEC
  0
SECTION
  2
BLOCKS
  0
BLOCK
  8
0
  2
$MODEL_SPACE
 70
     0
 10
0.0
 20
0.0
 30
0.0
  3
$MODEL_SPACE
  1

  0
ENDBLK
  5
21
  8
0
  0
BLOCK
 67
     1
  8
0
  2
$PAPER_SPACE
 70
     0
 10
0.0
 20
0.0
 30
0.0
  3
$PAPER_SPACE
  1

  0
ENDBLK
  5
1D
 67
     1
  8
0
  0
BLOCK
  8
0
  2
_FILLED
 70
     0
 10
0.0
 20
0.0
 30
0.0
  3
_FILLED
  1

  0
SOLID
  5
24AE6
  8
0
  6
BYBLOCK
 62
     0
 10
0.0
 20
0.0
 30
0.0
 11
-1.0
 21
0.1666666667
 31
0.0
 12
-1.0
 22
-0.1666666667
 32
0.0
 13
-1.0
 23
-0.1666666667
 33
0.0
  0
ENDBLK
  5
24AE7
  8
0
  6
BYBLOCK
 62
     0
  0
ENDSEC
  0
SECTION
  2
ENTITIES
  0
ATTDEF
  5
244BF
  8
DEFPOINTS
 10
3256.4636965396011874
 20
143.8640182485015941
 30
0.0
 40
0.001
  1
K-76699T-9
  3

  2
MODELNUMBER
 70
     0
1001
ACDBATTR
1070
     0
1070
     1
  0
ATTDEF
  5
244C0
  8
DEFPOINTS
 10
3256.4636965396011874
 20
143.8623515818349858
 30
0.0
 40
0.001
  1
STANCE
  3

  2
TRADENAME
 70
     0
1001
ACDBATTR
1070
     0
1070
     1
  0
ATTDEF
  5
244C1
  8
DEFPOINTS
 10
3256.4636965396011874
 20
143.8606849151682923
 30
0.0
 40
0.001
  1
BATH AND SHOWER FAUCET
  3

  2
PRODUCT
 70
     0
1001
ACDBATTR
1070
     0
1070
     1
  0
ARC
  5
271A7
  8
0
 10
3251.7557441151147941
 20
175.8073314263139935
 30
0.0
 40
0.0394797022361402
 50
106.9278453429412963
 51
178.3687900141856915
  0
LINE
  5
271A8
  8
0
 10
3251.7162804117378982
 20
175.8084552610129947
 30
0.0
 11
3251.7149446697030726
 21
175.7474164695348122
 31
0.0
  0
ARC
  5
271A9
  8
0
 10
3251.6436257928180567
 20
175.7361160403532949
 30
0.0
 40
0.0722085999022637
 50
6.4016178231787544
 51
9.0036276076869264
  0
ARC
  5
271AA
  8
0
 10
3247.1434700020899982
 20
173.7202376689702135
 30
0.0
 40
4.9998689278986221
 50
22.8872508561097199
 51
23.8783750460574993
  0
ARC
  5
271AB
  8
0
 10
3250.2101555994149749
 20
175.0707712481259932
 30
0.0
 40
1.650173671313429
 50
14.5104428287751102
 51
21.0982510952671909
  0
ARC
  5
271AC
  8
0
 10
3443.2408206468048775
 20
225.3024681716144073
 30
0.0
 40
197.8092497894774908
 50
194.5870054247390044
 51
195.8452651419842141
  0
ARC
  5
271AD
  8
0
 10
3248.8315414558451266
 20
170.2842739780531076
 30
0.0
 40
4.2379621462852377
 50
7.3952777285172173
 51
13.7637207325192694
  0
ARC
  5
271AE
  8
0
 10
3255.8248753509460585
 20
171.2281767641437966
 30
0.0
 40
2.8189217570273839
 50
188.125227467081686
 51
194.3346337494944862
  0
ARC
  5
271AF
  8
0
 10
3250.9226156913609884
 20
169.9740995977446119
 30
0.0
 40
2.2412028919103739
 50
5.1347256180621281
 51
14.3680851874344402
  0
ARC
  5
271B0
  8
0
 10
3251.5945583144712145
 20
170.0699267444886118
 30
0.0
 40
1.563779025391467
 50
350.2912228098867899
 51
3.8410612875847301
  0
ARC
  5
271B1
  8
0
 10
3253.1476178296211401
 20
169.8043431554561096
 30
0.0
 40
0.0118258400427157
 50
170.9149626349530138
 51
187.4690246477807136
  0
ARC
  5
271B2
  8
0
 10
3245.2676195773478867
 20
168.7682837357523056
 30
0.0
 40
7.9359909413087522
 50
6.3524717447413277
 51
7.4902967759295667
  0
ARC
  5
271B3
  8
0
 10
3228.9755953444519037
 20
167.1021854380450122
 30
0.0
 40
24.3127704515037202
 50
2.3059319175517472
 51
6.0066250073701957
  0
ARC
  5
271B4
  8
0
 10
3212.4101462210951468
 20
166.9684208696621965
 30
0.0
 40
40.8736610134184417
 50
359.1186805199455989
 51
1.5589615782319051
  0
ARC
  5
271B5
  8
0
 10
3173.5621322817842156
 20
169.0292869633966006
 30
0.0
 40
80.7610652631295949
 50
358.091901773003201
 51
359.3984260683752154
  0
ARC
  5
271B6
  8
0
 10
3239.3670310432357837
 20
168.5732587040569115
 30
0.0
 40
14.95685029805664
 50
358.4985518985575936
 51
11.2987234189299492
  0
ARC
  5
271B7
  8
0
 10
3235.1913978763650448
 20
167.1724874959805049
 30
0.0
 40
19.3339830629812504
 50
12.9452046761686095
 51
20.4154928571812206
  0
ARC
  5
271B8
  8
0
 10
3241.5135835809760465
 20
169.6767330014951085
 30
0.0
 40
12.5361635771861994
 50
19.7682653250522193
 51
26.7472106609633506
  0
ARC
  5
271B9
  8
0
 10
3245.6682605004380093
 20
171.6602155559652942
 30
0.0
 40
7.9339698326801926
 50
27.4591420003538715
 51
32.8841756277852824
  0
ARC
  5
271BA
  8
0
 10
3252.261033918252906
 20
175.9216620508611868
 30
0.0
 40
0.0838413551333616
 50
33.4738353572058287
 51
53.6051424550069768
  0
ARC
  5
271BB
  8
0
 10
3252.2682451304758615
 20
175.9223259888408961
 30
0.0
 40
0.0792131780345326
 50
57.5218111159049812
 51
87.9119269394166452
  0
ARC
  5
271BC
  8
0
 10
3252.276569723486773
 20
175.8838231059606017
 30
0.0
 40
0.1177890779299326
 50
92.6463282718024033
 51
105.7651845099676962
  0
LINE
  5
271BD
  8
0
 10
3252.2445669598951099
 20
175.9971813434295882
 30
0.0
 11
3251.7442489220397874
 21
175.8451005595422885
 31
0.0
  0
LINE
  5
271BE
  8
0
 10
3251.7265407263948873
 20
175.718775142269692
 30
0.0
 11
3251.7194561415772114
 21
175.7168419017872907
 31
0.0
  0
ARC
  5
271BF
  8
0
 10
3251.7225987996312142
 20
175.7053252654773985
 30
0.0
 40
0.0119377222089732
 50
105.2632555044987015
 51
179.5399821481861977
  0
LINE
  5
271C0
  8
0
 10
3251.7106614621848166
 20
175.7054211103437069
 30
0.0
 11
3251.7156235858228683
 21
175.3789049702926093
 31
0.0
  0
ARC
  5
271C1
  8
0
 10
3251.6862841892229881
 20
175.407474445499787
 30
0.0
 40
0.0292203209398747
 50
286.2701618476182261
 51
352.404202118400292
  0
ARC
  5
271C2
  8
0
 10
3251.3847198819130426
 20
176.4407411508483108
 30
0.0
 40
1.105594380375001
 50
284.5198116937743862
 51
286.2701618476182261
  0
ARC
  5
271C3
  8
0
 10
3251.6685795174839768
 20
175.3443479179969984
 30
0.0
 40
0.0269491001077986
 50
104.3316203602886958
 51
184.5105813448963943
  0
LINE
  5
271C4
  8
0
 10
3251.6417138834030993
 20
175.3422285544089902
 30
0.0
 11
3251.6460231265259608
 21
175.261281728202988
 31
0.0
  0
ARC
  5
271C5
  8
0
 10
3251.6733979655477924
 20
175.2628704713177967
 30
0.0
 40
0.0274209029051607
 50
183.3215274513426039
 51
222.8489953820509868
  0
LINE
  5
271C6
  8
0
 10
3251.7246816618699086
 20
175.3472818843181926
 30
0.0
 11
3251.7215482604469798
 21
175.3875603416254876
 31
0.0
  0
ARC
  5
271C7
  8
0
 10
3251.6411629946042012
 20
175.3813068919349121
 30
0.0
 40
0.0806281377545626
 50
4.448279195345064
 51
8.4474288865757821
  0
ARC
  5
271C8
  8
0
 10
3251.6835153900360638
 20
175.3875967773412015
 30
0.0
 40
0.037811224539757
 50
8.4474288865741691
 51
11.7165100031667802
  0
ARC
  5
271C9
  8
0
 10
3251.7193304171410091
 20
175.3950244763753119
 30
0.0
 40
0.0012340885189196
 50
11.7165100031301002
 51
25.6240424027223703
  0
ARC
  5
271CA
  8
0
 10
3251.7200264951911777
 20
175.3953583403072116
 30
0.0
 40
0.000462084777018
 50
25.6240424026773397
 51
40.1854629179229335
  0
ARC
  5
271CB
  8
0
 10
3251.7203330880720387
 20
175.3956172980672932
 30
0.0
 40
0.0000607640623924
 50
40.1854629168282997
 51
121.9727223844633954
  0
ARC
  5
271CC
  8
0
 10
3251.7206504784107892
 20
175.3953948331852075
 30
0.0
 40
0.0004441602646495
 50
141.9084849025379071
 51
168.8741638832617014
  0
ARC
  5
271CD
  8
0
 10
3251.7361519530841178
 20
175.3928302525183085
 30
0.0
 40
0.0161561490232173
 50
170.5584102778790054
 51
178.8644422196537107
  0
ARC
  5
271CE
  8
0
 10
3251.6702216535368279
 20
175.3936268411555091
 30
0.0
 40
0.049779603240005
 50
355.152847121797322
 51
359.4516520388704066
  0
ARC
  5
271CF
  8
0
 10
3251.6950003757929153
 20
175.3933954699610922
 30
0.0
 40
0.0251390894996103
 50
336.7775250665225144
 51
350.9024212640194946
  0
ARC
  5
271D0
  8
0
 10
3251.6914766860641066
 20
175.3949412885656898
 30
0.0
 40
0.0289868292807409
 50
326.4112670072486253
 51
336.7158979083160943
  0
ARC
  5
271D1
  8
0
 10
3251.6919767220911126
 20
175.3947443803498061
 30
0.0
 40
0.0284615719061756
 50
286.2012774385697753
 51
326.1845854579293018
  0
ARC
  5
271D2
  8
0
 10
3251.8050814109360545
 20
174.9479235360905989
 30
0.0
 40
0.432470644797826
 50
104.0736667379395044
 51
108.4814447814657967
  0
ARC
  5
271D3
  8
0
 10
3251.6736505381049938
 20
175.3326500081053894
 30
0.0
 40
0.0260623850588973
 50
102.5457577473019057
 51
171.4928001184474056
  0
ARC
  5
271D4
  8
0
 10
3251.7399926580678766
 20
175.3265591700152015
 30
0.0
 40
0.0926531662840404
 50
173.8374070416242034
 51
183.8417438176010137
  0
ARC
  5
271D5
  8
0
 10
3257.9525660894228167
 20
175.6813641271864981
 30
0.0
 40
6.3153453780991056
 50
183.2770641010087047
 51
183.8748153874477964
  0
ARC
  5
271D6
  8
0
 10
3251.7183782492747923
 20
175.2598118290298999
 30
0.0
 40
0.0669249009430919
 50
184.4719490248056104
 51
193.4701915983625895
  0
ARC
  5
271D7
  8
0
 10
3251.6802427743450608
 20
175.251500187697701
 30
0.0
 40
0.0279138500705956
 50
195.1130213651568113
 51
232.7236813184705966
  0
ARC
  5
271D8
  8
0
 10
3251.6799177668449374
 20
175.2513428106477136
 30
0.0
 40
0.027592260724512
 50
233.0627769838795018
 51
257.8043014744517905
  0
ARC
  5
271D9
  8
0
 10
3251.8393797743301548
 20
175.2874178689193911
 30
0.0
 40
0.0637613640561361
 50
171.437349140986413
 51
180.6040859011665987
  0
ARC
  5
271DA
  8
0
 10
3251.7867601474849835
 20
175.2953407572734932
 30
0.0
 40
0.0105486091077415
 50
157.4070180720771077
 51
171.4373491409783128
  0
ARC
  5
271DB
  8
0
 10
3251.7780374983440197
 20
175.2989703921830937
 30
0.0
 40
0.0011009185109082
 50
59.8834683252816617
 51
157.407018072021998
  0
ARC
  5
271DC
  8
0
 10
3251.7565467410558995
 20
175.2853411317364873
 30
0.0
 40
0.0264295785323474
 50
14.0575008768893497
 51
33.4846641223417905
  0
ARC
  5
271DD
  8
0
 10
3251.2803542275341897
 20
175.1579766980892998
 30
0.0
 40
0.5193574075940779
 50
8.8857689585583781
 51
14.9274272593655795
  0
ARC
  5
271DE
  8
0
 10
3250.8123531084038405
 20
175.0713020365849957
 30
0.0
 40
0.9952193721908933
 50
4.6799375420670843
 51
9.6540554610416063
  0
ARC
  5
271DF
  8
0
 10
3251.5904346975089538
 20
175.1318386479003095
 30
0.0
 40
0.2148158154950223
 50
355.5584879054014209
 51
5.5197434936490239
  0
ARC
  5
271E0
  8
0
 10
3251.7914421091691111
 20
175.1166561811068902
 30
0.0
 40
0.0132432605887001
 50
335.6069192805107946
 51
353.7003063609466267
  0
ARC
  5
271E1
  8
0
 10
3251.8015972204170794
 20
175.1120708044747118
 30
0.0
 40
0.0021010017190104
 50
301.0806647910773108
 51
335.1174515454525249
  0
ARC
  5
271E2
  8
0
 10
3251.8022604683451391
 20
175.1113135691716991
 30
0.0
 40
0.0011241167700033
 50
237.5199400115263018
 51
292.0154352622294027
  0
ARC
  5
271E3
  8
0
 10
3251.816080612659789
 20
175.1229266062780994
 30
0.0
 40
0.0191267551368978
 50
195.6337850829625893
 51
221.0517678597136069
  0
ARC
  5
271E4
  8
0
 10
3251.8926561532020969
 20
175.1511816943230997
 30
0.0
 40
0.1006984837270954
 50
195.7165318971755141
 51
199.3767115513423107
  0
ARC
  5
271E5
  8
0
 10
3251.7774843828901794
 20
175.1109269212755919
 30
0.0
 40
0.0223841007625947
 50
35.4347390382939622
 51
49.5066427822920971
  0
ARC
  5
271E6
  8
0
 10
3251.7747397628709223
 20
175.1076247045866126
 30
0.0
 40
0.0266776818927338
 50
49.6292659918758687
 51
105.5960523541715048
  0
ARC
  5
271E7
  8
0
 10
3250.338883676441128
 20
180.309266973176392
 30
0.0
 40
5.369503021478911
 50
285.289230627306722
 51
285.4307637921978085
  0
ARC
  5
271E8
  8
0
 10
3251.7481322941730468
 20
175.1575163625415996
 30
0.0
 40
0.0284952160284676
 50
232.2474633805300073
 51
283.4853884116523091
  0
ARC
  5
271E9
  8
0
 10
3251.7557635666148599
 20
175.1634745520607908
 30
0.0
 40
0.0379534610706581
 50
193.3432717614238925
 51
228.6433369189840903
  0
ARC
  5
271EA
  8
0
 10
3252.039772720811925
 20
175.2324959605610957
 30
0.0
 40
0.3302287686052489
 50
186.3523564898320046
 51
193.6231705141622115
  0
ARC
  5
271EB
  8
0
 10
3252.1511318529828714
 20
175.2448931331211099
 30
0.0
 40
0.4422758399888894
 50
182.263489203793398
 51
186.3523564898320046
  0
ARC
  5
271EC
  8
0
 10
3251.7554458071808767
 20
175.2292532845989115
 30
0.0
 40
0.0462808252421438
 50
152.9196766258791911
 51
182.263489203793398
  0
ARC
  5
271ED
  8
0
 10
3251.738902576736109
 20
175.2345837002771987
 30
0.0
 40
0.0292574896707947
 50
122.6311738117652936
 51
147.4572872894387103
  0
ARC
  5
271EE
  8
0
 10
3251.7593496067238448
 20
175.1825295958367974
 30
0.0
 40
0.0848177250908332
 50
102.4449662931131968
 51
115.2820668075454051
  0
ARC
  5
271EF
  8
0
 10
3469.9475395271861089
 20
-617.1833503924309525
 30
0.0
 40
821.9422197004516875
 50
105.3940884656338994
 51
105.3952774294108963
  0
ARC
  5
271F0
  8
0
 10
3251.7506327610071821
 20
175.2954246343091995
 30
0.0
 40
0.0264534485741384
 50
285.0812631244027102
 51
340.8473525993867952
  0
ARC
  5
271F1
  8
0
 10
3251.6933640606371227
 20
175.2667721346734027
 30
0.0
 40
0.0660484752423873
 50
282.238326410994091
 51
285.3402939900810793
  0
ARC
  5
271F2
  8
0
 10
3251.7015371396000774
 20
175.2290921919729954
 30
0.0
 40
0.0274923174767049
 50
221.7563350337318013
 51
282.238326410994091
  0
ARC
  5
271F3
  8
0
 10
3251.7029810539311256
 20
175.2303812216439098
 30
0.0
 40
0.0294279016492044
 50
198.2147486697855925
 51
221.7563350337331087
  0
ARC
  5
271F4
  8
0
 10
3251.7248312658762188
 20
175.2375714388554968
 30
0.0
 40
0.0524307489849882
 50
194.579668526226186
 51
198.2147486697901968
  0
ARC
  5
271F5
  8
0
 10
3252.0563945728449653
 20
175.2944381985543032
 30
0.0
 40
0.3886730654523706
 50
184.1263107140433135
 51
190.3853140234188004
  0
ARC
  5
271F6
  8
0
 10
3252.004960075082181
 20
175.3016226986090089
 30
0.0
 40
0.338063559226222
 50
178.7220359698918912
 51
185.968380909529202
  0
ARC
  5
271F7
  8
0
 10
3251.6957908356739608
 20
175.3085197633728001
 30
0.0
 40
0.0288173982174621
 50
141.4972954691006066
 51
178.7220359698951029
  0
ARC
  5
271F8
  8
0
 10
3251.6952752148008585
 20
175.3089299464741941
 30
0.0
 40
0.0281585241317393
 50
105.8038173478239941
 51
141.4972954690992992
  0
ARC
  5
271F9
  8
0
 10
3252.2941878680280752
 20
173.1929556074148024
 30
0.0
 40
2.2272591970779558
 50
104.9898994364726974
 51
105.8038173478239941
  0
ARC
  5
271FA
  8
0
 10
3251.7118480560698117
 20
175.367810904829895
 30
0.0
 40
0.0242103721778355
 50
284.9898994364722853
 51
302.0113395161017138
  0
ARC
  5
271FB
  8
0
 10
3251.7078897992178099
 20
175.3741426511359975
 30
0.0
 40
0.0316775542832799
 50
302.011339516100918
 51
321.4274893585313748
  0
ARC
  5
271FC
  8
0
 10
3251.7166529788751177
 20
175.3676111427141961
 30
0.0
 40
0.0207569798893199
 50
320.4408477305652241
 51
352.9931175634862939
  0
ARC
  5
271FD
  8
0
 10
3251.8180605484749321
 20
175.3630594358660915
 30
0.0
 40
0.0808308472244307
 50
175.1581551461748916
 51
178.5682919515332117
  0
ARC
  5
271FE
  8
0
 10
3251.7594631106139786
 20
175.3679402425048011
 30
0.0
 40
0.0220307027726086
 50
168.8089483405630915
 51
174.9434338412181944
  0
ARC
  5
271FF
  8
0
 10
3251.7401707861108662
 20
175.3719058783545108
 30
0.0
 40
0.0023401135340287
 50
147.4846138980666979
 51
172.3848528278157914
  0
ARC
  5
27200
  8
0
 10
3251.7384465149470998
 20
175.3728675883720882
 30
0.0
 40
0.0003869422750494
 50
40.0593227611801126
 51
130.0582372679095045
  0
ARC
  5
27201
  8
0
 10
3251.7321556635752131
 20
175.3692330430272932
 30
0.0
 40
0.0076462658104045
 50
11.8104357337181405
 51
30.5384297912802793
  0
ARC
  5
27202
  8
0
 10
3250.7014564842038453
 20
175.1537128359007056
 30
0.0
 40
1.0606371290358449
 50
11.3590481215212193
 51
11.8104357337181405
  0
ARC
  5
27203
  8
0
 10
3250.8171599282259194
 20
175.2203393713633091
 30
0.0
 40
0.9350453814677209
 50
5.7410580553353689
 51
8.7519049607966544
  0
ARC
  5
27204
  8
0
 10
3249.6499061752929265
 20
175.0910907189941952
 30
0.0
 40
2.1094066679278072
 50
4.8196826604502512
 51
6.0625692230697963
  0
ARC
  5
27205
  8
0
 10
3251.6673095963587912
 20
175.2848510106580022
 30
0.0
 40
0.002243443663533
 50
10.4109589035033991
 51
29.6414389074613602
  0
ARC
  5
27206
  8
0
 10
3251.6356511500071065
 20
175.2767911213028071
 30
0.0
 40
0.034906968966685
 50
8.6819458431859982
 51
14.0347417339612797
  0
ARC
  5
27207
  8
0
 10
3251.4129381885090879
 20
175.2438732861697872
 30
0.0
 40
0.2600391327549474
 50
5.3521828356314431
 51
8.4444839379052183
  0
ARC
  5
27208
  8
0
 10
3251.2394924002610423
 20
175.2251067496488872
 30
0.0
 40
0.434486446604547
 50
3.428234490946191
 51
5.6826699350879428
  0
ARC
  5
27209
  8
0
 10
3251.5251541747111332
 20
175.2411395171008905
 30
0.0
 40
0.1483810532055839
 50
0.0898233775271091
 51
3.8444993240136478
  0
ARC
  5
2720A
  8
0
 10
3251.6512354642909486
 20
175.2412484080327033
 30
0.0
 40
0.0222999245326703
 50
353.8784358844843041
 51
0.3178991679547956
  0
ARC
  5
2720B
  8
0
 10
3251.6698805116038784
 20
175.2393472490145996
 30
0.0
 40
0.0035598052037022
 50
342.895566577855675
 51
352.3015876005446785
  0
ARC
  5
2720C
  8
0
 10
3251.6731080719678175
 20
175.2383733236480055
 30
0.0
 40
0.0001894514970199
 50
304.3859229170437857
 51
337.3151755003012227
  0
ARC
  5
2720D
  8
0
 10
3251.6731623958471573
 20
175.2382939437937068
 30
0.0
 40
0.0000932629058422
 50
236.110216479250397
 51
304.3859229175180872
  0
ARC
  5
2720E
  8
0
 10
3251.6738367541629486
 20
175.238878436645507
 30
0.0
 40
0.0009827144837928
 50
199.6486683385261074
 51
222.3419771418475079
  0
ARC
  5
2720F
  8
0
 10
3251.7282521551592254
 20
175.2526185366010054
 30
0.0
 40
0.057101616809815
 50
186.349375869900598
 51
194.2653101794197141
  0
ARC
  5
27210
  8
0
 10
3252.0701424007429523
 20
175.2954691136777114
 30
0.0
 40
0.4016620130325414
 50
183.5310982036469056
 51
187.0309301317871871
  0
ARC
  5
27211
  8
0
 10
3251.8414775140440724
 20
175.2829984112466946
 30
0.0
 40
0.1726709240528408
 50
179.6228534429833132
 51
184.0741336101282002
  0
ARC
  5
27212
  8
0
 10
3251.6773693878740232
 20
175.2840850873666909
 30
0.0
 40
0.0085592026345688
 50
167.6898188125340141
 51
179.6658759951889124
  0
ARC
  5
27213
  8
0
 10
3251.669215781083949
 20
175.2858749739299071
 30
0.0
 40
0.0002117082226376
 50
118.2921437186241036
 51
170.4923898087025975
  0
ARC
  5
27214
  8
0
 10
3251.6691378928148879
 20
175.2859808480199888
 30
0.0
 40
0.0000836154110723
 50
40.7270739119749194
 51
105.5777344393924011
  0
ARC
  5
27215
  8
0
 10
3251.6689322153138164
 20
175.2857661658526069
 30
0.0
 40
0.0003806221952186
 50
30.7108736693278601
 51
45.0206655136984892
  0
ARC
  5
27216
  8
0
 10
3251.6484763806688534
 20
175.3087098930000991
 30
0.0
 40
0.002243443663533
 50
10.4109589035033991
 51
29.6414389074613602
  0
ARC
  5
27217
  8
0
 10
3251.6168179343171687
 20
175.300650003644904
 30
0.0
 40
0.034906968966685
 50
8.6819458431859982
 51
14.0347417339612797
  0
ARC
  5
27218
  8
0
 10
3251.3941049728191501
 20
175.2677321685119125
 30
0.0
 40
0.2600391327549474
 50
5.3521828356314431
 51
8.4444839379052183
  0
ARC
  5
27219
  8
0
 10
3251.2206591845701951
 20
175.2489656319910125
 30
0.0
 40
0.434486446604547
 50
3.428234490946191
 51
5.6826699350879428
  0
ARC
  5
2721A
  8
0
 10
3251.5063209590211954
 20
175.2649983994429874
 30
0.0
 40
0.1483810532055839
 50
0.0898233775271091
 51
3.8444993240136478
  0
ARC
  5
2721B
  8
0
 10
3251.6324022486001013
 20
175.2651072903748002
 30
0.0
 40
0.0222999245326703
 50
353.8784358844843041
 51
0.3178991679547956
  0
ARC
  5
2721C
  8
0
 10
3251.6510472959139406
 20
175.2632061313566965
 30
0.0
 40
0.0035598052037022
 50
342.895566577855675
 51
352.3015876005446785
  0
ARC
  5
2721D
  8
0
 10
3251.6542748562778797
 20
175.2622322059901023
 30
0.0
 40
0.0001894514970199
 50
304.3859229170437857
 51
337.3151755003012227
  0
ARC
  5
2721E
  8
0
 10
3251.6543291801572195
 20
175.2621528261358037
 30
0.0
 40
0.0000932629058422
 50
236.110216479250397
 51
304.3859229175180872
  0
ARC
  5
2721F
  8
0
 10
3251.6550035384730108
 20
175.2627373189876892
 30
0.0
 40
0.0009827144837928
 50
199.6486683385261074
 51
222.3419771418475079
  0
ARC
  5
27220
  8
0
 10
3251.7094189394688328
 20
175.2764774189431023
 30
0.0
 40
0.057101616809815
 50
186.349375869900598
 51
194.2653101794197141
  0
ARC
  5
27221
  8
0
 10
3252.051309185052105
 20
175.3193279960198083
 30
0.0
 40
0.4016620130325414
 50
183.5310982036469056
 51
187.0309301317871871
  0
ARC
  5
27222
  8
0
 10
3251.8226442983550442
 20
175.3068572935887914
 30
0.0
 40
0.1726709240528408
 50
179.6228534429833132
 51
184.0741336101282002
  0
ARC
  5
27223
  8
0
 10
3251.6585361721849949
 20
175.3079439697089015
 30
0.0
 40
0.0085592026345688
 50
167.6898188125340141
 51
179.6658759951889124
  0
ARC
  5
27224
  8
0
 10
3251.6503825653940112
 20
175.309733856272004
 30
0.0
 40
0.0002117082226376
 50
118.2921437186241036
 51
170.4923898087025975
  0
ARC
  5
27225
  8
0
 10
3251.6503046771258596
 20
175.3098397303621141
 30
0.0
 40
0.0000836154110723
 50
40.7270739119749194
 51
105.5777344393924011
  0
ARC
  5
27226
  8
0
 10
3251.6500989996238786
 20
175.3096250481947891
 30
0.0
 40
0.0003806221952186
 50
30.7108736693278601
 51
45.0206655136984892
  0
ARC
  5
27227
  8
0
 10
3251.7129073151281773
 20
175.2114852051948901
 30
0.0
 40
0.002243443663533
 50
10.4109589035033991
 51
29.6414389074613602
  0
ARC
  5
27228
  8
0
 10
3251.6812488687760379
 20
175.203425315839695
 30
0.0
 40
0.034906968966685
 50
8.6819458431859982
 51
14.0347417339612797
  0
ARC
  5
27229
  8
0
 10
3251.4585359072780193
 20
175.1705074807067035
 30
0.0
 40
0.2600391327549474
 50
5.3521828356314431
 51
8.4444839379052183
  0
ARC
  5
2722A
  8
0
 10
3251.2850901190299737
 20
175.1517409441858035
 30
0.0
 40
0.434486446604547
 50
3.428234490946191
 51
5.6826699350879428
  0
ARC
  5
2722B
  8
0
 10
3251.5707518934800646
 20
175.1677737116378069
 30
0.0
 40
0.1483810532055839
 50
0.0898233775271091
 51
3.8444993240136478
  0
ARC
  5
2722C
  8
0
 10
3251.69683318305988
 20
175.1678826025695059
 30
0.0
 40
0.0222999245326703
 50
353.8784358844843041
 51
0.3178991679547956
  0
ARC
  5
2722D
  8
0
 10
3251.7154782303728098
 20
175.1659814435514875
 30
0.0
 40
0.0035598052037022
 50
342.895566577855675
 51
352.3015876005446785
  0
ARC
  5
2722E
  8
0
 10
3251.7187057907372036
 20
175.1650075181848933
 30
0.0
 40
0.0001894514970199
 50
304.3859229170437857
 51
337.3151755003012227
  0
ARC
  5
2722F
  8
0
 10
3251.7187601146160887
 20
175.1649281383305947
 30
0.0
 40
0.0000932629058422
 50
236.110216479250397
 51
304.3859229175180872
  0
ARC
  5
27230
  8
0
 10
3251.7194344729327895
 20
175.1655126311823949
 30
0.0
 40
0.0009827144837928
 50
199.6486683385261074
 51
222.3419771418475079
  0
ARC
  5
27231
  8
0
 10
3251.7738498739290662
 20
175.1792527311378933
 30
0.0
 40
0.057101616809815
 50
186.349375869900598
 51
194.2653101794197141
  0
ARC
  5
27232
  8
0
 10
3252.1157401195118837
 20
175.2221033082145993
 30
0.0
 40
0.4016620130325414
 50
183.5310982036469056
 51
187.0309301317871871
  0
ARC
  5
27233
  8
0
 10
3251.8870752328139133
 20
175.2096326057836109
 30
0.0
 40
0.1726709240528408
 50
179.6228534429833132
 51
184.0741336101282002
  0
ARC
  5
27234
  8
0
 10
3251.7229671066429546
 20
175.2107192819036072
 30
0.0
 40
0.0085592026345688
 50
167.6898188125340141
 51
179.6658759951889124
  0
ARC
  5
27235
  8
0
 10
3251.7148134998537898
 20
175.212509168466795
 30
0.0
 40
0.0002117082226376
 50
118.2921437186241036
 51
170.4923898087025975
  0
ARC
  5
27236
  8
0
 10
3251.7147356115838193
 20
175.2126150425567914
 30
0.0
 40
0.0000836154110723
 50
40.7270739119749194
 51
105.5777344393924011
  0
ARC
  5
27237
  8
0
 10
3251.7145299340832025
 20
175.2124003603894948
 30
0.0
 40
0.0003806221952186
 50
30.7108736693278601
 51
45.0206655136984892
  0
ARC
  5
27238
  8
0
 10
3251.5955951056112099
 20
174.262934889750511
 30
0.0
 40
0.4404371077961129
 50
6.6874416223581861
 51
13.2618710430601503
  0
ARC
  5
27239
  8
0
 10
3251.8134424144682271
 20
174.2884776604126955
 30
0.0
 40
0.2210974554095047
 50
0.5952805693987163
 51
6.6874416223565678
  0
ARC
  5
2723A
  8
0
 10
3251.9531788011540812
 20
174.2899295186417135
 30
0.0
 40
0.0813535265375987
 50
347.5213760978131177
 51
0.5952805693987163
  0
ARC
  5
2723B
  8
0
 10
3252.023513586027093
 20
174.2743642003875948
 30
0.0
 40
0.0093170004172256
 50
332.1279097429659828
 51
347.5213760978131177
  0
ARC
  5
2723C
  8
0
 10
3252.0202668120191447
 20
174.2760812543222073
 30
0.0
 40
0.0129898488591793
 50
316.6496801069321805
 51
332.1279097429854232
  0
ARC
  5
2723D
  8
0
 10
3252.0276128876730581
 20
174.2691464717883036
 30
0.0
 40
0.0028875700913796
 50
264.741678059370372
 51
316.649680106964297
  0
ARC
  5
2723E
  8
0
 10
3252.0279406938620923
 20
174.2727082830523102
 30
0.0
 40
0.0064644341338394
 50
243.1846991259970991
 51
264.7416780593702015
  0
ARC
  5
2723F
  8
0
 10
3252.037238085988065
 20
174.2850099730615057
 30
0.0
 40
0.0218112847146872
 50
210.9322906706765934
 51
235.9464799032143958
  0
ARC
  5
27240
  8
0
 10
3252.0860907388928354
 20
174.3180718894244023
 30
0.0
 40
0.0807758661428903
 50
205.8996835226166127
 51
213.2369358246205877
  0
ARC
  5
27241
  8
0
 10
3252.0030057336311984
 20
174.2753708847473035
 30
0.0
 40
0.0127927886864253
 50
35.4425478992932099
 51
56.6920086396435465
  0
ARC
  5
27242
  8
0
 10
3252.0005086002670396
 20
174.2635141386896009
 30
0.0
 40
0.0244762556996301
 50
67.1054374380664456
 51
105.0766286771032014
  0
ARC
  5
27243
  8
0
 10
3251.2938579415808817
 20
176.8135611102838141
 30
0.0
 40
2.6216715279059399
 50
285.0801343026860764
 51
285.4925812503370821
  0
ARC
  5
27244
  8
0
 10
3251.969418520158797
 20
174.3123331406553973
 30
0.0
 40
0.0308572597805068
 50
213.9549178866421926
 51
282.1964357332536224
  0
ARC
  5
27245
  8
0
 10
3252.0577138619410107
 20
174.363542897594499
 30
0.0
 40
0.1328750869583456
 50
191.0406655683011934
 51
211.0045551080129087
  0
ARC
  5
27246
  8
0
 10
3252.1053069525701176
 20
174.3813894720850897
 30
0.0
 40
0.1831977892772341
 50
181.1842357016084009
 51
193.6693174152665904
  0
ARC
  5
27247
  8
0
 10
3251.9608062943138975
 20
174.3796805787316089
 30
0.0
 40
0.0387137742946708
 50
140.074324941392689
 51
183.0758749419414926
  0
ARC
  5
27248
  8
0
 10
3251.9525704049428896
 20
174.384808020260806
 30
0.0
 40
0.0291385549695079
 50
105.4539302993558039
 51
137.4117164272655884
  0
ARC
  5
27249
  8
0
 10
3547.1629499452988057
 20
-897.6744540588227892
 30
0.0
 40
1111.9914713543280413
 50
105.3946544557649929
 51
105.3958317140195931
  0
ARC
  5
2724A
  8
0
 10
3251.9621877482341006
 20
174.4385432684574937
 30
0.0
 40
0.0201282359872012
 50
283.3470284637149916
 51
336.3414776724748094
  0
ARC
  5
2724B
  8
0
 10
3252.0637324184831414
 20
174.4304165804136062
 30
0.0
 40
0.0831081601849189
 50
171.8070063284127116
 51
179.9658514619517007
  0
ARC
  5
2724C
  8
0
 10
3252.0006352704308483
 20
174.4402356206938123
 30
0.0
 40
0.0192694303625214
 50
148.0006193762550026
 51
173.9691293290262877
  0
ARC
  5
2724D
  8
0
 10
3251.9874444257661708
 20
174.4470308299869998
 30
0.0
 40
0.0046470198012067
 50
55.3792051605434494
 51
132.6873857075279091
  0
ARC
  5
2724E
  8
0
 10
3251.9101725819527928
 20
174.3842851403477994
 30
0.0
 40
0.1040070980612172
 50
15.5571561331308903
 51
39.7956336986689081
  0
ARC
  5
2724F
  8
0
 10
3251.5829580976769648
 20
174.2626756861648971
 30
0.0
 40
0.4528043056890389
 50
12.9269723443083802
 51
19.2793234645443512
  0
ARC
  5
27250
  8
0
 10
3251.9349328496450653
 20
174.3595119637211042
 30
0.0
 40
0.0076445180078591
 50
156.6437368981706015
 51
177.1384472939940053
  0
ARC
  5
27251
  8
0
 10
3251.929034490317008
 20
174.3620590678073086
 30
0.0
 40
0.0012196925626757
 50
128.2592180107241973
 51
156.6437368982913938
  0
ARC
  5
27252
  8
0
 10
3251.9289259965657948
 20
174.362196645942106
 30
0.0
 40
0.0010444822971991
 50
41.0594386649845333
 51
128.2592180108970012
  0
ARC
  5
27253
  8
0
 10
3251.8981388775009691
 20
174.3401736651453859
 30
0.0
 40
0.0388929487995592
 50
13.7030365674991401
 51
35.7243153021754409
  0
ARC
  5
27254
  8
0
 10
3251.8263281684298818
 20
174.3161680212994895
 30
0.0
 40
0.114520400732351
 50
5.1270124854253583
 51
16.8621717974684096
  0
ARC
  5
27255
  8
0
 10
3251.9089922317862147
 20
174.323595638338503
 30
0.0
 40
0.0315233137472356
 50
352.826215666328892
 51
5.1075313126135189
  0
ARC
  5
27256
  8
0
 10
3251.9363554112251222
 20
174.3200392998043924
 30
0.0
 40
0.0039318004451346
 50
324.2210631573980208
 51
354.4498744823075072
  0
ARC
  5
27257
  8
0
 10
3251.9387899058060611
 20
174.3182492046279037
 30
0.0
 40
0.0009106097089856
 50
239.2873214325429103
 51
326.0407685269408944
  0
ARC
  5
27258
  8
0
 10
3251.9474006519158138
 20
174.3274110460338022
 30
0.0
 40
0.0134635885147087
 50
199.0885885120331125
 51
227.6155876276150138
  0
ARC
  5
27259
  8
0
 10
3252.0349202425641124
 20
174.3630326683856993
 30
0.0
 40
0.107937959331763
 50
188.8613748221009132
 51
201.7656612362054034
  0
ARC
  5
2725A
  8
0
 10
3251.9873930860908331
 20
174.3574485409799024
 30
0.0
 40
0.0601449420990958
 50
177.6701260962821038
 51
190.579997083595913
  0
ARC
  5
2725B
  8
0
 10
3251.5995395179561456
 20
173.9438638239300019
 30
0.0
 40
0.4404371077961129
 50
6.6874416223581861
 51
13.2618710430601503
  0
ARC
  5
2725C
  8
0
 10
3251.8173868268117985
 20
173.9694065945923001
 30
0.0
 40
0.2210974554095047
 50
0.5952805693987163
 51
6.6874416223565678
  0
ARC
  5
2725D
  8
0
 10
3251.9571232134990169
 20
173.9708584528212043
 30
0.0
 40
0.0813535265375987
 50
347.5213760978131177
 51
0.5952805693987163
  0
ARC
  5
2725E
  8
0
 10
3252.0274579983720287
 20
173.9552931345671993
 30
0.0
 40
0.0093170004172256
 50
332.1279097429659828
 51
347.5213760978131177
  0
ARC
  5
2725F
  8
0
 10
3252.0242112243631709
 20
173.9570101885016982
 30
0.0
 40
0.0129898488591793
 50
316.6496801069321805
 51
332.1279097429854232
  0
ARC
  5
27260
  8
0
 10
3252.0315573000170843
 20
173.9500754059679082
 30
0.0
 40
0.0028875700913796
 50
264.741678059370372
 51
316.649680106964297
  0
ARC
  5
27261
  8
0
 10
3252.031885106207028
 20
173.9536372172318863
 30
0.0
 40
0.0064644341338394
 50
243.1846991259970991
 51
264.7416780593702015
  0
ARC
  5
27262
  8
0
 10
3252.0411824983320912
 20
173.9659389072411102
 30
0.0
 40
0.0218112847146872
 50
210.9322906706765934
 51
235.9464799032143958
  0
ARC
  5
27263
  8
0
 10
3252.0900351512382258
 20
173.9990008236038932
 30
0.0
 40
0.0807758661428903
 50
205.8996835226166127
 51
213.2369358246205877
  0
ARC
  5
27264
  8
0
 10
3252.0069501459761341
 20
173.9562998189269081
 30
0.0
 40
0.0127927886864253
 50
35.4425478992932099
 51
56.6920086396435465
  0
ARC
  5
27265
  8
0
 10
3252.0044530126119753
 20
173.9444430728692055
 30
0.0
 40
0.0244762556996301
 50
67.1054374380664456
 51
105.0766286771032014
  0
ARC
  5
27266
  8
0
 10
3251.2978023539258174
 20
176.4944900444633902
 30
0.0
 40
2.6216715279059399
 50
285.0801343026860764
 51
285.4925812503370821
  0
ARC
  5
27267
  8
0
 10
3251.9733629325028232
 20
173.9932620748350018
 30
0.0
 40
0.0308572597805068
 50
213.9549178866421926
 51
282.1964357332536224
  0
ARC
  5
27268
  8
0
 10
3252.0616582742859464
 20
174.0444718317739898
 30
0.0
 40
0.1328750869583456
 50
191.0406655683011934
 51
211.0045551080129087
  0
ARC
  5
27269
  8
0
 10
3252.1092513649150533
 20
174.0623184062646942
 30
0.0
 40
0.1831977892772341
 50
181.1842357016084009
 51
193.6693174152665904
  0
ARC
  5
2726A
  8
0
 10
3251.9647507066588332
 20
174.0606095129112134
 30
0.0
 40
0.0387137742946708
 50
140.074324941392689
 51
183.0758749419414926
  0
ARC
  5
2726B
  8
0
 10
3251.9565148172869158
 20
174.0657369544404105
 30
0.0
 40
0.0291385549695079
 50
105.4539302993558039
 51
137.4117164272655884
  0
ARC
  5
2726C
  8
0
 10
3547.1668943576428319
 20
-897.9935251246430425
 30
0.0
 40
1111.9914713543280413
 50
105.3946544557649929
 51
105.3958317140195931
  0
ARC
  5
2726D
  8
0
 10
3251.9661321605790363
 20
174.1194722026370982
 30
0.0
 40
0.0201282359872012
 50
283.3470284637149916
 51
336.3414776724748094
  0
ARC
  5
2726E
  8
0
 10
3252.0676768308271676
 20
174.1113455145932107
 30
0.0
 40
0.0831081601849189
 50
171.8070063284127116
 51
179.9658514619517007
  0
ARC
  5
2726F
  8
0
 10
3252.004579682775784
 20
174.1211645548733884
 30
0.0
 40
0.0192694303625214
 50
148.0006193762550026
 51
173.9691293290262877
  0
ARC
  5
27270
  8
0
 10
3251.9913888381111065
 20
174.1279597641666044
 30
0.0
 40
0.0046470198012067
 50
55.3792051605434494
 51
132.6873857075279091
  0
ARC
  5
27271
  8
0
 10
3251.914116994296819
 20
174.0652140745272902
 30
0.0
 40
0.1040070980612172
 50
15.5571561331308903
 51
39.7956336986689081
  0
ARC
  5
27272
  8
0
 10
3251.5869025100219005
 20
173.9436046203445017
 30
0.0
 40
0.4528043056890389
 50
12.9269723443083802
 51
19.2793234645443512
  0
ARC
  5
27273
  8
0
 10
3251.9388772619909105
 20
174.0404408979007087
 30
0.0
 40
0.0076445180078591
 50
156.6437368981706015
 51
177.1384472939940053
  0
ARC
  5
27274
  8
0
 10
3251.9329789026619437
 20
174.0429880019869131
 30
0.0
 40
0.0012196925626757
 50
128.2592180107241973
 51
156.6437368982913938
  0
ARC
  5
27275
  8
0
 10
3251.9328704089111852
 20
174.0431255801215968
 30
0.0
 40
0.0010444822971991
 50
41.0594386649845333
 51
128.2592180108970012
  0
ARC
  5
27276
  8
0
 10
3251.9020832898459048
 20
174.0211025993249905
 30
0.0
 40
0.0388929487995592
 50
13.7030365674991401
 51
35.7243153021754409
  0
ARC
  5
27277
  8
0
 10
3251.8302725807748175
 20
173.9970969554790088
 30
0.0
 40
0.114520400732351
 50
5.1270124854253583
 51
16.8621717974684096
  0
ARC
  5
27278
  8
0
 10
3251.9129366441311504
 20
174.0045245725181076
 30
0.0
 40
0.0315233137472356
 50
352.826215666328892
 51
5.1075313126135189
  0
ARC
  5
27279
  8
0
 10
3251.9402998235700579
 20
174.0009682339839969
 30
0.0
 40
0.0039318004451346
 50
324.2210631573980208
 51
354.4498744823075072
  0
ARC
  5
2727A
  8
0
 10
3251.9427343181509968
 20
173.9991781388073946
 30
0.0
 40
0.0009106097089856
 50
239.2873214325429103
 51
326.0407685269408944
  0
ARC
  5
2727B
  8
0
 10
3251.9513450642612042
 20
174.0083399802134068
 30
0.0
 40
0.0134635885147087
 50
199.0885885120331125
 51
227.6155876276150138
  0
ARC
  5
2727C
  8
0
 10
3252.0388646549081386
 20
174.0439616025653038
 30
0.0
 40
0.107937959331763
 50
188.8613748221009132
 51
201.7656612362054034
  0
ARC
  5
2727D
  8
0
 10
3251.9913374984362235
 20
174.038377475159507
 30
0.0
 40
0.0601449420990958
 50
177.6701260962821038
 51
190.579997083595913
  0
ARC
  5
2727E
  8
0
 10
3251.7216722822681731
 20
173.7621546984547933
 30
0.0
 40
0.4404371077961129
 50
6.6874416223581861
 51
13.2618710430601503
  0
ARC
  5
2727F
  8
0
 10
3251.9395195911238261
 20
173.7876974691170062
 30
0.0
 40
0.2210974554095047
 50
0.5952805693987163
 51
6.6874416223565678
  0
ARC
  5
27280
  8
0
 10
3252.0792559778110444
 20
173.7891493273459957
 30
0.0
 40
0.0813535265375987
 50
347.5213760978131177
 51
0.5952805693987163
  0
ARC
  5
27281
  8
0
 10
3252.1495907626840562
 20
173.7735840090919908
 30
0.0
 40
0.0093170004172256
 50
332.1279097429659828
 51
347.5213760978131177
  0
ARC
  5
27282
  8
0
 10
3252.1463439886751985
 20
173.7753010630264896
 30
0.0
 40
0.0129898488591793
 50
316.6496801069321805
 51
332.1279097429854232
  0
ARC
  5
27283
  8
0
 10
3252.1536900643291119
 20
173.7683662804925859
 30
0.0
 40
0.0028875700913796
 50
264.741678059370372
 51
316.649680106964297
  0
ARC
  5
27284
  8
0
 10
3252.1540178705181461
 20
173.7719280917565925
 30
0.0
 40
0.0064644341338394
 50
243.1846991259970991
 51
264.7416780593702015
  0
ARC
  5
27285
  8
0
 10
3252.1633152626441188
 20
173.7842297817659016
 30
0.0
 40
0.0218112847146872
 50
210.9322906706765934
 51
235.9464799032143958
  0
ARC
  5
27286
  8
0
 10
3252.2121679155497986
 20
173.8172916981287131
 30
0.0
 40
0.0807758661428903
 50
205.8996835226166127
 51
213.2369358246205877
  0
ARC
  5
27287
  8
0
 10
3252.1290829102881617
 20
173.7745906934516995
 30
0.0
 40
0.0127927886864253
 50
35.4425478992932099
 51
56.6920086396435465
  0
ARC
  5
27288
  8
0
 10
3252.1265857769230934
 20
173.7627339473939969
 30
0.0
 40
0.0244762556996301
 50
67.1054374380664456
 51
105.0766286771032014
  0
ARC
  5
27289
  8
0
 10
3251.419935118237845
 20
176.31278091898821
 30
0.0
 40
2.6216715279059399
 50
285.0801343026860764
 51
285.4925812503370821
  0
ARC
  5
2728A
  8
0
 10
3252.0954956968148508
 20
173.8115529493597933
 30
0.0
 40
0.0308572597805068
 50
213.9549178866421926
 51
282.1964357332536224
  0
ARC
  5
2728B
  8
0
 10
3252.1837910385970645
 20
173.862762706298895
 30
0.0
 40
0.1328750869583456
 50
191.0406655683011934
 51
211.0045551080129087
  0
ARC
  5
2728C
  8
0
 10
3252.2313841292270808
 20
173.8806092807894004
 30
0.0
 40
0.1831977892772341
 50
181.1842357016084009
 51
193.6693174152665904
  0
ARC
  5
2728D
  8
0
 10
3252.0868834709708608
 20
173.8789003874360048
 30
0.0
 40
0.0387137742946708
 50
140.074324941392689
 51
183.0758749419414926
  0
ARC
  5
2728E
  8
0
 10
3252.0786475815989434
 20
173.8840278289652019
 30
0.0
 40
0.0291385549695079
 50
105.4539302993558039
 51
137.4117164272655884
  0
ARC
  5
2728F
  8
0
 10
3547.2890271219548595
 20
-898.1752342501182511
 30
0.0
 40
1111.9914713543280413
 50
105.3946544557649929
 51
105.3958317140195931
  0
ARC
  5
27290
  8
0
 10
3252.0882649248910639
 20
173.9377630771618897
 30
0.0
 40
0.0201282359872012
 50
283.3470284637149916
 51
336.3414776724748094
  0
ARC
  5
27291
  8
0
 10
3252.1898095951391952
 20
173.9296363891180022
 30
0.0
 40
0.0831081601849189
 50
171.8070063284127116
 51
179.9658514619517007
  0
ARC
  5
27292
  8
0
 10
3252.1267124470878116
 20
173.9394554293982083
 30
0.0
 40
0.0192694303625214
 50
148.0006193762550026
 51
173.9691293290262877
  0
ARC
  5
27293
  8
0
 10
3252.113521602423134
 20
173.9462506386913958
 30
0.0
 40
0.0046470198012067
 50
55.3792051605434494
 51
132.6873857075279091
  0
ARC
  5
27294
  8
0
 10
3252.0362497586088466
 20
173.8835049490521101
 30
0.0
 40
0.1040070980612172
 50
15.5571561331308903
 51
39.7956336986689081
  0
ARC
  5
27295
  8
0
 10
3251.7090352743339281
 20
173.7618954948692931
 30
0.0
 40
0.4528043056890389
 50
12.9269723443083802
 51
19.2793234645443512
  0
ARC
  5
27296
  8
0
 10
3252.0610100263020286
 20
173.8587317724253865
 30
0.0
 40
0.0076445180078591
 50
156.6437368981706015
 51
177.1384472939940053
  0
ARC
  5
27297
  8
0
 10
3252.0551116669730618
 20
173.8612788765117045
 30
0.0
 40
0.0012196925626757
 50
128.2592180107241973
 51
156.6437368982913938
  0
ARC
  5
27298
  8
0
 10
3252.0550031732218486
 20
173.8614164546463883
 30
0.0
 40
0.0010444822971991
 50
41.0594386649845333
 51
128.2592180108970012
  0
ARC
  5
27299
  8
0
 10
3252.0242160541579324
 20
173.8393934738496966
 30
0.0
 40
0.0388929487995592
 50
13.7030365674991401
 51
35.7243153021754409
  0
ARC
  5
2729A
  8
0
 10
3251.952405345086845
 20
173.8153878300038002
 30
0.0
 40
0.114520400732351
 50
5.1270124854253583
 51
16.8621717974684096
  0
ARC
  5
2729B
  8
0
 10
3252.035069408443178
 20
173.822815447042899
 30
0.0
 40
0.0315233137472356
 50
352.826215666328892
 51
5.1075313126135189
  0
ARC
  5
2729C
  8
0
 10
3252.062432587881176
 20
173.8192591085087884
 30
0.0
 40
0.0039318004451346
 50
324.2210631573980208
 51
354.4498744823075072
  0
ARC
  5
2729D
  8
0
 10
3252.0648670824621149
 20
173.817469013332186
 30
0.0
 40
0.0009106097089856
 50
239.2873214325429103
 51
326.0407685269408944
  0
ARC
  5
2729E
  8
0
 10
3252.0734778285727771
 20
173.8266308547381129
 30
0.0
 40
0.0134635885147087
 50
199.0885885120331125
 51
227.6155876276150138
  0
ARC
  5
2729F
  8
0
 10
3252.1609974192201662
 20
173.8622524770900952
 30
0.0
 40
0.107937959331763
 50
188.8613748221009132
 51
201.7656612362054034
  0
ARC
  5
272A0
  8
0
 10
3252.1134702627468869
 20
173.8566683496842131
 30
0.0
 40
0.0601449420990958
 50
177.6701260962821038
 51
190.579997083595913
  0
ARC
  5
272A1
  8
0
 10
3251.617605016178004
 20
173.6425191191418094
 30
0.0
 40
0.4404371077961129
 50
6.6874416223581861
 51
13.2618710430601503
  0
ARC
  5
272A2
  8
0
 10
3251.8354523250350212
 20
173.6680618898039938
 30
0.0
 40
0.2210974554095047
 50
0.5952805693987163
 51
6.6874416223565678
  0
ARC
  5
272A3
  8
0
 10
3251.9751887117217848
 20
173.6695137480330118
 30
0.0
 40
0.0813535265375987
 50
347.5213760978131177
 51
0.5952805693987163
  0
ARC
  5
272A4
  8
0
 10
3252.0455234965938871
 20
173.6539484297790068
 30
0.0
 40
0.0093170004172256
 50
332.1279097429659828
 51
347.5213760978131177
  0
ARC
  5
272A5
  8
0
 10
3252.0422767225859388
 20
173.6556654837135056
 30
0.0
 40
0.0129898488591793
 50
316.6496801069321805
 51
332.1279097429854232
  0
ARC
  5
272A6
  8
0
 10
3252.0496227982389428
 20
173.648730701179602
 30
0.0
 40
0.0028875700913796
 50
264.741678059370372
 51
316.649680106964297
  0
ARC
  5
272A7
  8
0
 10
3252.0499506044288864
 20
173.6522925124436938
 30
0.0
 40
0.0064644341338394
 50
243.1846991259970991
 51
264.7416780593702015
  0
ARC
  5
272A8
  8
0
 10
3252.0592479965539496
 20
173.664594202452804
 30
0.0
 40
0.0218112847146872
 50
210.9322906706765934
 51
235.9464799032143958
  0
ARC
  5
272A9
  8
0
 10
3252.1081006494600842
 20
173.6976561188157007
 30
0.0
 40
0.0807758661428903
 50
205.8996835226166127
 51
213.2369358246205877
  0
ARC
  5
272AA
  8
0
 10
3252.0250156441979925
 20
173.6549551141386871
 30
0.0
 40
0.0127927886864253
 50
35.4425478992932099
 51
56.6920086396435465
  0
ARC
  5
272AB
  8
0
 10
3252.0225185108338337
 20
173.6430983680810129
 30
0.0
 40
0.0244762556996301
 50
67.1054374380664456
 51
105.0766286771032014
  0
ARC
  5
272AC
  8
0
 10
3251.3158678521481306
 20
176.1931453396751976
 30
0.0
 40
2.6216715279059399
 50
285.0801343026860764
 51
285.4925812503370821
  0
ARC
  5
272AD
  8
0
 10
3251.9914284307260459
 20
173.6919173700468093
 30
0.0
 40
0.0308572597805068
 50
213.9549178866421926
 51
282.1964357332536224
  0
ARC
  5
272AE
  8
0
 10
3252.0797237725078048
 20
173.7431271269857973
 30
0.0
 40
0.1328750869583456
 50
191.0406655683011934
 51
211.0045551080129087
  0
ARC
  5
272AF
  8
0
 10
3252.1273168631369117
 20
173.760973701476388
 30
0.0
 40
0.1831977892772341
 50
181.1842357016084009
 51
193.6693174152665904
  0
ARC
  5
272B0
  8
0
 10
3251.9828162048820559
 20
173.7592648081229925
 30
0.0
 40
0.0387137742946708
 50
140.074324941392689
 51
183.0758749419414926
  0
ARC
  5
272B1
  8
0
 10
3251.9745803155101385
 20
173.7643922496521895
 30
0.0
 40
0.0291385549695079
 50
105.4539302993558039
 51
137.4117164272655884
  0
ARC
  5
272B2
  8
0
 10
3547.1849598558660546
 20
-898.2948698294312635
 30
0.0
 40
1111.9914713543280413
 50
105.3946544557649929
 51
105.3958317140195931
  0
ARC
  5
272B3
  8
0
 10
3251.9841976588008947
 20
173.8181274978489057
 30
0.0
 40
0.0201282359872012
 50
283.3470284637149916
 51
336.3414776724748094
  0
ARC
  5
272B4
  8
0
 10
3252.085742329049026
 20
173.8100008098049898
 30
0.0
 40
0.0831081601849189
 50
171.8070063284127116
 51
179.9658514619517007
  0
ARC
  5
272B5
  8
0
 10
3252.0226451809990067
 20
173.8198198500851959
 30
0.0
 40
0.0192694303625214
 50
148.0006193762550026
 51
173.9691293290262877
  0
ARC
  5
272B6
  8
0
 10
3252.0094543363338744
 20
173.8266150593784118
 30
0.0
 40
0.0046470198012067
 50
55.3792051605434494
 51
132.6873857075279091
  0
ARC
  5
272B7
  8
0
 10
3251.9321824925191322
 20
173.7638693697390977
 30
0.0
 40
0.1040070980612172
 50
15.5571561331308903
 51
39.7956336986689081
  0
ARC
  5
272B8
  8
0
 10
3251.6049680082442137
 20
173.6422599155563091
 30
0.0
 40
0.4528043056890389
 50
12.9269723443083802
 51
19.2793234645443512
  0
ARC
  5
272B9
  8
0
 10
3251.9569427602132237
 20
173.7390961931124025
 30
0.0
 40
0.0076445180078591
 50
156.6437368981706015
 51
177.1384472939940053
  0
ARC
  5
272BA
  8
0
 10
3251.9510444008838022
 20
173.7416432971986922
 30
0.0
 40
0.0012196925626757
 50
128.2592180107241973
 51
156.6437368982913938
  0
ARC
  5
272BB
  8
0
 10
3251.9509359071330437
 20
173.7417808753334043
 30
0.0
 40
0.0010444822971991
 50
41.0594386649845333
 51
128.2592180108970012
  0
ARC
  5
272BC
  8
0
 10
3251.9201487880691275
 20
173.7197578945367979
 30
0.0
 40
0.0388929487995592
 50
13.7030365674991401
 51
35.7243153021754409
  0
ARC
  5
272BD
  8
0
 10
3251.8483380789971307
 20
173.6957522506907878
 30
0.0
 40
0.114520400732351
 50
5.1270124854253583
 51
16.8621717974684096
  0
ARC
  5
272BE
  8
0
 10
3251.9310021423539183
 20
173.7031798677298866
 30
0.0
 40
0.0315233137472356
 50
352.826215666328892
 51
5.1075313126135189
  0
ARC
  5
272BF
  8
0
 10
3251.9583653217919164
 20
173.6996235291958044
 30
0.0
 40
0.0039318004451346
 50
324.2210631573980208
 51
354.4498744823075072
  0
ARC
  5
272C0
  8
0
 10
3251.9607998163719458
 20
173.6978334340192021
 30
0.0
 40
0.0009106097089856
 50
239.2873214325429103
 51
326.0407685269408944
  0
ARC
  5
272C1
  8
0
 10
3251.9694105624830627
 20
173.7069952754251005
 30
0.0
 40
0.0134635885147087
 50
199.0885885120331125
 51
227.6155876276150138
  0
ARC
  5
272C2
  8
0
 10
3252.0569301531309065
 20
173.7426168977771113
 30
0.0
 40
0.107937959331763
 50
188.8613748221009132
 51
201.7656612362054034
  0
ARC
  5
272C3
  8
0
 10
3252.009402996658082
 20
173.7370327703712007
 30
0.0
 40
0.0601449420990958
 50
177.6701260962821038
 51
190.579997083595913
  0
ARC
  5
272C4
  8
0
 10
3251.7181115085481906
 20
173.4884373041655863
 30
0.0
 40
0.4404371077961129
 50
6.6874416223581861
 51
13.2618710430601503
  0
ARC
  5
272C5
  8
0
 10
3251.9359588174052078
 20
173.5139800748277992
 30
0.0
 40
0.2210974554095047
 50
0.5952805693987163
 51
6.6874416223565678
  0
ARC
  5
272C6
  8
0
 10
3252.0756952040910619
 20
173.5154319330567887
 30
0.0
 40
0.0813535265375987
 50
347.5213760978131177
 51
0.5952805693987163
  0
ARC
  5
272C7
  8
0
 10
3252.1460299889649832
 20
173.4998666148028121
 30
0.0
 40
0.0093170004172256
 50
332.1279097429659828
 51
347.5213760978131177
  0
ARC
  5
272C8
  8
0
 10
3252.1427832149561254
 20
173.501583668737311
 30
0.0
 40
0.0129898488591793
 50
316.6496801069321805
 51
332.1279097429854232
  0
ARC
  5
272C9
  8
0
 10
3252.1501292906100389
 20
173.4946488862034073
 30
0.0
 40
0.0028875700913796
 50
264.741678059370372
 51
316.649680106964297
  0
ARC
  5
272CA
  8
0
 10
3252.150457096799073
 20
173.4982106974674139
 30
0.0
 40
0.0064644341338394
 50
243.1846991259970991
 51
264.7416780593702015
  0
ARC
  5
272CB
  8
0
 10
3252.1597544889250457
 20
173.5105123874766093
 30
0.0
 40
0.0218112847146872
 50
210.9322906706765934
 51
235.9464799032143958
  0
ARC
  5
272CC
  8
0
 10
3252.2086071418298161
 20
173.543574303839506
 30
0.0
 40
0.0807758661428903
 50
205.8996835226166127
 51
213.2369358246205877
  0
ARC
  5
272CD
  8
0
 10
3252.1255221365690886
 20
173.5008732991624072
 30
0.0
 40
0.0127927886864253
 50
35.4425478992932099
 51
56.6920086396435465
  0
ARC
  5
272CE
  8
0
 10
3252.1230250032040203
 20
173.4890165531047899
 30
0.0
 40
0.0244762556996301
 50
67.1054374380664456
 51
105.0766286771032014
  0
ARC
  5
272CF
  8
0
 10
3251.4163743445178625
 20
176.039063524699003
 30
0.0
 40
2.6216715279059399
 50
285.0801343026860764
 51
285.4925812503370821
  0
ARC
  5
272D0
  8
0
 10
3252.0919349230957778
 20
173.5378355550705862
 30
0.0
 40
0.0308572597805068
 50
213.9549178866421926
 51
282.1964357332536224
  0
ARC
  5
272D1
  8
0
 10
3252.1802302648779914
 20
173.5890453120096026
 30
0.0
 40
0.1328750869583456
 50
191.0406655683011934
 51
211.0045551080129087
  0
ARC
  5
272D2
  8
0
 10
3252.2278233555070983
 20
173.6068918865001933
 30
0.0
 40
0.1831977892772341
 50
181.1842357016084009
 51
193.6693174152665904
  0
ARC
  5
272D3
  8
0
 10
3252.0833226972517878
 20
173.6051829931467978
 30
0.0
 40
0.0387137742946708
 50
140.074324941392689
 51
183.0758749419414926
  0
ARC
  5
272D4
  8
0
 10
3252.0750868078798703
 20
173.6103104346759096
 30
0.0
 40
0.0291385549695079
 50
105.4539302993558039
 51
137.4117164272655884
  0
ARC
  5
272D5
  8
0
 10
3547.2854663482357864
 20
-898.4489516444075434
 30
0.0
 40
1111.9914713543280413
 50
105.3946544557649929
 51
105.3958317140195931
  0
ARC
  5
272D6
  8
0
 10
3252.0847041511719908
 20
173.6640456828725974
 30
0.0
 40
0.0201282359872012
 50
283.3470284637149916
 51
336.3414776724748094
  0
ARC
  5
272D7
  8
0
 10
3252.1862488214192126
 20
173.6559189948287951
 30
0.0
 40
0.0831081601849189
 50
171.8070063284127116
 51
179.9658514619517007
  0
ARC
  5
272D8
  8
0
 10
3252.1231516733691933
 20
173.6657380351088875
 30
0.0
 40
0.0192694303625214
 50
148.0006193762550026
 51
173.9691293290262877
  0
ARC
  5
272D9
  8
0
 10
3252.109960828704061
 20
173.6725332444021888
 30
0.0
 40
0.0046470198012067
 50
55.3792051605434494
 51
132.6873857075279091
  0
ARC
  5
272DA
  8
0
 10
3252.0326889848897736
 20
173.609787554762903
 30
0.0
 40
0.1040070980612172
 50
15.5571561331308903
 51
39.7956336986689081
  0
ARC
  5
272DB
  8
0
 10
3251.7054745006139456
 20
173.4881781005800008
 30
0.0
 40
0.4528043056890389
 50
12.9269723443083802
 51
19.2793234645443512
  0
ARC
  5
272DC
  8
0
 10
3252.0574492525829555
 20
173.5850143781362078
 30
0.0
 40
0.0076445180078591
 50
156.6437368981706015
 51
177.1384472939940053
  0
ARC
  5
272DD
  8
0
 10
3252.0515508932539888
 20
173.5875614822224975
 30
0.0
 40
0.0012196925626757
 50
128.2592180107241973
 51
156.6437368982913938
  0
ARC
  5
272DE
  8
0
 10
3252.0514423995027755
 20
173.5876990603572096
 30
0.0
 40
0.0010444822971991
 50
41.0594386649845333
 51
128.2592180108970012
  0
ARC
  5
272DF
  8
0
 10
3252.0206552804379498
 20
173.5656760795604896
 30
0.0
 40
0.0388929487995592
 50
13.7030365674991401
 51
35.7243153021754409
  0
ARC
  5
272E0
  8
0
 10
3251.9488445713682268
 20
173.5416704357145932
 30
0.0
 40
0.114520400732351
 50
5.1270124854253583
 51
16.8621717974684096
  0
ARC
  5
272E1
  8
0
 10
3252.0315086347241049
 20
173.5490980527536919
 30
0.0
 40
0.0315233137472356
 50
352.826215666328892
 51
5.1075313126135189
  0
ARC
  5
272E2
  8
0
 10
3252.058871814162103
 20
173.5455417142196097
 30
0.0
 40
0.0039318004451346
 50
324.2210631573980208
 51
354.4498744823075072
  0
ARC
  5
272E3
  8
0
 10
3252.0613063087430419
 20
173.5437516190430074
 30
0.0
 40
0.0009106097089856
 50
239.2873214325429103
 51
326.0407685269408944
  0
ARC
  5
272E4
  8
0
 10
3252.0699170548541588
 20
173.5529134604489059
 30
0.0
 40
0.0134635885147087
 50
199.0885885120331125
 51
227.6155876276150138
  0
ARC
  5
272E5
  8
0
 10
3252.1574366455010932
 20
173.5885350828008882
 30
0.0
 40
0.107937959331763
 50
188.8613748221009132
 51
201.7656612362054034
  0
ARC
  5
272E6
  8
0
 10
3252.1099094890278138
 20
173.5829509553950061
 30
0.0
 40
0.0601449420990958
 50
177.6701260962821038
 51
190.579997083595913
  0
ARC
  5
272E7
  8
0
 10
3251.8555617676779548
 20
173.2628728491305026
 30
0.0
 40
0.4404371077961129
 50
6.6874416223581861
 51
13.2618710430601503
  0
ARC
  5
272E8
  8
0
 10
3252.073409076534972
 20
173.288415619792687
 30
0.0
 40
0.2210974554095047
 50
0.5952805693987163
 51
6.6874416223565678
  0
ARC
  5
272E9
  8
0
 10
3252.2131454632221903
 20
173.289867478021705
 30
0.0
 40
0.0813535265375987
 50
347.5213760978131177
 51
0.5952805693987163
  0
ARC
  5
272EA
  8
0
 10
3252.2834802480938379
 20
173.2743021597675863
 30
0.0
 40
0.0093170004172256
 50
332.1279097429659828
 51
347.5213760978131177
  0
ARC
  5
272EB
  8
0
 10
3252.2802334740849801
 20
173.2760192137021136
 30
0.0
 40
0.0129898488591793
 50
316.6496801069321805
 51
332.1279097429854232
  0
ARC
  5
272EC
  8
0
 10
3252.2875795497388935
 20
173.2690844311682952
 30
0.0
 40
0.0028875700913796
 50
264.741678059370372
 51
316.649680106964297
  0
ARC
  5
272ED
  8
0
 10
3252.2879073559288372
 20
173.2726462424323017
 30
0.0
 40
0.0064644341338394
 50
243.1846991259970991
 51
264.7416780593702015
  0
ARC
  5
272EE
  8
0
 10
3252.2972047480548099
 20
173.2849479324414972
 30
0.0
 40
0.0218112847146872
 50
210.9322906706765934
 51
235.9464799032143958
  0
ARC
  5
272EF
  8
0
 10
3252.3460574009609445
 20
173.3180098488043939
 30
0.0
 40
0.0807758661428903
 50
205.8996835226166127
 51
213.2369358246205877
  0
ARC
  5
272F0
  8
0
 10
3252.2629723956979433
 20
173.2753088441272951
 30
0.0
 40
0.0127927886864253
 50
35.4425478992932099
 51
56.6920086396435465
  0
ARC
  5
272F1
  8
0
 10
3252.2604752623337845
 20
173.2634520980697062
 30
0.0
 40
0.0244762556996301
 50
67.1054374380664456
 51
105.0766286771032014
  0
ARC
  5
272F2
  8
0
 10
3251.5538246036489909
 20
175.8134990696638909
 30
0.0
 40
2.6216715279059399
 50
285.0801343026860764
 51
285.4925812503370821
  0
ARC
  5
272F3
  8
0
 10
3252.2293851822250872
 20
173.3122711000355025
 30
0.0
 40
0.0308572597805068
 50
213.9549178866421926
 51
282.1964357332536224
  0
ARC
  5
272F4
  8
0
 10
3252.3176805240082103
 20
173.3634808569744905
 30
0.0
 40
0.1328750869583456
 50
191.0406655683011934
 51
211.0045551080129087
  0
ARC
  5
272F5
  8
0
 10
3252.3652736146368625
 20
173.3813274314651096
 30
0.0
 40
0.1831977892772341
 50
181.1842357016084009
 51
193.6693174152665904
  0
ARC
  5
272F6
  8
0
 10
3252.2207729563820067
 20
173.3796185381116004
 30
0.0
 40
0.0387137742946708
 50
140.074324941392689
 51
183.0758749419414926
  0
ARC
  5
272F7
  8
0
 10
3252.2125370670100892
 20
173.3847459796407975
 30
0.0
 40
0.0291385549695079
 50
105.4539302993558039
 51
137.4117164272655884
  0
ARC
  5
272F8
  8
0
 10
3547.4229166073660053
 20
-898.674516099442485
 30
0.0
 40
1111.9914713543280413
 50
105.3946544557649929
 51
105.3958317140195931
  0
ARC
  5
272F9
  8
0
 10
3252.2221544103008455
 20
173.4384812278375136
 30
0.0
 40
0.0201282359872012
 50
283.3470284637149916
 51
336.3414776724748094
  0
ARC
  5
272FA
  8
0
 10
3252.3236990805489768
 20
173.4303545397937114
 30
0.0
 40
0.0831081601849189
 50
171.8070063284127116
 51
179.9658514619517007
  0
ARC
  5
272FB
  8
0
 10
3252.260601932498048
 20
173.4401735800738038
 30
0.0
 40
0.0192694303625214
 50
148.0006193762550026
 51
173.9691293290262877
  0
ARC
  5
272FC
  8
0
 10
3252.2474110878338251
 20
173.4469687893669914
 30
0.0
 40
0.0046470198012067
 50
55.3792051605434494
 51
132.6873857075279091
  0
ARC
  5
272FD
  8
0
 10
3252.170139244019083
 20
173.3842230997277909
 30
0.0
 40
0.1040070980612172
 50
15.5571561331308903
 51
39.7956336986689081
  0
ARC
  5
272FE
  8
0
 10
3251.8429247597441645
 20
173.2626136455448886
 30
0.0
 40
0.4528043056890389
 50
12.9269723443083802
 51
19.2793234645443512
  0
ARC
  5
272FF
  8
0
 10
3252.1948995117131744
 20
173.3594499231010957
 30
0.0
 40
0.0076445180078591
 50
156.6437368981706015
 51
177.1384472939940053
  0
ARC
  5
27300
  8
0
 10
3252.1890011523842077
 20
173.3619970271873001
 30
0.0
 40
0.0012196925626757
 50
128.2592180107241973
 51
156.6437368982913938
  0
ARC
  5
27301
  8
0
 10
3252.1888926586329944
 20
173.3621346053220975
 30
0.0
 40
0.0010444822971991
 50
41.0594386649845333
 51
128.2592180108970012
  0
ARC
  5
27302
  8
0
 10
3252.1581055395690782
 20
173.3401116245254059
 30
0.0
 40
0.0388929487995592
 50
13.7030365674991401
 51
35.7243153021754409
  0
ARC
  5
27303
  8
0
 10
3252.0862948304979909
 20
173.3161059806795095
 30
0.0
 40
0.114520400732351
 50
5.1270124854253583
 51
16.8621717974684096
  0
ARC
  5
27304
  8
0
 10
3252.1689588938538691
 20
173.3235335977186082
 30
0.0
 40
0.0315233137472356
 50
352.826215666328892
 51
5.1075313126135189
  0
ARC
  5
27305
  8
0
 10
3252.1963220732918671
 20
173.3199772591844123
 30
0.0
 40
0.0039318004451346
 50
324.2210631573980208
 51
354.4498744823075072
  0
ARC
  5
27306
  8
0
 10
3252.1987565678718966
 20
173.3181871640078953
 30
0.0
 40
0.0009106097089856
 50
239.2873214325429103
 51
326.0407685269408944
  0
ARC
  5
27307
  8
0
 10
3252.2073673139839229
 20
173.3273490054137937
 30
0.0
 40
0.0134635885147087
 50
199.0885885120331125
 51
227.6155876276150138
  0
ARC
  5
27308
  8
0
 10
3252.2948869046308573
 20
173.3629706277658045
 30
0.0
 40
0.107937959331763
 50
188.8613748221009132
 51
201.7656612362054034
  0
ARC
  5
27309
  8
0
 10
3252.2473597481580327
 20
173.3573865003598939
 30
0.0
 40
0.0601449420990958
 50
177.6701260962821038
 51
190.579997083595913
  0
ARC
  5
2730A
  8
0
 10
3251.8513380875770054
 20
172.9982982231327071
 30
0.0
 40
0.4404371077961129
 50
6.6874416223581861
 51
13.2618710430601503
  0
ARC
  5
2730B
  8
0
 10
3252.0691853964331131
 20
173.0238409937950053
 30
0.0
 40
0.2210974554095047
 50
0.5952805693987163
 51
6.6874416223565678
  0
ARC
  5
2730C
  8
0
 10
3252.2089217831198766
 20
173.0252928520239095
 30
0.0
 40
0.0813535265375987
 50
347.5213760978131177
 51
0.5952805693987163
  0
ARC
  5
2730D
  8
0
 10
3252.279256567991979
 20
173.0097275337699045
 30
0.0
 40
0.0093170004172256
 50
332.1279097429659828
 51
347.5213760978131177
  0
ARC
  5
2730E
  8
0
 10
3252.2760097939840307
 20
173.0114445877044034
 30
0.0
 40
0.0129898488591793
 50
316.6496801069321805
 51
332.1279097429854232
  0
ARC
  5
2730F
  8
0
 10
3252.2833558696379441
 20
173.0045098051706134
 30
0.0
 40
0.0028875700913796
 50
264.741678059370372
 51
316.649680106964297
  0
ARC
  5
27310
  8
0
 10
3252.2836836758269783
 20
173.0080716164345915
 30
0.0
 40
0.0064644341338394
 50
243.1846991259970991
 51
264.7416780593702015
  0
ARC
  5
27311
  8
0
 10
3252.292981067952951
 20
173.020373306443787
 30
0.0
 40
0.0218112847146872
 50
210.9322906706765934
 51
235.9464799032143958
  0
ARC
  5
27312
  8
0
 10
3252.3418337208590856
 20
173.0534352228065984
 30
0.0
 40
0.0807758661428903
 50
205.8996835226166127
 51
213.2369358246205877
  0
ARC
  5
27313
  8
0
 10
3252.2587487155969939
 20
173.0107342181296133
 30
0.0
 40
0.0127927886864253
 50
35.4425478992932099
 51
56.6920086396435465
  0
ARC
  5
27314
  8
0
 10
3252.2562515822319256
 20
172.9988774720719107
 30
0.0
 40
0.0244762556996301
 50
67.1054374380664456
 51
105.0766286771032014
  0
ARC
  5
27315
  8
0
 10
3251.5496009235462225
 20
175.5489244436660954
 30
0.0
 40
2.6216715279059399
 50
285.0801343026860764
 51
285.4925812503370821
  0
ARC
  5
27316
  8
0
 10
3252.2251615021241378
 20
173.047696474037707
 30
0.0
 40
0.0308572597805068
 50
213.9549178866421926
 51
282.1964357332536224
  0
ARC
  5
27317
  8
0
 10
3252.3134568439058967
 20
173.0989062309768087
 30
0.0
 40
0.1328750869583456
 50
191.0406655683011934
 51
211.0045551080129087
  0
ARC
  5
27318
  8
0
 10
3252.3610499345350036
 20
173.1167528054673994
 30
0.0
 40
0.1831977892772341
 50
181.1842357016084009
 51
193.6693174152665904
  0
ARC
  5
27319
  8
0
 10
3252.2165492762801478
 20
173.1150439121138902
 30
0.0
 40
0.0387137742946708
 50
140.074324941392689
 51
183.0758749419414926
  0
ARC
  5
2731A
  8
0
 10
3252.2083133869077756
 20
173.1201713536430873
 30
0.0
 40
0.0291385549695079
 50
105.4539302993558039
 51
137.4117164272655884
  0
ARC
  5
2731B
  8
0
 10
3547.4186929272641464
 20
-898.9390907254405647
 30
0.0
 40
1111.9914713543280413
 50
105.3946544557649929
 51
105.3958317140195931
  0
ARC
  5
2731C
  8
0
 10
3252.2179307301998961
 20
173.1739066018398034
 30
0.0
 40
0.0201282359872012
 50
283.3470284637149916
 51
336.3414776724748094
  0
ARC
  5
2731D
  8
0
 10
3252.3194754004480274
 20
173.1657799137958875
 30
0.0
 40
0.0831081601849189
 50
171.8070063284127116
 51
179.9658514619517007
  0
ARC
  5
2731E
  8
0
 10
3252.2563782523961891
 20
173.1755989540760936
 30
0.0
 40
0.0192694303625214
 50
148.0006193762550026
 51
173.9691293290262877
  0
ARC
  5
2731F
  8
0
 10
3252.2431874077310567
 20
173.1823941633693096
 30
0.0
 40
0.0046470198012067
 50
55.3792051605434494
 51
132.6873857075279091
  0
ARC
  5
27320
  8
0
 10
3252.1659155639181336
 20
173.1196484737299954
 30
0.0
 40
0.1040070980612172
 50
15.5571561331308903
 51
39.7956336986689081
  0
ARC
  5
27321
  8
0
 10
3251.8387010796432151
 20
172.9980390195472069
 30
0.0
 40
0.4528043056890389
 50
12.9269723443083802
 51
19.2793234645443512
  0
ARC
  5
27322
  8
0
 10
3252.1906758316108608
 20
173.0948752971034139
 30
0.0
 40
0.0076445180078591
 50
156.6437368981706015
 51
177.1384472939940053
  0
ARC
  5
27323
  8
0
 10
3252.184777472281894
 20
173.0974224011895899
 30
0.0
 40
0.0012196925626757
 50
128.2592180107241973
 51
156.6437368982913938
  0
ARC
  5
27324
  8
0
 10
3252.1846689785311355
 20
173.097559979324302
 30
0.0
 40
0.0010444822971991
 50
41.0594386649845333
 51
128.2592180108970012
  0
ARC
  5
27325
  8
0
 10
3252.1538818594672193
 20
173.0755369985276957
 30
0.0
 40
0.0388929487995592
 50
13.7030365674991401
 51
35.7243153021754409
  0
ARC
  5
27326
  8
0
 10
3252.082071150396132
 20
173.051531354681714
 30
0.0
 40
0.114520400732351
 50
5.1270124854253583
 51
16.8621717974684096
  0
ARC
  5
27327
  8
0
 10
3252.1647352137520102
 20
173.0589589717208128
 30
0.0
 40
0.0315233137472356
 50
352.826215666328892
 51
5.1075313126135189
  0
ARC
  5
27328
  8
0
 10
3252.1920983931909177
 20
173.0554026331867021
 30
0.0
 40
0.0039318004451346
 50
324.2210631573980208
 51
354.4498744823075072
  0
ARC
  5
27329
  8
0
 10
3252.1945328877709471
 20
173.0536125380100998
 30
0.0
 40
0.0009106097089856
 50
239.2873214325429103
 51
326.0407685269408944
  0
ARC
  5
2732A
  8
0
 10
3252.2031436338811545
 20
173.062774379416112
 30
0.0
 40
0.0134635885147087
 50
199.0885885120331125
 51
227.6155876276150138
  0
ARC
  5
2732B
  8
0
 10
3252.2906632245289984
 20
173.098396001768009
 30
0.0
 40
0.107937959331763
 50
188.8613748221009132
 51
201.7656612362054034
  0
ARC
  5
2732C
  8
0
 10
3252.2431360680561738
 20
173.0928118743622122
 30
0.0
 40
0.0601449420990958
 50
177.6701260962821038
 51
190.579997083595913
  0
ARC
  5
2732D
  8
0
 10
3251.9924299210019853
 20
172.76441096942591
 30
0.0
 40
0.4404371077961129
 50
6.6874416223581861
 51
13.2618710430601503
  0
ARC
  5
2732E
  8
0
 10
3252.2102772298580931
 20
172.7899537400880945
 30
0.0
 40
0.2210974554095047
 50
0.5952805693987163
 51
6.6874416223565678
  0
ARC
  5
2732F
  8
0
 10
3252.3500136165448566
 20
172.7914055983171124
 30
0.0
 40
0.0813535265375987
 50
347.5213760978131177
 51
0.5952805693987163
  0
ARC
  5
27330
  8
0
 10
3252.4203484014178684
 20
172.7758402800629938
 30
0.0
 40
0.0093170004172256
 50
332.1279097429659828
 51
347.5213760978131177
  0
ARC
  5
27331
  8
0
 10
3252.4171016274090107
 20
172.7775573339974926
 30
0.0
 40
0.0129898488591793
 50
316.6496801069321805
 51
332.1279097429854232
  0
ARC
  5
27332
  8
0
 10
3252.4244477030629241
 20
172.7706225514637026
 30
0.0
 40
0.0028875700913796
 50
264.741678059370372
 51
316.649680106964297
  0
ARC
  5
27333
  8
0
 10
3252.4247755092528678
 20
172.7741843627277092
 30
0.0
 40
0.0064644341338394
 50
243.1846991259970991
 51
264.7416780593702015
  0
ARC
  5
27334
  8
0
 10
3252.434072901377931
 20
172.7864860527369046
 30
0.0
 40
0.0218112847146872
 50
210.9322906706765934
 51
235.9464799032143958
  0
ARC
  5
27335
  8
0
 10
3252.4829255542831561
 20
172.8195479690998013
 30
0.0
 40
0.0807758661428903
 50
205.8996835226166127
 51
213.2369358246205877
  0
ARC
  5
27336
  8
0
 10
3252.3998405490219739
 20
172.7768469644227025
 30
0.0
 40
0.0127927886864253
 50
35.4425478992932099
 51
56.6920086396435465
  0
ARC
  5
27337
  8
0
 10
3252.3973434156569056
 20
172.7649902183651136
 30
0.0
 40
0.0244762556996301
 50
67.1054374380664456
 51
105.0766286771032014
  0
ARC
  5
27338
  8
0
 10
3251.690692756972112
 20
175.3150371899592983
 30
0.0
 40
2.6216715279059399
 50
285.0801343026860764
 51
285.4925812503370821
  0
ARC
  5
27339
  8
0
 10
3252.3662533355491178
 20
172.81380922033091
 30
0.0
 40
0.0308572597805068
 50
213.9549178866421926
 51
282.1964357332536224
  0
ARC
  5
2733A
  8
0
 10
3252.4545486773308767
 20
172.865018977269898
 30
0.0
 40
0.1328750869583456
 50
191.0406655683011934
 51
211.0045551080129087
  0
ARC
  5
2733B
  8
0
 10
3252.502141767960893
 20
172.8828655517604886
 30
0.0
 40
0.1831977892772341
 50
181.1842357016084009
 51
193.6693174152665904
  0
ARC
  5
2733C
  8
0
 10
3252.3576411097060372
 20
172.8811566584070079
 30
0.0
 40
0.0387137742946708
 50
140.074324941392689
 51
183.0758749419414926
  0
ARC
  5
2733D
  8
0
 10
3252.3494052203332103
 20
172.8862840999362049
 30
0.0
 40
0.0291385549695079
 50
105.4539302993558039
 51
137.4117164272655884
  0
ARC
  5
2733E
  8
0
 10
3547.5597847606891264
 20
-899.1729779791475039
 30
0.0
 40
1111.9914713543280413
 50
105.3946544557649929
 51
105.3958317140195931
  0
ARC
  5
2733F
  8
0
 10
3252.3590225636248761
 20
172.9400193481330064
 30
0.0
 40
0.0201282359872012
 50
283.3470284637149916
 51
336.3414776724748094
  0
ARC
  5
27340
  8
0
 10
3252.4605672338720979
 20
172.9318926600890904
 30
0.0
 40
0.0831081601849189
 50
171.8070063284127116
 51
179.9658514619517007
  0
ARC
  5
27341
  8
0
 10
3252.3974700858220785
 20
172.9417117003692113
 30
0.0
 40
0.0192694303625214
 50
148.0006193762550026
 51
173.9691293290262877
  0
ARC
  5
27342
  8
0
 10
3252.3842792411569462
 20
172.9485069096623988
 30
0.0
 40
0.0046470198012067
 50
55.3792051605434494
 51
132.6873857075279091
  0
ARC
  5
27343
  8
0
 10
3252.3070073973431136
 20
172.8857612200231983
 30
0.0
 40
0.1040070980612172
 50
15.5571561331308903
 51
39.7956336986689081
  0
ARC
  5
27344
  8
0
 10
3251.979792913068195
 20
172.7641517658402961
 30
0.0
 40
0.4528043056890389
 50
12.9269723443083802
 51
19.2793234645443512
  0
ARC
  5
27345
  8
0
 10
3252.331767665037205
 20
172.8609880433965031
 30
0.0
 40
0.0076445180078591
 50
156.6437368981706015
 51
177.1384472939940053
  0
ARC
  5
27346
  8
0
 10
3252.325869305706874
 20
172.8635351474827075
 30
0.0
 40
0.0012196925626757
 50
128.2592180107241973
 51
156.6437368982913938
  0
ARC
  5
27347
  8
0
 10
3252.3257608119561155
 20
172.863672725617505
 30
0.0
 40
0.0010444822971991
 50
41.0594386649845333
 51
128.2592180108970012
  0
ARC
  5
27348
  8
0
 10
3252.2949736928921993
 20
172.8416497448208133
 30
0.0
 40
0.0388929487995592
 50
13.7030365674991401
 51
35.7243153021754409
  0
ARC
  5
27349
  8
0
 10
3252.223162983821112
 20
172.8176441009748885
 30
0.0
 40
0.114520400732351
 50
5.1270124854253583
 51
16.8621717974684096
  0
ARC
  5
2734A
  8
0
 10
3252.3058270471769902
 20
172.8250717180139873
 30
0.0
 40
0.0315233137472356
 50
352.826215666328892
 51
5.1075313126135189
  0
ARC
  5
2734B
  8
0
 10
3252.3331902266158977
 20
172.8215153794797914
 30
0.0
 40
0.0039318004451346
 50
324.2210631573980208
 51
354.4498744823075072
  0
ARC
  5
2734C
  8
0
 10
3252.3356247211959271
 20
172.8197252843033027
 30
0.0
 40
0.0009106097089856
 50
239.2873214325429103
 51
326.0407685269408944
  0
ARC
  5
2734D
  8
0
 10
3252.344235467307044
 20
172.8288871257092012
 30
0.0
 40
0.0134635885147087
 50
199.0885885120331125
 51
227.6155876276150138
  0
ARC
  5
2734E
  8
0
 10
3252.4317550579539784
 20
172.8645087480612119
 30
0.0
 40
0.107937959331763
 50
188.8613748221009132
 51
201.7656612362054034
  0
ARC
  5
2734F
  8
0
 10
3252.3842279014820633
 20
172.8589246206553014
 30
0.0
 40
0.0601449420990958
 50
177.6701260962821038
 51
190.579997083595913
  0
ARC
  5
27350
  8
0
 10
3251.9770502589849457
 20
172.5448377648476992
 30
0.0
 40
0.4404371077961129
 50
6.6874416223581861
 51
13.2618710430601503
  0
ARC
  5
27351
  8
0
 10
3252.1948975678410534
 20
172.5703805355099121
 30
0.0
 40
0.2210974554095047
 50
0.5952805693987163
 51
6.6874416223565678
  0
ARC
  5
27352
  8
0
 10
3252.334633954527817
 20
172.5718323937387879
 30
0.0
 40
0.0813535265375987
 50
347.5213760978131177
 51
0.5952805693987163
  0
ARC
  5
27353
  8
0
 10
3252.4049687393999193
 20
172.5562670754848114
 30
0.0
 40
0.0093170004172256
 50
332.1279097429659828
 51
347.5213760978131177
  0
ARC
  5
27354
  8
0
 10
3252.401721965391971
 20
172.5579841294193102
 30
0.0
 40
0.0129898488591793
 50
316.6496801069321805
 51
332.1279097429854232
  0
ARC
  5
27355
  8
0
 10
3252.409068041044975
 20
172.5510493468854918
 30
0.0
 40
0.0028875700913796
 50
264.741678059370372
 51
316.649680106964297
  0
ARC
  5
27356
  8
0
 10
3252.4093958472349186
 20
172.5546111581494984
 30
0.0
 40
0.0064644341338394
 50
243.1846991259970991
 51
264.7416780593702015
  0
ARC
  5
27357
  8
0
 10
3252.4186932393608913
 20
172.5669128481586938
 30
0.0
 40
0.0218112847146872
 50
210.9322906706765934
 51
235.9464799032143958
  0
ARC
  5
27358
  8
0
 10
3252.4675458922670259
 20
172.5999747645215905
 30
0.0
 40
0.0807758661428903
 50
205.8996835226166127
 51
213.2369358246205877
  0
ARC
  5
27359
  8
0
 10
3252.3844608870040247
 20
172.5572737598444917
 30
0.0
 40
0.0127927886864253
 50
35.4425478992932099
 51
56.6920086396435465
  0
ARC
  5
2735A
  8
0
 10
3252.3819637536398659
 20
172.5454170137867891
 30
0.0
 40
0.0244762556996301
 50
67.1054374380664456
 51
105.0766286771032014
  0
ARC
  5
2735B
  8
0
 10
3251.6753130949541628
 20
175.0954639853810022
 30
0.0
 40
2.6216715279059399
 50
285.0801343026860764
 51
285.4925812503370821
  0
ARC
  5
2735C
  8
0
 10
3252.3508736735320781
 20
172.5942360157526139
 30
0.0
 40
0.0308572597805068
 50
213.9549178866421926
 51
282.1964357332536224
  0
ARC
  5
2735D
  8
0
 10
3252.439169015313837
 20
172.6454457726916871
 30
0.0
 40
0.1328750869583456
 50
191.0406655683011934
 51
211.0045551080129087
  0
ARC
  5
2735E
  8
0
 10
3252.4867621059438534
 20
172.6632923471823062
 30
0.0
 40
0.1831977892772341
 50
181.1842357016084009
 51
193.6693174152665904
  0
ARC
  5
2735F
  8
0
 10
3252.3422614476880881
 20
172.661583453828797
 30
0.0
 40
0.0387137742946708
 50
140.074324941392689
 51
183.0758749419414926
  0
ARC
  5
27360
  8
0
 10
3252.3340255583161706
 20
172.6667108953579941
 30
0.0
 40
0.0291385549695079
 50
105.4539302993558039
 51
137.4117164272655884
  0
ARC
  5
27361
  8
0
 10
3547.5444050986720868
 20
-899.3925511837253453
 30
0.0
 40
1111.9914713543280413
 50
105.3946544557649929
 51
105.3958317140195931
  0
ARC
  5
27362
  8
0
 10
3252.3436429016069269
 20
172.7204461435547103
 30
0.0
 40
0.0201282359872012
 50
283.3470284637149916
 51
336.3414776724748094
  0
ARC
  5
27363
  8
0
 10
3252.4451875718559677
 20
172.7123194555107943
 30
0.0
 40
0.0831081601849189
 50
171.8070063284127116
 51
179.9658514619517007
  0
ARC
  5
27364
  8
0
 10
3252.3820904238041294
 20
172.7221384957910004
 30
0.0
 40
0.0192694303625214
 50
148.0006193762550026
 51
173.9691293290262877
  0
ARC
  5
27365
  8
0
 10
3252.3688995791399066
 20
172.728933705084188
 30
0.0
 40
0.0046470198012067
 50
55.3792051605434494
 51
132.6873857075279091
  0
ARC
  5
27366
  8
0
 10
3252.2916277353251644
 20
172.6661880154449022
 30
0.0
 40
0.1040070980612172
 50
15.5571561331308903
 51
39.7956336986689081
  0
ARC
  5
27367
  8
0
 10
3251.9644132510497911
 20
172.5445785612621137
 30
0.0
 40
0.4528043056890389
 50
12.9269723443083802
 51
19.2793234645443512
  0
ARC
  5
27368
  8
0
 10
3252.3163880030188011
 20
172.6414148388182923
 30
0.0
 40
0.0076445180078591
 50
156.6437368981706015
 51
177.1384472939940053
  0
ARC
  5
27369
  8
0
 10
3252.3104896436898343
 20
172.6439619429044967
 30
0.0
 40
0.0012196925626757
 50
128.2592180107241973
 51
156.6437368982913938
  0
ARC
  5
2736A
  8
0
 10
3252.3103811499390758
 20
172.6440995210392089
 30
0.0
 40
0.0010444822971991
 50
41.0594386649845333
 51
128.2592180108970012
  0
ARC
  5
2736B
  8
0
 10
3252.2795940308751597
 20
172.6220765402426025
 30
0.0
 40
0.0388929487995592
 50
13.7030365674991401
 51
35.7243153021754409
  0
ARC
  5
2736C
  8
0
 10
3252.2077833218040723
 20
172.5980708963965924
 30
0.0
 40
0.114520400732351
 50
5.1270124854253583
 51
16.8621717974684096
  0
ARC
  5
2736D
  8
0
 10
3252.2904473851599505
 20
172.6054985134358049
 30
0.0
 40
0.0315233137472356
 50
352.826215666328892
 51
5.1075313126135189
  0
ARC
  5
2736E
  8
0
 10
3252.3178105645979485
 20
172.601942174901609
 30
0.0
 40
0.0039318004451346
 50
324.2210631573980208
 51
354.4498744823075072
  0
ARC
  5
2736F
  8
0
 10
3252.320245059177978
 20
172.6001520797250066
 30
0.0
 40
0.0009106097089856
 50
239.2873214325429103
 51
326.0407685269408944
  0
ARC
  5
27370
  8
0
 10
3252.3288558052900044
 20
172.6093139211309904
 30
0.0
 40
0.0134635885147087
 50
199.0885885120331125
 51
227.6155876276150138
  0
ARC
  5
27371
  8
0
 10
3252.4163753959369387
 20
172.6449355434828874
 30
0.0
 40
0.107937959331763
 50
188.8613748221009132
 51
201.7656612362054034
  0
ARC
  5
27372
  8
0
 10
3252.3688482394641142
 20
172.6393514160770906
 30
0.0
 40
0.0601449420990958
 50
177.6701260962821038
 51
190.579997083595913
  0
ARC
  5
27373
  8
0
 10
3252.1325579604617815
 20
172.2674998236888086
 30
0.0
 40
0.4404371077961129
 50
6.6874416223581861
 51
13.2618710430601503
  0
ARC
  5
27374
  8
0
 10
3252.3504052693187987
 20
172.2930425943509931
 30
0.0
 40
0.2210974554095047
 50
0.5952805693987163
 51
6.6874416223565678
  0
ARC
  5
27375
  8
0
 10
3252.490141656006017
 20
172.2944944525800111
 30
0.0
 40
0.0813535265375987
 50
347.5213760978131177
 51
0.5952805693987163
  0
ARC
  5
27376
  8
0
 10
3252.5604764408790288
 20
172.2789291343260061
 30
0.0
 40
0.0093170004172256
 50
332.1279097429659828
 51
347.5213760978131177
  0
ARC
  5
27377
  8
0
 10
3252.5572296668701711
 20
172.2806461882605049
 30
0.0
 40
0.0129898488591793
 50
316.6496801069321805
 51
332.1279097429854232
  0
ARC
  5
27378
  8
0
 10
3252.5645757425240845
 20
172.2737114057266012
 30
0.0
 40
0.0028875700913796
 50
264.741678059370372
 51
316.649680106964297
  0
ARC
  5
27379
  8
0
 10
3252.5649035487131187
 20
172.2772732169906931
 30
0.0
 40
0.0064644341338394
 50
243.1846991259970991
 51
264.7416780593702015
  0
ARC
  5
2737A
  8
0
 10
3252.5742009408390913
 20
172.2895749069998885
 30
0.0
 40
0.0218112847146872
 50
210.9322906706765934
 51
235.9464799032143958
  0
ARC
  5
2737B
  8
0
 10
3252.6230535937438617
 20
172.3226368233626999
 30
0.0
 40
0.0807758661428903
 50
205.8996835226166127
 51
213.2369358246205877
  0
ARC
  5
2737C
  8
0
 10
3252.5399685884822247
 20
172.2799358186856864
 30
0.0
 40
0.0127927886864253
 50
35.4425478992932099
 51
56.6920086396435465
  0
ARC
  5
2737D
  8
0
 10
3252.5374714551189754
 20
172.2680790726280122
 30
0.0
 40
0.0244762556996301
 50
67.1054374380664456
 51
105.0766286771032014
  0
ARC
  5
2737E
  8
0
 10
3251.8308207964319081
 20
174.8181260442221969
 30
0.0
 40
2.6216715279059399
 50
285.0801343026860764
 51
285.4925812503370821
  0
ARC
  5
2737F
  8
0
 10
3252.5063813750098234
 20
172.3168980745938086
 30
0.0
 40
0.0308572597805068
 50
213.9549178866421926
 51
282.1964357332536224
  0
ARC
  5
27380
  8
0
 10
3252.594676716792037
 20
172.3681078315327966
 30
0.0
 40
0.1328750869583456
 50
191.0406655683011934
 51
211.0045551080129087
  0
ARC
  5
27381
  8
0
 10
3252.6422698074211439
 20
172.3859544060233873
 30
0.0
 40
0.1831977892772341
 50
181.1842357016084009
 51
193.6693174152665904
  0
ARC
  5
27382
  8
0
 10
3252.4977691491658334
 20
172.3842455126699917
 30
0.0
 40
0.0387137742946708
 50
140.074324941392689
 51
183.0758749419414926
  0
ARC
  5
27383
  8
0
 10
3252.4895332597939159
 20
172.3893729541991888
 30
0.0
 40
0.0291385549695079
 50
105.4539302993558039
 51
137.4117164272655884
  0
ARC
  5
27384
  8
0
 10
3547.699912800149832
 20
-899.6698891248848895
 30
0.0
 40
1111.9914713543280413
 50
105.3946544557649929
 51
105.3958317140195931
  0
ARC
  5
27385
  8
0
 10
3252.4991506030860364
 20
172.443108202395905
 30
0.0
 40
0.0201282359872012
 50
283.3470284637149916
 51
336.3414776724748094
  0
ARC
  5
27386
  8
0
 10
3252.6006952733328035
 20
172.4349815143519891
 30
0.0
 40
0.0831081601849189
 50
171.8070063284127116
 51
179.9658514619517007
  0
ARC
  5
27387
  8
0
 10
3252.5375981252818747
 20
172.4448005546321951
 30
0.0
 40
0.0192694303625214
 50
148.0006193762550026
 51
173.9691293290262877
  0
ARC
  5
27388
  8
0
 10
3252.5244072806171971
 20
172.4515957639254111
 30
0.0
 40
0.0046470198012067
 50
55.3792051605434494
 51
132.6873857075279091
  0
ARC
  5
27389
  8
0
 10
3252.4471354368029097
 20
172.388850074286097
 30
0.0
 40
0.1040070980612172
 50
15.5571561331308903
 51
39.7956336986689081
  0
ARC
  5
2738A
  8
0
 10
3252.1199209525279912
 20
172.2672406201033084
 30
0.0
 40
0.4528043056890389
 50
12.9269723443083802
 51
19.2793234645443512
  0
ARC
  5
2738B
  8
0
 10
3252.4718957044970011
 20
172.3640768976594018
 30
0.0
 40
0.0076445180078591
 50
156.6437368981706015
 51
177.1384472939940053
  0
ARC
  5
2738C
  8
0
 10
3252.4659973451680344
 20
172.3666240017456914
 30
0.0
 40
0.0012196925626757
 50
128.2592180107241973
 51
156.6437368982913938
  0
ARC
  5
2738D
  8
0
 10
3252.4658888514168211
 20
172.3667615798804036
 30
0.0
 40
0.0010444822971991
 50
41.0594386649845333
 51
128.2592180108970012
  0
ARC
  5
2738E
  8
0
 10
3252.4351017323519955
 20
172.344738599083712
 30
0.0
 40
0.0388929487995592
 50
13.7030365674991401
 51
35.7243153021754409
  0
ARC
  5
2738F
  8
0
 10
3252.3632910232818176
 20
172.3207329552377871
 30
0.0
 40
0.114520400732351
 50
5.1270124854253583
 51
16.8621717974684096
  0
ARC
  5
27390
  8
0
 10
3252.4459550866381505
 20
172.3281605722768859
 30
0.0
 40
0.0315233137472356
 50
352.826215666328892
 51
5.1075313126135189
  0
ARC
  5
27391
  8
0
 10
3252.4733182660761486
 20
172.3246042337428037
 30
0.0
 40
0.0039318004451346
 50
324.2210631573980208
 51
354.4498744823075072
  0
ARC
  5
27392
  8
0
 10
3252.4757527606570875
 20
172.3228141385662013
 30
0.0
 40
0.0009106097089856
 50
239.2873214325429103
 51
326.0407685269408944
  0
ARC
  5
27393
  8
0
 10
3252.4843635067682044
 20
172.3319759799720998
 30
0.0
 40
0.0134635885147087
 50
199.0885885120331125
 51
227.6155876276150138
  0
ARC
  5
27394
  8
0
 10
3252.5718830974151388
 20
172.3675976023241105
 30
0.0
 40
0.107937959331763
 50
188.8613748221009132
 51
201.7656612362054034
  0
ARC
  5
27395
  8
0
 10
3252.5243559409432237
 20
172.3620134749183137
 30
0.0
 40
0.0601449420990958
 50
177.6701260962821038
 51
190.579997083595913
  0
ARC
  5
27396
  8
0
 10
3252.2702313882609815
 20
171.7760207761124889
 30
0.0
 40
0.4404371077961129
 50
6.6874416223581861
 51
13.2618710430601503
  0
ARC
  5
27397
  8
0
 10
3252.4880786971170892
 20
171.801563546774787
 30
0.0
 40
0.2210974554095047
 50
0.5952805693987163
 51
6.6874416223565678
  0
ARC
  5
27398
  8
0
 10
3252.6278150838029433
 20
171.8030154050036913
 30
0.0
 40
0.0813535265375987
 50
347.5213760978131177
 51
0.5952805693987163
  0
ARC
  5
27399
  8
0
 10
3252.6981498686768646
 20
171.7874500867496863
 30
0.0
 40
0.0093170004172256
 50
332.1279097429659828
 51
347.5213760978131177
  0
ARC
  5
2739A
  8
0
 10
3252.6949030946670973
 20
171.7891671406842136
 30
0.0
 40
0.0129898488591793
 50
316.6496801069321805
 51
332.1279097429854232
  0
ARC
  5
2739B
  8
0
 10
3252.7022491703210108
 20
171.7822323581503952
 30
0.0
 40
0.0028875700913796
 50
264.741678059370372
 51
316.649680106964297
  0
ARC
  5
2739C
  8
0
 10
3252.7025769765100449
 20
171.7857941694144017
 30
0.0
 40
0.0064644341338394
 50
243.1846991259970991
 51
264.7416780593702015
  0
ARC
  5
2739D
  8
0
 10
3252.7118743686369271
 20
171.7980958594235972
 30
0.0
 40
0.0218112847146872
 50
210.9322906706765934
 51
235.9464799032143958
  0
ARC
  5
2739E
  8
0
 10
3252.7607270215421522
 20
171.8311577757864086
 30
0.0
 40
0.0807758661428903
 50
205.8996835226166127
 51
213.2369358246205877
  0
ARC
  5
2739F
  8
0
 10
3252.6776420162800605
 20
171.788456771109395
 30
0.0
 40
0.0127927886864253
 50
35.4425478992932099
 51
56.6920086396435465
  0
ARC
  5
273A0
  8
0
 10
3252.6751448829159017
 20
171.7766000250516925
 30
0.0
 40
0.0244762556996301
 50
67.1054374380664456
 51
105.0766286771032014
  0
ARC
  5
273A1
  8
0
 10
3251.9684942242301986
 20
174.3266469966459056
 30
0.0
 40
2.6216715279059399
 50
285.0801343026860764
 51
285.4925812503370821
  0
ARC
  5
273A2
  8
0
 10
3252.6440548028081139
 20
171.8254190270174888
 30
0.0
 40
0.0308572597805068
 50
213.9549178866421926
 51
282.1964357332536224
  0
ARC
  5
273A3
  8
0
 10
3252.7323501445889633
 20
171.8766287839565905
 30
0.0
 40
0.1328750869583456
 50
191.0406655683011934
 51
211.0045551080129087
  0
ARC
  5
273A4
  8
0
 10
3252.7799432352189797
 20
171.8944753584470959
 30
0.0
 40
0.1831977892772341
 50
181.1842357016084009
 51
193.6693174152665904
  0
ARC
  5
273A5
  8
0
 10
3252.6354425769632144
 20
171.8927664650937004
 30
0.0
 40
0.0387137742946708
 50
140.074324941392689
 51
183.0758749419414926
  0
ARC
  5
273A6
  8
0
 10
3252.6272066875922064
 20
171.8978939066228975
 30
0.0
 40
0.0291385549695079
 50
105.4539302993558039
 51
137.4117164272655884
  0
ARC
  5
273A7
  8
0
 10
3547.837586227947213
 20
-900.161368172460584
 30
0.0
 40
1111.9914713543280413
 50
105.3946544557649929
 51
105.3958317140195931
  0
ARC
  5
273A8
  8
0
 10
3252.6368240308829627
 20
171.9516291548196136
 30
0.0
 40
0.0201282359872012
 50
283.3470284637149916
 51
336.3414776724748094
  0
ARC
  5
273A9
  8
0
 10
3252.738368701131094
 20
171.9435024667756977
 30
0.0
 40
0.0831081601849189
 50
171.8070063284127116
 51
179.9658514619517007
  0
ARC
  5
273AA
  8
0
 10
3252.6752715530801652
 20
171.9533215070559038
 30
0.0
 40
0.0192694303625214
 50
148.0006193762550026
 51
173.9691293290262877
  0
ARC
  5
273AB
  8
0
 10
3252.6620807084159424
 20
171.9601167163490913
 30
0.0
 40
0.0046470198012067
 50
55.3792051605434494
 51
132.6873857075279091
  0
ARC
  5
273AC
  8
0
 10
3252.5848088646021097
 20
171.8973710267098056
 30
0.0
 40
0.1040070980612172
 50
15.5571561331308903
 51
39.7956336986689081
  0
ARC
  5
273AD
  8
0
 10
3252.2575943803258269
 20
171.7757615725269886
 30
0.0
 40
0.4528043056890389
 50
12.9269723443083802
 51
19.2793234645443512
  0
ARC
  5
273AE
  8
0
 10
3252.6095691322948369
 20
171.8725978500831957
 30
0.0
 40
0.0076445180078591
 50
156.6437368981706015
 51
177.1384472939940053
  0
ARC
  5
273AF
  8
0
 10
3252.6036707729658701
 20
171.8751449541694001
 30
0.0
 40
0.0012196925626757
 50
128.2592180107241973
 51
156.6437368982913938
  0
ARC
  5
273B0
  8
0
 10
3252.6035622792151116
 20
171.8752825323041975
 30
0.0
 40
0.0010444822971991
 50
41.0594386649845333
 51
128.2592180108970012
  0
ARC
  5
273B1
  8
0
 10
3252.5727751601498312
 20
171.8532595515075059
 30
0.0
 40
0.0388929487995592
 50
13.7030365674991401
 51
35.7243153021754409
  0
ARC
  5
273B2
  8
0
 10
3252.5009644510801081
 20
171.8292539076616094
 30
0.0
 40
0.114520400732351
 50
5.1270124854253583
 51
16.8621717974684096
  0
ARC
  5
273B3
  8
0
 10
3252.5836285144359863
 20
171.8366815247005945
 30
0.0
 40
0.0315233137472356
 50
352.826215666328892
 51
5.1075313126135189
  0
ARC
  5
273B4
  8
0
 10
3252.6109916938739843
 20
171.8331251861665123
 30
0.0
 40
0.0039318004451346
 50
324.2210631573980208
 51
354.4498744823075072
  0
ARC
  5
273B5
  8
0
 10
3252.6134261884540138
 20
171.8313350909899953
 30
0.0
 40
0.0009106097089856
 50
239.2873214325429103
 51
326.0407685269408944
  0
ARC
  5
273B6
  8
0
 10
3252.6220369345651307
 20
171.8404969323958085
 30
0.0
 40
0.0134635885147087
 50
199.0885885120331125
 51
227.6155876276150138
  0
ARC
  5
273B7
  8
0
 10
3252.7095565252129745
 20
171.8761185547477908
 30
0.0
 40
0.107937959331763
 50
188.8613748221009132
 51
201.7656612362054034
  0
ARC
  5
273B8
  8
0
 10
3252.6620293687401499
 20
171.8705344273419939
 30
0.0
 40
0.0601449420990958
 50
177.6701260962821038
 51
190.579997083595913
  0
ARC
  5
273B9
  8
0
 10
3252.0871305536179534
 20
173.35075707591389
 30
0.0
 40
0.0286199307110216
 50
105.5150340927378068
 51
153.7085580026680134
  0
ARC
  5
273BA
  8
0
 10
3252.096913651768773
 20
173.3471532115634091
 30
0.0
 40
0.0390028568480171
 50
155.3279879180352907
 51
186.7032654547990944
  0
ARC
  5
273BB
  8
0
 10
3252.2122050272200795
 20
173.3554163422602983
 30
0.0
 40
0.1545598581632171
 50
184.7563257960750889
 51
191.9416055895
  0
ARC
  5
273BC
  8
0
 10
3252.3654676978671887
 20
173.3868707898371042
 30
0.0
 40
0.3110155730718826
 50
191.7687032790896069
 51
197.4350009662630043
  0
ARC
  5
273BD
  8
0
 10
3252.2101922609567737
 20
173.3346212369231978
 30
0.0
 40
0.1472562206060825
 50
196.1412163473418957
 51
208.8682431425723109
  0
ARC
  5
273BE
  8
0
 10
3252.10871007971582
 20
173.2793105116228958
 30
0.0
 40
0.031686056807893
 50
209.8771333335427016
 51
255.1717366095687112
  0
ARC
  5
273BF
  8
0
 10
3252.1076081354740381
 20
173.2757838167759132
 30
0.0
 40
0.0279952707635843
 50
255.5046942294719088
 51
285.4016456706493159
  0
ARC
  5
273C0
  8
0
 10
3252.8900548811911904
 20
170.4546199479848951
 30
0.0
 40
2.8996639878896069
 50
105.0731357126614967
 51
105.5022588631773033
  0
ARC
  5
273C1
  8
0
 10
3252.1407141810032044
 20
173.2314094093221115
 30
0.0
 40
0.0235881212003224
 50
41.8454035237558699
 51
101.5481424776410933
  0
ARC
  5
273C2
  8
0
 10
3252.205245491290043
 20
173.2701323729291119
 30
0.0
 40
0.0522836228605228
 50
206.0819063143522101
 51
218.5169950892417887
  0
ARC
  5
273C3
  8
0
 10
3252.1713484702008827
 20
173.2431505200781032
 30
0.0
 40
0.0089589370651415
 50
218.5043617778432008
 51
241.1076236634137047
  0
ARC
  5
273C4
  8
0
 10
3252.1679502535598658
 20
173.2375946282978987
 30
0.0
 40
0.0024698725501039
 50
247.8696966799500103
 51
323.439012558338618
  0
ARC
  5
273C5
  8
0
 10
3252.1280948759708735
 20
173.248763573057488
 30
0.0
 40
0.0437069356344179
 50
343.1897301194114789
 51
8.7034833862794727
  0
ARC
  5
273C6
  8
0
 10
3251.7014242608729546
 20
173.2011136079374012
 30
0.0
 40
0.4729972154389153
 50
6.5876580281471551
 51
16.1595323677644913
  0
ARC
  5
273C7
  8
0
 10
3251.7743355801180769
 20
173.2343498345026092
 30
0.0
 40
0.393888278741412
 50
14.46742838912966
 51
26.27235681339398
  0
ARC
  5
273C8
  8
0
 10
3252.08808873832686
 20
173.3862818751597956
 30
0.0
 40
0.0453717794698529
 50
29.6103130110450685
 51
38.3695560536811229
  0
ARC
  5
273C9
  8
0
 10
3252.1167337089968896
 20
173.4096155425982886
 30
0.0
 40
0.0084451296596551
 50
34.8848565632726206
 51
69.9896849384930846
  0
ARC
  5
273CA
  8
0
 10
3252.1193599923221882
 20
173.4152932562222134
 30
0.0
 40
0.0022729235198892
 50
83.3414681909711135
 51
162.6815758218953931
  0
ARC
  5
273CB
  8
0
 10
3252.1457072986968342
 20
173.4070776889749084
 30
0.0
 40
0.0298714035210924
 50
162.6815758219512986
 51
182.2073825678174046
  0
ARC
  5
273CC
  8
0
 10
3252.0837972402077867
 20
173.4046913554998923
 30
0.0
 40
0.0320846287073044
 50
341.2370184552984256
 51
2.2073825678629482
  0
ARC
  5
273CD
  8
0
 10
3252.0940235098960329
 20
173.4070001171155013
 30
0.0
 40
0.0237832854797508
 50
283.8937629916907781
 51
327.9269932060327051
  0
ARC
  5
273CE
  8
0
 10
3575.4337572338458813
 20
-1000.8941442725370052
 30
0.0
 40
1217.9794108803760082
 50
105.3947371566419946
 51
105.3957256851227982
  0
ARC
  5
273CF
  8
0
 10
3252.2054347037951629
 20
173.3434051785552867
 30
0.0
 40
0.1433071359745676
 50
189.3339802749439116
 51
197.2361213032577041
  0
ARC
  5
273D0
  8
0
 10
3252.1688810192367782
 20
173.3300915838107983
 30
0.0
 40
0.1044670574844524
 50
196.2025108222354959
 51
204.1460138909586135
  0
ARC
  5
273D1
  8
0
 10
3252.0868451005421775
 20
173.293030379413608
 30
0.0
 40
0.0144507614594371
 50
203.1124034099360074
 51
219.3993881985294934
  0
ARC
  5
273D2
  8
0
 10
3252.0768518306440455
 20
173.2848219936790883
 30
0.0
 40
0.0015185134093904
 50
219.3993881985445
 51
251.0300979349260899
  0
ARC
  5
273D3
  8
0
 10
3252.0765048075468258
 20
173.283812442958606
 30
0.0
 40
0.0004509846339342
 50
251.0300979349817965
 51
311.8344174488415206
  0
ARC
  5
273D4
  8
0
 10
3252.0756894891492266
 20
173.2845469277932864
 30
0.0
 40
0.0015465092365011
 50
316.1950403723951126
 51
348.9311534463719227
  0
ARC
  5
273D5
  8
0
 10
3252.0506634476641921
 20
173.2867023871247909
 30
0.0
 40
0.0266568274724615
 50
354.7214469196445066
 51
9.4477796520471973
  0
ARC
  5
273D6
  8
0
 10
3251.9270263966218408
 20
173.2672019099202032
 30
0.0
 40
0.1518214875470274
 50
9.0481643425652951
 51
20.1801054869615903
  0
ARC
  5
273D7
  8
0
 10
3252.0324758179322089
 20
173.3070056769103076
 30
0.0
 40
0.0391264621195291
 50
18.740185379528949
 51
32.8477751575751071
  0
ARC
  5
273D8
  8
0
 10
3252.0632132616688068
 20
173.3265855131132867
 30
0.0
 40
0.002692455839401
 50
37.597763833006411
 51
59.3398667813045222
  0
ARC
  5
273D9
  8
0
 10
3252.0643152044772251
 20
173.3284443413652127
 30
0.0
 40
0.0005315485251165
 50
59.339866781337733
 51
153.4763044263949041
  0
ARC
  5
273DA
  8
0
 10
3252.0683813112232201
 20
173.3267217421775968
 30
0.0
 40
0.0049465761537478
 50
156.6574202969470093
 51
184.5836367397787114
  0
ARC
  5
273DB
  8
0
 10
3252.1033615442720475
 20
173.3269369750265128
 30
0.0
 40
0.03991565830374
 50
180.8764086784362917
 51
189.7717746373361933
  0
ARC
  5
273DC
  8
0
 10
3252.1926948418959
 20
172.9443946426104901
 30
0.0
 40
0.0286199307110216
 50
105.5150340927378068
 51
153.7085580026680134
  0
ARC
  5
273DD
  8
0
 10
3252.2024779400480838
 20
172.9407907782600944
 30
0.0
 40
0.0390028568480171
 50
155.3279879180352907
 51
186.7032654547990944
  0
ARC
  5
273DE
  8
0
 10
3252.3177693154980261
 20
172.9490539089568131
 30
0.0
 40
0.1545598581632171
 50
184.7563257960750889
 51
191.9416055895
  0
ARC
  5
273DF
  8
0
 10
3252.4710319861460448
 20
172.9805083565337043
 30
0.0
 40
0.3110155730718826
 50
191.7687032790896069
 51
197.4350009662630043
  0
ARC
  5
273E0
  8
0
 10
3252.315756549235175
 20
172.9282588036197978
 30
0.0
 40
0.1472562206060825
 50
196.1412163473418957
 51
208.8682431425723109
  0
ARC
  5
273E1
  8
0
 10
3252.2142743679951309
 20
172.8729480783194958
 30
0.0
 40
0.031686056807893
 50
209.8771333335427016
 51
255.1717366095687112
  0
ARC
  5
273E2
  8
0
 10
3252.2131724237528942
 20
172.8694213834725986
 30
0.0
 40
0.0279952707635843
 50
255.5046942294719088
 51
285.4016456706493159
  0
ARC
  5
273E3
  8
0
 10
3252.9956191694700465
 20
170.0482575146814952
 30
0.0
 40
2.8996639878896069
 50
105.0731357126614967
 51
105.5022588631773033
  0
ARC
  5
273E4
  8
0
 10
3252.2462784692820605
 20
172.8250469760187116
 30
0.0
 40
0.0235881212003224
 50
41.8454035237558699
 51
101.5481424776410933
  0
ARC
  5
273E5
  8
0
 10
3252.3108097795688991
 20
172.8637699396257972
 30
0.0
 40
0.0522836228605228
 50
206.0819063143522101
 51
218.5169950892417887
  0
ARC
  5
273E6
  8
0
 10
3252.2769127584801936
 20
172.8367880867747033
 30
0.0
 40
0.0089589370651415
 50
218.5043617778432008
 51
241.1076236634137047
  0
ARC
  5
273E7
  8
0
 10
3252.2735145418378124
 20
172.8312321949944987
 30
0.0
 40
0.0024698725501039
 50
247.8696966799500103
 51
323.439012558338618
  0
ARC
  5
273E8
  8
0
 10
3252.2336591642501844
 20
172.842401139754088
 30
0.0
 40
0.0437069356344179
 50
343.1897301194114789
 51
8.7034833862794727
  0
ARC
  5
273E9
  8
0
 10
3251.8069885491518107
 20
172.7947511746340012
 30
0.0
 40
0.4729972154389153
 50
6.5876580281471551
 51
16.1595323677644913
  0
ARC
  5
273EA
  8
0
 10
3251.8798998683960235
 20
172.8279874011992092
 30
0.0
 40
0.393888278741412
 50
14.46742838912966
 51
26.27235681339398
  0
ARC
  5
273EB
  8
0
 10
3252.1936530266061709
 20
172.9799194418563957
 30
0.0
 40
0.0453717794698529
 50
29.6103130110450685
 51
38.3695560536811229
  0
ARC
  5
273EC
  8
0
 10
3252.2222979972748362
 20
173.0032531092950023
 30
0.0
 40
0.0084451296596551
 50
34.8848565632726206
 51
69.9896849384930846
  0
ARC
  5
273ED
  8
0
 10
3252.2249242806001348
 20
173.0089308229188134
 30
0.0
 40
0.0022729235198892
 50
83.3414681909711135
 51
162.6815758218953931
  0
ARC
  5
273EE
  8
0
 10
3252.2512715869747808
 20
173.0007152556715937
 30
0.0
 40
0.0298714035210924
 50
162.6815758219512986
 51
182.2073825678174046
  0
ARC
  5
273EF
  8
0
 10
3252.1893615284870975
 20
172.9983289221966061
 30
0.0
 40
0.0320846287073044
 50
341.2370184552984256
 51
2.2073825678629482
  0
ARC
  5
273F0
  8
0
 10
3252.199587798174889
 20
173.0006376838121014
 30
0.0
 40
0.0237832854797508
 50
283.8937629916907781
 51
327.9269932060327051
  0
ARC
  5
273F1
  8
0
 10
3575.5393215221251921
 20
-1001.3005067058400073
 30
0.0
 40
1217.9794108803760082
 50
105.3947371566419946
 51
105.3957256851227982
  0
ARC
  5
273F2
  8
0
 10
3252.3109989920731095
 20
172.9370427452518868
 30
0.0
 40
0.1433071359745676
 50
189.3339802749439116
 51
197.2361213032577041
  0
ARC
  5
273F3
  8
0
 10
3252.2744453075160891
 20
172.923729150507512
 30
0.0
 40
0.1044670574844524
 50
196.2025108222354959
 51
204.1460138909586135
  0
ARC
  5
273F4
  8
0
 10
3252.1924093888210336
 20
172.886667946110208
 30
0.0
 40
0.0144507614594371
 50
203.1124034099360074
 51
219.3993881985294934
  0
ARC
  5
273F5
  8
0
 10
3252.1824161189219922
 20
172.8784595603756884
 30
0.0
 40
0.0015185134093904
 50
219.3993881985445
 51
251.0300979349260899
  0
ARC
  5
273F6
  8
0
 10
3252.1820690958270461
 20
172.877450009655206
 30
0.0
 40
0.0004509846339342
 50
251.0300979349817965
 51
311.8344174488415206
  0
ARC
  5
273F7
  8
0
 10
3252.1812537774280827
 20
172.8781844944898864
 30
0.0
 40
0.0015465092365011
 50
316.1950403723951126
 51
348.9311534463719227
  0
ARC
  5
273F8
  8
0
 10
3252.1562277359407744
 20
172.880339953821391
 30
0.0
 40
0.0266568274724615
 50
354.7214469196445066
 51
9.4477796520471973
  0
ARC
  5
273F9
  8
0
 10
3252.0325906849011517
 20
172.8608394766168033
 30
0.0
 40
0.1518214875470274
 50
9.0481643425652951
 51
20.1801054869615903
  0
ARC
  5
273FA
  8
0
 10
3252.138040106211065
 20
172.9006432436069076
 30
0.0
 40
0.0391264621195291
 50
18.740185379528949
 51
32.8477751575751071
  0
ARC
  5
273FB
  8
0
 10
3252.1687775499472082
 20
172.9202230798098867
 30
0.0
 40
0.002692455839401
 50
37.597763833006411
 51
59.3398667813045222
  0
ARC
  5
273FC
  8
0
 10
3252.1698794927538074
 20
172.9220819080618128
 30
0.0
 40
0.0005315485251165
 50
59.339866781337733
 51
153.4763044263949041
  0
ARC
  5
273FD
  8
0
 10
3252.1739455995011667
 20
172.9203593088741968
 30
0.0
 40
0.0049465761537478
 50
156.6574202969470093
 51
184.5836367397787114
  0
ARC
  5
273FE
  8
0
 10
3252.2089258325509036
 20
172.9205745417231128
 30
0.0
 40
0.03991565830374
 50
180.8764086784362917
 51
189.7717746373361933
  0
ARC
  5
273FF
  8
0
 10
3251.844267703846981
 20
174.5168192219740888
 30
0.0
 40
0.0286199307110216
 50
105.5150340927378068
 51
153.7085580026680134
  0
ARC
  5
27400
  8
0
 10
3251.8540508020000743
 20
174.5132153576236078
 30
0.0
 40
0.0390028568480171
 50
155.3279879180352907
 51
186.7032654547990944
  0
ARC
  5
27401
  8
0
 10
3251.9693421774500166
 20
174.521478488320497
 30
0.0
 40
0.1545598581632171
 50
184.7563257960750889
 51
191.9416055895
  0
ARC
  5
27402
  8
0
 10
3252.1226048480971258
 20
174.552932935897303
 30
0.0
 40
0.3110155730718826
 50
191.7687032790896069
 51
197.4350009662630043
  0
ARC
  5
27403
  8
0
 10
3251.9673294111871655
 20
174.5006833829833965
 30
0.0
 40
0.1472562206060825
 50
196.1412163473418957
 51
208.8682431425723109
  0
ARC
  5
27404
  8
0
 10
3251.8658472299471214
 20
174.4453726576830945
 30
0.0
 40
0.031686056807893
 50
209.8771333335427016
 51
255.1717366095687112
  0
ARC
  5
27405
  8
0
 10
3251.8647452857030657
 20
174.4418459628361973
 30
0.0
 40
0.0279952707635843
 50
255.5046942294719088
 51
285.4016456706493159
  0
ARC
  5
27406
  8
0
 10
3252.6471920314211275
 20
171.6206820940450939
 30
0.0
 40
2.8996639878896069
 50
105.0731357126614967
 51
105.5022588631773033
  0
ARC
  5
27407
  8
0
 10
3251.8978513312331415
 20
174.3974715553823103
 30
0.0
 40
0.0235881212003224
 50
41.8454035237558699
 51
101.5481424776410933
  0
ARC
  5
27408
  8
0
 10
3251.9623826415199801
 20
174.4361945189893106
 30
0.0
 40
0.0522836228605228
 50
206.0819063143522101
 51
218.5169950892417887
  0
ARC
  5
27409
  8
0
 10
3251.9284856204299103
 20
174.409212666138302
 30
0.0
 40
0.0089589370651415
 50
218.5043617778432008
 51
241.1076236634137047
  0
ARC
  5
2740A
  8
0
 10
3251.9250874037888934
 20
174.4036567743580974
 30
0.0
 40
0.0024698725501039
 50
247.8696966799500103
 51
323.439012558338618
  0
ARC
  5
2740B
  8
0
 10
3251.8852320262008107
 20
174.4148257191176867
 30
0.0
 40
0.0437069356344179
 50
343.1897301194114789
 51
8.7034833862794727
  0
ARC
  5
2740C
  8
0
 10
3251.4585614111028917
 20
174.3671757539977136
 30
0.0
 40
0.4729972154389153
 50
6.5876580281471551
 51
16.1595323677644913
  0
ARC
  5
2740D
  8
0
 10
3251.5314727303471045
 20
174.4004119805628079
 30
0.0
 40
0.393888278741412
 50
14.46742838912966
 51
26.27235681339398
  0
ARC
  5
2740E
  8
0
 10
3251.8452258885567971
 20
174.5523440212201081
 30
0.0
 40
0.0453717794698529
 50
29.6103130110450685
 51
38.3695560536811229
  0
ARC
  5
2740F
  8
0
 10
3251.8738708592250077
 20
174.575677688658601
 30
0.0
 40
0.0084451296596551
 50
34.8848565632726206
 51
69.9896849384930846
  0
ARC
  5
27410
  8
0
 10
3251.8764971425521253
 20
174.5813554022824121
 30
0.0
 40
0.0022729235198892
 50
83.3414681909711135
 51
162.6815758218953931
  0
ARC
  5
27411
  8
0
 10
3251.9028444489258618
 20
174.5731398350351924
 30
0.0
 40
0.0298714035210924
 50
162.6815758219512986
 51
182.2073825678174046
  0
ARC
  5
27412
  8
0
 10
3251.8409343904381785
 20
174.5707535015600911
 30
0.0
 40
0.0320846287073044
 50
341.2370184552984256
 51
2.2073825678629482
  0
ARC
  5
27413
  8
0
 10
3251.85116066012597
 20
174.5730622631757001
 30
0.0
 40
0.0237832854797508
 50
283.8937629916907781
 51
327.9269932060327051
  0
ARC
  5
27414
  8
0
 10
3575.1908943840758184
 20
-999.7280821264765791
 30
0.0
 40
1217.9794108803760082
 50
105.3947371566419946
 51
105.3957256851227982
  0
ARC
  5
27415
  8
0
 10
3251.9625718540241905
 20
174.5094673246155139
 30
0.0
 40
0.1433071359745676
 50
189.3339802749439116
 51
197.2361213032577041
  0
ARC
  5
27416
  8
0
 10
3251.9260181694671701
 20
174.4961537298711107
 30
0.0
 40
0.1044670574844524
 50
196.2025108222354959
 51
204.1460138909586135
  0
ARC
  5
27417
  8
0
 10
3251.8439822507721146
 20
174.4590925254738067
 30
0.0
 40
0.0144507614594371
 50
203.1124034099360074
 51
219.3993881985294934
  0
ARC
  5
27418
  8
0
 10
3251.8339889808739827
 20
174.4508841397392871
 30
0.0
 40
0.0015185134093904
 50
219.3993881985445
 51
251.0300979349260899
  0
ARC
  5
27419
  8
0
 10
3251.8336419577781271
 20
174.4498745890188047
 30
0.0
 40
0.0004509846339342
 50
251.0300979349817965
 51
311.8344174488415206
  0
ARC
  5
2741A
  8
0
 10
3251.8328266393791637
 20
174.4506090738535136
 30
0.0
 40
0.0015465092365011
 50
316.1950403723951126
 51
348.9311534463719227
  0
ARC
  5
2741B
  8
0
 10
3251.8078005978932197
 20
174.4527645331849897
 30
0.0
 40
0.0266568274724615
 50
354.7214469196445066
 51
9.4477796520471973
  0
ARC
  5
2741C
  8
0
 10
3251.6841635468517779
 20
174.433264055980402
 30
0.0
 40
0.1518214875470274
 50
9.0481643425652951
 51
20.1801054869615903
  0
ARC
  5
2741D
  8
0
 10
3251.789612968162146
 20
174.4730678229705916
 30
0.0
 40
0.0391264621195291
 50
18.740185379528949
 51
32.8477751575751071
  0
ARC
  5
2741E
  8
0
 10
3251.8203504118991987
 20
174.4926476591735138
 30
0.0
 40
0.002692455839401
 50
37.597763833006411
 51
59.3398667813045222
  0
ARC
  5
2741F
  8
0
 10
3251.8214523547057979
 20
174.4945064874254115
 30
0.0
 40
0.0005315485251165
 50
59.339866781337733
 51
153.4763044263949041
  0
ARC
  5
27420
  8
0
 10
3251.8255184614531572
 20
174.4927838882377955
 30
0.0
 40
0.0049465761537478
 50
156.6574202969470093
 51
184.5836367397787114
  0
ARC
  5
27421
  8
0
 10
3251.8604986945019846
 20
174.4929991210867115
 30
0.0
 40
0.03991565830374
 50
180.8764086784362917
 51
189.7717746373361933
  0
ARC
  5
27422
  8
0
 10
3251.8763645633612214
 20
174.1599546194543962
 30
0.0
 40
0.0286199307110216
 50
105.5150340927378068
 51
153.7085580026680134
  0
ARC
  5
27423
  8
0
 10
3251.8861476615129504
 20
174.1563507551040004
 30
0.0
 40
0.0390028568480171
 50
155.3279879180352907
 51
186.7032654547990944
  0
ARC
  5
27424
  8
0
 10
3252.0014390369628927
 20
174.1646138858008044
 30
0.0
 40
0.1545598581632171
 50
184.7563257960750889
 51
191.9416055895
  0
ARC
  5
27425
  8
0
 10
3252.1547017076100019
 20
174.1960683333776956
 30
0.0
 40
0.3110155730718826
 50
191.7687032790896069
 51
197.4350009662630043
  0
ARC
  5
27426
  8
0
 10
3251.9994262707009511
 20
174.1438187804637039
 30
0.0
 40
0.1472562206060825
 50
196.1412163473418957
 51
208.8682431425723109
  0
ARC
  5
27427
  8
0
 10
3251.8979440894599975
 20
174.0885080551634019
 30
0.0
 40
0.031686056807893
 50
209.8771333335427016
 51
255.1717366095687112
  0
ARC
  5
27428
  8
0
 10
3251.8968421452168513
 20
174.0849813603165046
 30
0.0
 40
0.0279952707635843
 50
255.5046942294719088
 51
285.4016456706493159
  0
ARC
  5
27429
  8
0
 10
3252.6792888909349131
 20
171.2638174915254012
 30
0.0
 40
2.8996639878896069
 50
105.0731357126614967
 51
105.5022588631773033
  0
ARC
  5
2742A
  8
0
 10
3251.9299481907469271
 20
174.0406069528625892
 30
0.0
 40
0.0235881212003224
 50
99.2014525760730663
 51
101.5481424776410933
  0
ARC
  5
2742B
  8
0
 10
3251.4906582706162226
 20
174.0103111514779926
 30
0.0
 40
0.4729972154389153
 50
10.4105921665309893
 51
16.1595323677644913
  0
ARC
  5
2742C
  8
0
 10
3251.5635695898608901
 20
174.0435473780430868
 30
0.0
 40
0.393888278741412
 50
14.46742838912966
 51
26.27235681339398
  0
ARC
  5
2742D
  8
0
 10
3251.877322748070128
 20
174.195479418700387
 30
0.0
 40
0.0453717794698529
 50
29.6103130110450685
 51
38.3695560536811229
  0
ARC
  5
2742E
  8
0
 10
3251.9059677187401576
 20
174.2188130861389084
 30
0.0
 40
0.0084451296596551
 50
34.8848565632726206
 51
69.9896849384930846
  0
ARC
  5
2742F
  8
0
 10
3251.9085940020650014
 20
174.224490799762691
 30
0.0
 40
0.0022729235198892
 50
83.3414681909711135
 51
162.6815758218953931
  0
ARC
  5
27430
  8
0
 10
3251.9349413084401021
 20
174.2162752325154997
 30
0.0
 40
0.0298714035210924
 50
162.6815758219512986
 51
182.2073825678174046
  0
ARC
  5
27431
  8
0
 10
3251.8730312499519641
 20
174.2138888990405121
 30
0.0
 40
0.0320846287073044
 50
341.2370184552984256
 51
2.2073825678629482
  0
ARC
  5
27432
  8
0
 10
3251.8832575196388461
 20
174.2161976606560074
 30
0.0
 40
0.0237832854797508
 50
283.8937629916907781
 51
327.9269932060327051
  0
ARC
  5
27433
  8
0
 10
3575.2229912435891492
 20
-1000.0849467289959875
 30
0.0
 40
1217.9794108803760082
 50
105.3947371566419946
 51
105.3957256851227982
  0
ARC
  5
27434
  8
0
 10
3251.9946687135379761
 20
174.1526027220957928
 30
0.0
 40
0.1433071359745676
 50
189.3339802749439116
 51
197.2361213032577041
  0
ARC
  5
27435
  8
0
 10
3251.9581150289800462
 20
174.1392891273513897
 30
0.0
 40
0.1044670574844524
 50
196.2025108222354959
 51
204.1460138909586135
  0
ARC
  5
27436
  8
0
 10
3251.8760791102859002
 20
174.1022279229541141
 30
0.0
 40
0.0144507614594371
 50
203.1124034099360074
 51
219.3993881985294934
  0
ARC
  5
27437
  8
0
 10
3251.8660858403868588
 20
174.0940195372195944
 30
0.0
 40
0.0015185134093904
 50
219.3993881985445
 51
251.0300979349260899
  0
ARC
  5
27438
  8
0
 10
3251.8657388172910032
 20
174.0930099864991121
 30
0.0
 40
0.0004509846339342
 50
251.0300979349817965
 51
311.8344174488415206
  0
ARC
  5
27439
  8
0
 10
3251.8649234988929493
 20
174.0937444713337925
 30
0.0
 40
0.0015465092365011
 50
316.1950403723951126
 51
348.9311534463719227
  0
ARC
  5
2743A
  8
0
 10
3251.8398974574060958
 20
174.095899930665297
 30
0.0
 40
0.0266568274724615
 50
354.7214469196445066
 51
9.4477796520471973
  0
ARC
  5
2743B
  8
0
 10
3251.7162604063660183
 20
174.0763994534607093
 30
0.0
 40
0.1518214875470274
 50
9.0481643425652951
 51
20.1801054869615903
  0
ARC
  5
2743C
  8
0
 10
3251.8217098276759316
 20
174.1162032204508989
 30
0.0
 40
0.0391264621195291
 50
18.740185379528949
 51
32.8477751575751071
  0
ARC
  5
2743D
  8
0
 10
3251.8524472714120748
 20
174.1357830566539064
 30
0.0
 40
0.002692455839401
 50
37.597763833006411
 51
59.3398667813045222
  0
ARC
  5
2743E
  8
0
 10
3251.8535492142200383
 20
174.1376418849056904
 30
0.0
 40
0.0005315485251165
 50
59.339866781337733
 51
153.4763044263949041
  0
ARC
  5
2743F
  8
0
 10
3251.8576153209660333
 20
174.1359192857181029
 30
0.0
 40
0.0049465761537478
 50
156.6574202969470093
 51
184.5836367397787114
  0
ARC
  5
27440
  8
0
 10
3251.8925955540162249
 20
174.1361345185669904
 30
0.0
 40
0.03991565830374
 50
180.8764086784362917
 51
189.7717746373361933
  0
ARC
  5
27441
  8
0
 10
3251.8412312063260288
 20
174.8836136655085909
 30
0.0
 40
0.0286199307110216
 50
105.5150340927378068
 51
153.7085580026680134
  0
ARC
  5
27442
  8
0
 10
3251.8510143044791221
 20
174.8800098011581099
 30
0.0
 40
0.0390028568480171
 50
155.3279879180352907
 51
186.7032654547990944
  0
ARC
  5
27443
  8
0
 10
3251.9663056799281549
 20
174.8882729318549991
 30
0.0
 40
0.1545598581632171
 50
184.7563257960750889
 51
191.9416055895
  0
ARC
  5
27444
  8
0
 10
3252.1195683505761735
 20
174.919727379431805
 30
0.0
 40
0.3110155730718826
 50
191.7687032790896069
 51
197.4350009662630043
  0
ARC
  5
27445
  8
0
 10
3251.9642929136662133
 20
174.8674778265178986
 30
0.0
 40
0.1472562206060825
 50
196.1412163473418957
 51
208.8682431425723109
  0
ARC
  5
27446
  8
0
 10
3251.8628107324248049
 20
174.8121671012175966
 30
0.0
 40
0.031686056807893
 50
209.8771333335427016
 51
255.1717366095687112
  0
ARC
  5
27447
  8
0
 10
3251.8617087881821135
 20
174.8086404063706993
 30
0.0
 40
0.0279952707635843
 50
255.5046942294719088
 51
285.4016456706493159
  0
ARC
  5
27448
  8
0
 10
3252.6441555339001752
 20
171.987476537579596
 30
0.0
 40
2.8996639878896069
 50
105.0731357126614967
 51
105.5022588631773033
  0
ARC
  5
27449
  8
0
 10
3251.8948148337121893
 20
174.7642659989168124
 30
0.0
 40
0.0235881212003224
 50
41.8454035237558699
 51
101.5481424776410933
  0
ARC
  5
2744A
  8
0
 10
3251.9593461439990278
 20
174.8029889625238127
 30
0.0
 40
0.0522836228605228
 50
206.0819063143522101
 51
218.5169950892417887
  0
ARC
  5
2744B
  8
0
 10
3251.9254491229089581
 20
174.7760071096728041
 30
0.0
 40
0.0089589370651415
 50
218.5043617778432008
 51
241.1076236634137047
  0
ARC
  5
2744C
  8
0
 10
3251.9220509062679412
 20
174.7704512178925995
 30
0.0
 40
0.0024698725501039
 50
247.8696966799500103
 51
323.439012558338618
  0
ARC
  5
2744D
  8
0
 10
3251.8821955286798584
 20
174.7816201626523025
 30
0.0
 40
0.0437069356344179
 50
343.1897301194114789
 51
8.7034833862794727
  0
ARC
  5
2744E
  8
0
 10
3251.4555249135819395
 20
174.7339701975321873
 30
0.0
 40
0.4729972154389153
 50
6.5876580281471551
 51
16.1595323677644913
  0
ARC
  5
2744F
  8
0
 10
3251.5284362328261523
 20
174.76720642409731
 30
0.0
 40
0.393888278741412
 50
14.46742838912966
 51
26.27235681339398
  0
ARC
  5
27450
  8
0
 10
3251.8421893910358449
 20
174.9191384647544965
 30
0.0
 40
0.0453717794698529
 50
29.6103130110450685
 51
38.3695560536811229
  0
ARC
  5
27451
  8
0
 10
3251.8708343617040555
 20
174.9424721321931031
 30
0.0
 40
0.0084451296596551
 50
34.8848565632726206
 51
69.9896849384930846
  0
ARC
  5
27452
  8
0
 10
3251.873460645031173
 20
174.9481498458169142
 30
0.0
 40
0.0022729235198892
 50
83.3414681909711135
 51
162.6815758218953931
  0
ARC
  5
27453
  8
0
 10
3251.8998079514049095
 20
174.9399342785696945
 30
0.0
 40
0.0298714035210924
 50
162.6815758219512986
 51
182.2073825678174046
  0
ARC
  5
27454
  8
0
 10
3251.8378978929172263
 20
174.9375479450947068
 30
0.0
 40
0.0320846287073044
 50
341.2370184552984256
 51
2.2073825678629482
  0
ARC
  5
27455
  8
0
 10
3251.8481241626041083
 20
174.9398567067102022
 30
0.0
 40
0.0237832854797508
 50
283.8937629916907781
 51
327.9269932060327051
  0
ARC
  5
27456
  8
0
 10
3575.1878578865548661
 20
-999.3612876829422476
 30
0.0
 40
1217.9794108803760082
 50
105.3947371566419946
 51
105.3957256851227982
  0
ARC
  5
27457
  8
0
 10
3251.9595353565027835
 20
174.8762617681499876
 30
0.0
 40
0.1433071359745676
 50
189.3339802749439116
 51
197.2361213032577041
  0
ARC
  5
27458
  8
0
 10
3251.9229816719462178
 20
174.8629481734056128
 30
0.0
 40
0.1044670574844524
 50
196.2025108222354959
 51
204.1460138909586135
  0
ARC
  5
27459
  8
0
 10
3251.8409457532511624
 20
174.8258869690083088
 30
0.0
 40
0.0144507614594371
 50
203.1124034099360074
 51
219.3993881985294934
  0
ARC
  5
2745A
  8
0
 10
3251.8309524833530304
 20
174.8176785832737892
 30
0.0
 40
0.0015185134093904
 50
219.3993881985445
 51
251.0300979349260899
  0
ARC
  5
2745B
  8
0
 10
3251.8306054602571749
 20
174.8166690325533068
 30
0.0
 40
0.0004509846339342
 50
251.0300979349817965
 51
311.8344174488415206
  0
ARC
  5
2745C
  8
0
 10
3251.8297901418582114
 20
174.8174035173879872
 30
0.0
 40
0.0015465092365011
 50
316.1950403723951126
 51
348.9311534463719227
  0
ARC
  5
2745D
  8
0
 10
3251.8047641003718127
 20
174.8195589767194917
 30
0.0
 40
0.0266568274724615
 50
354.7214469196445066
 51
9.4477796520471973
  0
ARC
  5
2745E
  8
0
 10
3251.6811270493308257
 20
174.800058499514904
 30
0.0
 40
0.1518214875470274
 50
9.0481643425652951
 51
20.1801054869615903
  0
ARC
  5
2745F
  8
0
 10
3251.7865764706411937
 20
174.8398622665050937
 30
0.0
 40
0.0391264621195291
 50
18.740185379528949
 51
32.8477751575751071
  0
ARC
  5
27460
  8
0
 10
3251.8173139143777917
 20
174.8594421027079875
 30
0.0
 40
0.002692455839401
 50
37.597763833006411
 51
59.3398667813045222
  0
ARC
  5
27461
  8
0
 10
3251.8184158571848457
 20
174.8613009309599136
 30
0.0
 40
0.0005315485251165
 50
59.339866781337733
 51
153.4763044263949041
  0
ARC
  5
27462
  8
0
 10
3251.822481963932205
 20
174.8595783317722976
 30
0.0
 40
0.0049465761537478
 50
156.6574202969470093
 51
184.5836367397787114
  0
ARC
  5
27463
  8
0
 10
3251.8574621969801228
 20
174.8597935646212136
 30
0.0
 40
0.03991565830374
 50
180.8764086784362917
 51
189.7717746373361933
  0
ARC
  5
27464
  8
0
 10
3251.7599062281228726
 20
174.8350245023337948
 30
0.0
 40
0.0286199307110216
 50
105.5150340927378068
 51
153.7085580026680134
  0
ARC
  5
27465
  8
0
 10
3251.7696893262750564
 20
174.8314206379833138
 30
0.0
 40
0.0390028568480171
 50
155.3279879180352907
 51
186.7032654547990944
  0
ARC
  5
27466
  8
0
 10
3251.8849807017249987
 20
174.839683768680203
 30
0.0
 40
0.1545598581632171
 50
184.7563257960750889
 51
191.9416055895
  0
ARC
  5
27467
  8
0
 10
3252.0382433723730173
 20
174.8711382162570089
 30
0.0
 40
0.3110155730718826
 50
191.7687032790896069
 51
197.4350009662630043
  0
ARC
  5
27468
  8
0
 10
3251.8829679354630571
 20
174.8188886633431025
 30
0.0
 40
0.1472562206060825
 50
196.1412163473418957
 51
208.8682431425723109
  0
ARC
  5
27469
  8
0
 10
3251.7814857542221034
 20
174.7635779380428005
 30
0.0
 40
0.031686056807893
 50
209.8771333335427016
 51
255.1717366095687112
  0
ARC
  5
2746A
  8
0
 10
3251.7803838099789573
 20
174.7600512431959032
 30
0.0
 40
0.0279952707635843
 50
255.5046942294719088
 51
285.4016456706493159
  0
ARC
  5
2746B
  8
0
 10
3252.562830555697019
 20
171.9388873744047999
 30
0.0
 40
2.8996639878896069
 50
105.0731357126614967
 51
105.5022588631773033
  0
ARC
  5
2746C
  8
0
 10
3251.8134898555090331
 20
174.7156768357419878
 30
0.0
 40
0.0235881212003224
 50
41.8454035237558699
 51
101.5481424776410933
  0
ARC
  5
2746D
  8
0
 10
3251.8780211657958716
 20
174.7543997993489882
 30
0.0
 40
0.0522836228605228
 50
206.0819063143522101
 51
218.5169950892417887
  0
ARC
  5
2746E
  8
0
 10
3251.8441241447058019
 20
174.727417946498008
 30
0.0
 40
0.0089589370651415
 50
218.5043617778432008
 51
241.1076236634137047
  0
ARC
  5
2746F
  8
0
 10
3251.840725928064785
 20
174.7218620547178034
 30
0.0
 40
0.0024698725501039
 50
247.8696966799500103
 51
323.439012558338618
  0
ARC
  5
27470
  8
0
 10
3251.8008705504771569
 20
174.7330309994773927
 30
0.0
 40
0.0437069356344179
 50
343.1897301194114789
 51
8.7034833862794727
  0
ARC
  5
27471
  8
0
 10
3251.3741999353787833
 20
174.6853810343573059
 30
0.0
 40
0.4729972154389153
 50
6.5876580281471551
 51
14.1722062300453295
  0
ARC
  5
27472
  8
0
 10
3251.4471112546229961
 20
174.7186172609225139
 30
0.0
 40
0.393888278741412
 50
21.3330839261582312
 51
26.27235681339398
  0
ARC
  5
27473
  8
0
 10
3251.7608644128331434
 20
174.8705493015797003
 30
0.0
 40
0.0453717794698529
 50
29.6103130110450685
 51
38.3695560536811229
  0
ARC
  5
27474
  8
0
 10
3251.7895093835018088
 20
174.893882969018307
 30
0.0
 40
0.0084451296596551
 50
34.8848565632726206
 51
69.9896849384930846
  0
ARC
  5
27475
  8
0
 10
3251.7921356668280168
 20
174.8995606826420897
 30
0.0
 40
0.0022729235198892
 50
83.3414681909711135
 51
162.6815758218953931
  0
ARC
  5
27476
  8
0
 10
3251.8184829732022081
 20
174.8913451153948131
 30
0.0
 40
0.0298714035210924
 50
162.6815758219512986
 51
182.2073825678174046
  0
ARC
  5
27477
  8
0
 10
3251.7565729147140701
 20
174.888958781919797
 30
0.0
 40
0.0320846287073044
 50
341.2370184552984256
 51
2.2073825678629482
  0
ARC
  5
27478
  8
0
 10
3251.7667991844018616
 20
174.891267543535406
 30
0.0
 40
0.0237832854797508
 50
283.8937629916907781
 51
327.9269932060327051
  0
ARC
  5
27479
  8
0
 10
3575.1065329083521647
 20
-999.4098768461170721
 30
0.0
 40
1217.9794108803760082
 50
105.3947371566419946
 51
105.3957256851227982
  0
ARC
  5
2747A
  8
0
 10
3251.8782103783009916
 20
174.8276726049751915
 30
0.0
 40
0.1433071359745676
 50
189.3339802749439116
 51
197.2361213032577041
  0
ARC
  5
2747B
  8
0
 10
3251.8416566937439711
 20
174.8143590102307883
 30
0.0
 40
0.1044670574844524
 50
196.2025108222354959
 51
204.1460138909586135
  0
ARC
  5
2747C
  8
0
 10
3251.7596207750480062
 20
174.7772978058335127
 30
0.0
 40
0.0144507614594371
 50
203.1124034099360074
 51
219.3993881985294934
  0
ARC
  5
2747D
  8
0
 10
3251.7496275051489647
 20
174.7690894200989931
 30
0.0
 40
0.0015185134093904
 50
219.3993881985445
 51
251.0300979349260899
  0
ARC
  5
2747E
  8
0
 10
3251.7492804820540186
 20
174.7680798693785107
 30
0.0
 40
0.0004509846339342
 50
251.0300979349817965
 51
311.8344174488415206
  0
ARC
  5
2747F
  8
0
 10
3251.7484651636550552
 20
174.7688143542131911
 30
0.0
 40
0.0015465092365011
 50
316.1950403723951126
 51
348.9311534463719227
  0
ARC
  5
27480
  8
0
 10
3251.7234391221682017
 20
174.7709698135446956
 30
0.0
 40
0.0266568274724615
 50
354.7214469196445066
 51
9.4477796520471973
  0
ARC
  5
27481
  8
0
 10
3251.5998020711281242
 20
174.7514693363401079
 30
0.0
 40
0.1518214875470274
 50
9.0481643425652951
 51
20.1801054869615903
  0
ARC
  5
27482
  8
0
 10
3251.7052514924380375
 20
174.7912731033302123
 30
0.0
 40
0.0391264621195291
 50
18.740185379528949
 51
32.8477751575751071
  0
ARC
  5
27483
  8
0
 10
3251.7359889361741807
 20
174.8108529395331914
 30
0.0
 40
0.002692455839401
 50
37.597763833006411
 51
59.3398667813045222
  0
ARC
  5
27484
  8
0
 10
3251.73709087898078
 20
174.812711767785089
 30
0.0
 40
0.0005315485251165
 50
59.339866781337733
 51
153.4763044263949041
  0
ARC
  5
27485
  8
0
 10
3251.7411569857281393
 20
174.8109891685975015
 30
0.0
 40
0.0049465761537478
 50
156.6574202969470093
 51
184.5836367397787114
  0
ARC
  5
27486
  8
0
 10
3251.7761372187778761
 20
174.8112044014463891
 30
0.0
 40
0.03991565830374
 50
180.8764086784362917
 51
189.7717746373361933
  0
ARC
  5
27487
  8
0
 10
3252.4564850868941903
 20
172.2229381417660932
 30
0.0
 40
0.0286199307110216
 50
105.5150340927378068
 51
153.7085580026680134
  0
ARC
  5
27488
  8
0
 10
3252.4662681850459194
 20
172.2193342774156122
 30
0.0
 40
0.0390028568480171
 50
155.3279879180352907
 51
186.7032654547990944
  0
ARC
  5
27489
  8
0
 10
3252.5815595604958617
 20
172.2275974081125014
 30
0.0
 40
0.1545598581632171
 50
184.7563257960750889
 51
191.9416055895
  0
ARC
  5
2748A
  8
0
 10
3252.7348222311438803
 20
172.2590518556893073
 30
0.0
 40
0.3110155730718826
 50
191.7687032790896069
 51
197.4350009662630043
  0
ARC
  5
2748B
  8
0
 10
3252.5795467942339201
 20
172.2068023027754009
 30
0.0
 40
0.1472562206060825
 50
196.1412163473418957
 51
208.8682431425723109
  0
ARC
  5
2748C
  8
0
 10
3252.4780646129938759
 20
172.1514915774750989
 30
0.0
 40
0.031686056807893
 50
209.8771333335427016
 51
255.1717366095687112
  0
ARC
  5
2748D
  8
0
 10
3252.4769626687498203
 20
172.1479648826282016
 30
0.0
 40
0.0279952707635843
 50
255.5046942294719088
 51
285.4016456706493159
  0
ARC
  5
2748E
  8
0
 10
3253.259409414467882
 20
169.326801013837013
 30
0.0
 40
2.8996639878896069
 50
105.0731357126614967
 51
105.5022588631773033
  0
ARC
  5
2748F
  8
0
 10
3252.5100687142798961
 20
172.1035904751742862
 30
0.0
 40
0.0235881212003224
 50
41.8454035237558699
 51
101.5481424776410933
  0
ARC
  5
27490
  8
0
 10
3252.5746000245671894
 20
172.1423134387812865
 30
0.0
 40
0.0522836228605228
 50
206.0819063143522101
 51
218.5169950892417887
  0
ARC
  5
27491
  8
0
 10
3252.5407030034771196
 20
172.1153315859303063
 30
0.0
 40
0.0089589370651415
 50
218.5043617778432008
 51
241.1076236634137047
  0
ARC
  5
27492
  8
0
 10
3252.5373047868361027
 20
172.1097756941501018
 30
0.0
 40
0.0024698725501039
 50
247.8696966799500103
 51
323.439012558338618
  0
ARC
  5
27493
  8
0
 10
3252.4974494092480199
 20
172.1209446389096911
 30
0.0
 40
0.0437069356344179
 50
343.1897301194114789
 51
8.7034833862794727
  0
ARC
  5
27494
  8
0
 10
3252.070778794150101
 20
172.0732946737896043
 30
0.0
 40
0.4729972154389153
 50
6.5876580281471551
 51
16.1595323677644913
  0
ARC
  5
27495
  8
0
 10
3252.1436901133938591
 20
172.1065309003548123
 30
0.0
 40
0.393888278741412
 50
14.46742838912966
 51
26.27235681339398
  0
ARC
  5
27496
  8
0
 10
3252.4574432716040064
 20
172.2584629410119987
 30
0.0
 40
0.0453717794698529
 50
29.6103130110450685
 51
38.3695560536811229
  0
ARC
  5
27497
  8
0
 10
3252.4860882422731265
 20
172.2817966084504917
 30
0.0
 40
0.0084451296596551
 50
34.8848565632726206
 51
69.9896849384930846
  0
ARC
  5
27498
  8
0
 10
3252.4887145255988798
 20
172.2874743220743881
 30
0.0
 40
0.0022729235198892
 50
83.3414681909711135
 51
162.6815758218953931
  0
ARC
  5
27499
  8
0
 10
3252.5150618319730711
 20
172.2792587548271115
 30
0.0
 40
0.0298714035210924
 50
162.6815758219512986
 51
182.2073825678174046
  0
ARC
  5
2749A
  8
0
 10
3252.4531517734840236
 20
172.2768724213520954
 30
0.0
 40
0.0320846287073044
 50
341.2370184552984256
 51
2.2073825678629482
  0
ARC
  5
2749B
  8
0
 10
3252.4633780431718151
 20
172.2791811829677044
 30
0.0
 40
0.0237832854797508
 50
283.8937629916907781
 51
327.9269932060327051
  0
ARC
  5
2749C
  8
0
 10
3575.8031117671230277
 20
-1002.0219632066839495
 30
0.0
 40
1217.9794108803760082
 50
105.3947371566419946
 51
105.3957256851227982
  0
ARC
  5
2749D
  8
0
 10
3252.5747892370709451
 20
172.2155862444074899
 30
0.0
 40
0.1433071359745676
 50
189.3339802749439116
 51
197.2361213032577041
  0
ARC
  5
2749E
  8
0
 10
3252.5382355525139246
 20
172.2022726496630014
 30
0.0
 40
0.1044670574844524
 50
196.2025108222354959
 51
204.1460138909586135
  0
ARC
  5
2749F
  8
0
 10
3252.4561996338188692
 20
172.1652114452658111
 30
0.0
 40
0.0144507614594371
 50
203.1124034099360074
 51
219.3993881985294934
  0
ARC
  5
274A0
  8
0
 10
3252.446206363921192
 20
172.1570030595312915
 30
0.0
 40
0.0015185134093904
 50
219.3993881985445
 51
251.0300979349260899
  0
ARC
  5
274A1
  8
0
 10
3252.4458593408248817
 20
172.1559935088108091
 30
0.0
 40
0.0004509846339342
 50
251.0300979349817965
 51
311.8344174488415206
  0
ARC
  5
274A2
  8
0
 10
3252.4450440224259182
 20
172.1567279936454895
 30
0.0
 40
0.0015465092365011
 50
316.1950403723951126
 51
348.9311534463719227
  0
ARC
  5
274A3
  8
0
 10
3252.4200179809399742
 20
172.158883452976994
 30
0.0
 40
0.0266568274724615
 50
354.7214469196445066
 51
9.4477796520471973
  0
ARC
  5
274A4
  8
0
 10
3252.2963809298989872
 20
172.1393829757724063
 30
0.0
 40
0.1518214875470274
 50
9.0481643425652951
 51
20.1801054869615903
  0
ARC
  5
274A5
  8
0
 10
3252.4018303512089005
 20
172.1791867427625959
 30
0.0
 40
0.0391264621195291
 50
18.740185379528949
 51
32.8477751575751071
  0
ARC
  5
274A6
  8
0
 10
3252.4325677949459532
 20
172.1987665789654898
 30
0.0
 40
0.002692455839401
 50
37.597763833006411
 51
59.3398667813045222
  0
ARC
  5
274A7
  8
0
 10
3252.4336697377530072
 20
172.2006254072173874
 30
0.0
 40
0.0005315485251165
 50
59.339866781337733
 51
153.4763044263949041
  0
ARC
  5
274A8
  8
0
 10
3252.4377358444999118
 20
172.1989028080297999
 30
0.0
 40
0.0049465761537478
 50
156.6574202969470093
 51
184.5836367397787114
  0
ARC
  5
274A9
  8
0
 10
3252.4727160775491939
 20
172.1991180408786875
 30
0.0
 40
0.03991565830374
 50
180.8764086784362917
 51
189.7717746373361933
  0
ARC
  5
274AA
  8
0
 10
3252.3087701223580552
 20
172.5421695282655037
 30
0.0
 40
0.0286199307110216
 50
105.5150340927378068
 51
153.7085580026680134
  0
ARC
  5
274AB
  8
0
 10
3252.3185532205097843
 20
172.538565663915108
 30
0.0
 40
0.0390028568480171
 50
155.3279879180352907
 51
186.7032654547990944
  0
ARC
  5
274AC
  8
0
 10
3252.4338445959601813
 20
172.5468287946119119
 30
0.0
 40
0.1545598581632171
 50
184.7563257960750889
 51
191.9416055895
  0
ARC
  5
274AD
  8
0
 10
3252.5871072666082
 20
172.5782832421888031
 30
0.0
 40
0.3110155730718826
 50
191.7687032790896069
 51
197.4350009662630043
  0
ARC
  5
274AE
  8
0
 10
3252.431831829697785
 20
172.5260336892748114
 30
0.0
 40
0.1472562206060825
 50
196.1412163473418957
 51
208.8682431425723109
  0
ARC
  5
274AF
  8
0
 10
3252.3303496484568313
 20
172.4707229639745094
 30
0.0
 40
0.031686056807893
 50
209.8771333335427016
 51
255.1717366095687112
  0
ARC
  5
274B0
  8
0
 10
3252.32924770421414
 20
172.4671962691276121
 30
0.0
 40
0.0279952707635843
 50
255.5046942294719088
 51
285.4016456706493159
  0
ARC
  5
274B1
  8
0
 10
3253.1116944499322017
 20
169.6460324003365088
 30
0.0
 40
2.8996639878896069
 50
105.0731357126614967
 51
105.5022588631773033
  0
ARC
  5
274B2
  8
0
 10
3252.3623537497442157
 20
172.4228218616736967
 30
0.0
 40
0.0235881212003224
 50
41.8454035237558699
 51
101.5481424776410933
  0
ARC
  5
274B3
  8
0
 10
3252.4268850600310543
 20
172.4615448252808108
 30
0.0
 40
0.0522836228605228
 50
206.0819063143522101
 51
218.5169950892417887
  0
ARC
  5
274B4
  8
0
 10
3252.3929880389409846
 20
172.4345629724296884
 30
0.0
 40
0.0089589370651415
 50
218.5043617778432008
 51
241.1076236634137047
  0
ARC
  5
274B5
  8
0
 10
3252.3895898222999676
 20
172.4290070806495123
 30
0.0
 40
0.0024698725501039
 50
247.8696966799500103
 51
323.439012558338618
  0
ARC
  5
274B6
  8
0
 10
3252.3497344447118849
 20
172.4401760254091869
 30
0.0
 40
0.0437069356344179
 50
343.1897301194114789
 51
8.7034833862794727
  0
ARC
  5
274B7
  8
0
 10
3251.9230638296139659
 20
172.3925260602889864
 30
0.0
 40
0.4729972154389153
 50
6.5876580281471551
 51
16.1595323677644913
  0
ARC
  5
274B8
  8
0
 10
3251.9959751488581787
 20
172.4257622868541944
 30
0.0
 40
0.393888278741412
 50
14.46742838912966
 51
20.8398170554716486
  0
ARC
  5
274B9
  8
0
 10
3252.3156630786361347
 20
172.5984125694670865
 30
0.0
 40
0.0237832854797508
 50
283.8937629916907781
 51
294.3165295723750887
  0
ARC
  5
274BA
  8
0
 10
3575.6553968025868926
 20
-1001.7027318201850221
 30
0.0
 40
1217.9794108803760082
 50
105.3947371566419946
 51
105.3957256851227982
  0
ARC
  5
274BB
  8
0
 10
3252.42707427253481
 20
172.5348176309069004
 30
0.0
 40
0.1433071359745676
 50
189.3339802749439116
 51
197.2361213032577041
  0
ARC
  5
274BC
  8
0
 10
3252.3905205879777895
 20
172.5215040361624972
 30
0.0
 40
0.1044670574844524
 50
196.2025108222354959
 51
204.1460138909586135
  0
ARC
  5
274BD
  8
0
 10
3252.3084846692831889
 20
172.4844428317651932
 30
0.0
 40
0.0144507614594371
 50
203.1124034099360074
 51
219.3993881985294934
  0
ARC
  5
274BE
  8
0
 10
3252.2984913993850569
 20
172.476234446030702
 30
0.0
 40
0.0015185134093904
 50
219.3993881985445
 51
251.0300979349260899
  0
ARC
  5
274BF
  8
0
 10
3252.2981443762878371
 20
172.4752248953101912
 30
0.0
 40
0.0004509846339342
 50
251.0300979349817965
 51
311.8344174488415206
  0
ARC
  5
274C0
  8
0
 10
3252.2973290578897831
 20
172.4759593801449
 30
0.0
 40
0.0015465092365011
 50
316.1950403723951126
 51
348.9311534463719227
  0
ARC
  5
274C1
  8
0
 10
3252.2723030164038391
 20
172.4781148394764045
 30
0.0
 40
0.0266568274724615
 50
354.7214469196445066
 51
9.4477796520471973
  0
ARC
  5
274C2
  8
0
 10
3252.1486659653628521
 20
172.4586143622717884
 30
0.0
 40
0.1518214875470274
 50
9.0481643425652951
 51
20.1801054869615903
  0
ARC
  5
274C3
  8
0
 10
3252.2541153866732202
 20
172.4984181292620065
 30
0.0
 40
0.0391264621195291
 50
18.740185379528949
 51
32.8477751575751071
  0
ARC
  5
274C4
  8
0
 10
3252.2848528304098181
 20
172.5179979654649003
 30
0.0
 40
0.002692455839401
 50
37.597763833006411
 51
59.3398667813045222
  0
ARC
  5
274C5
  8
0
 10
3252.2859547732168721
 20
172.5198567937167979
 30
0.0
 40
0.0005315485251165
 50
59.339866781337733
 51
153.4763044263949041
  0
ARC
  5
274C6
  8
0
 10
3252.2900208799628672
 20
172.5181341945292104
 30
0.0
 40
0.0049465761537478
 50
156.6574202969470093
 51
184.5836367397787114
  0
ARC
  5
274C7
  8
0
 10
3252.3250011130130588
 20
172.518349427378098
 30
0.0
 40
0.03991565830374
 50
180.8764086784362917
 51
189.7717746373361933
  0
ARC
  5
274C8
  8
0
 10
3252.6963380129031975
 20
171.5813414523748861
 30
0.0
 40
0.0286199307110216
 50
105.5150340927378068
 51
153.7085580026680134
  0
ARC
  5
274C9
  8
0
 10
3252.7061211110549266
 20
171.5777375880244051
 30
0.0
 40
0.0390028568480171
 50
155.3279879180352907
 51
186.7032654547990944
  0
ARC
  5
274CA
  8
0
 10
3252.8214124865048689
 20
171.5860007187212091
 30
0.0
 40
0.1545598581632171
 50
184.7563257960750889
 51
191.9416055895
  0
ARC
  5
274CB
  8
0
 10
3252.9746751571519781
 20
171.6174551662981003
 30
0.0
 40
0.3110155730718826
 50
191.7687032790896069
 51
197.4350009662630043
  0
ARC
  5
274CC
  8
0
 10
3252.8193997202420178
 20
171.5652056133841938
 30
0.0
 40
0.1472562206060825
 50
196.1412163473418957
 51
208.8682431425723109
  0
ARC
  5
274CD
  8
0
 10
3252.7179175390019736
 20
171.5098948880838918
 30
0.0
 40
0.031686056807893
 50
209.8771333335427016
 51
255.1717366095687112
  0
ARC
  5
274CE
  8
0
 10
3252.7168155947588275
 20
171.5063681932369946
 30
0.0
 40
0.0279952707635843
 50
255.5046942294719088
 51
285.4016456706493159
  0
ARC
  5
274CF
  8
0
 10
3253.4992623404768892
 20
168.6852043244458059
 30
0.0
 40
2.8996639878896069
 50
105.0731357126614967
 51
105.5022588631773033
  0
ARC
  5
274D0
  8
0
 10
3252.7499216402889033
 20
171.4619937857831076
 30
0.0
 40
0.0235881212003224
 50
41.8454035237558699
 51
101.5481424776410933
  0
ARC
  5
274D1
  8
0
 10
3252.8144529505761966
 20
171.5007167493901079
 30
0.0
 40
0.0522836228605228
 50
206.0819063143522101
 51
218.5169950892417887
  0
ARC
  5
274D2
  8
0
 10
3252.7805559294861268
 20
171.4737348965390993
 30
0.0
 40
0.0089589370651415
 50
218.5043617778432008
 51
241.1076236634137047
  0
ARC
  5
274D3
  8
0
 10
3252.7771577128451099
 20
171.4681790047588947
 30
0.0
 40
0.0024698725501039
 50
247.8696966799500103
 51
323.439012558338618
  0
ARC
  5
274D4
  8
0
 10
3252.7373023352570272
 20
171.4793479495185125
 30
0.0
 40
0.0437069356344179
 50
343.1897301194114789
 51
8.7034833862794727
  0
ARC
  5
274D5
  8
0
 10
3252.3106317201591082
 20
171.4316979843983972
 30
0.0
 40
0.4729972154389153
 50
6.5876580281471551
 51
16.1595323677644913
  0
ARC
  5
274D6
  8
0
 10
3252.3835430394028663
 20
171.4649342109636052
 30
0.0
 40
0.393888278741412
 50
14.46742838912966
 51
26.27235681339398
  0
ARC
  5
274D7
  8
0
 10
3252.6972961976130136
 20
171.6168662516207917
 30
0.0
 40
0.0453717794698529
 50
29.6103130110450685
 51
38.3695560536811229
  0
ARC
  5
274D8
  8
0
 10
3252.7259411682812242
 20
171.6401999190593131
 30
0.0
 40
0.0084451296596551
 50
34.8848565632726206
 51
69.9896849384930846
  0
ARC
  5
274D9
  8
0
 10
3252.7285674516069776
 20
171.6458776326830957
 30
0.0
 40
0.0022729235198892
 50
83.3414681909711135
 51
162.6815758218953931
  0
ARC
  5
274DA
  8
0
 10
3252.7549147579820783
 20
171.6376620654359044
 30
0.0
 40
0.0298714035210924
 50
162.6815758219512986
 51
182.2073825678174046
  0
ARC
  5
274DB
  8
0
 10
3252.6930046994930308
 20
171.6352757319608884
 30
0.0
 40
0.0320846287073044
 50
341.2370184552984256
 51
2.2073825678629482
  0
ARC
  5
274DC
  8
0
 10
3252.7032309691808223
 20
171.6375844935764974
 30
0.0
 40
0.0237832854797508
 50
283.8937629916907781
 51
327.9269932060327051
  0
ARC
  5
274DD
  8
0
 10
3576.0429646931320349
 20
-1002.6635598960759808
 30
0.0
 40
1217.9794108803760082
 50
105.3947371566419946
 51
105.3957256851227982
  0
ARC
  5
274DE
  8
0
 10
3252.8146421630799523
 20
171.5739895550163112
 30
0.0
 40
0.1433071359745676
 50
189.3339802749439116
 51
197.2361213032577041
  0
ARC
  5
274DF
  8
0
 10
3252.7780884785229318
 20
171.5606759602717943
 30
0.0
 40
0.1044670574844524
 50
196.2025108222354959
 51
204.1460138909586135
  0
ARC
  5
274E0
  8
0
 10
3252.6960525598278764
 20
171.523614755874604
 30
0.0
 40
0.0144507614594371
 50
203.1124034099360074
 51
219.3993881985294934
  0
ARC
  5
274E1
  8
0
 10
3252.6860592899301992
 20
171.5154063701401128
 30
0.0
 40
0.0015185134093904
 50
219.3993881985445
 51
251.0300979349260899
  0
ARC
  5
274E2
  8
0
 10
3252.6857122668338889
 20
171.514396819419602
 30
0.0
 40
0.0004509846339342
 50
251.0300979349817965
 51
311.8344174488415206
  0
ARC
  5
274E3
  8
0
 10
3252.6848969484349254
 20
171.5151313042543109
 30
0.0
 40
0.0015465092365011
 50
316.1950403723951126
 51
348.9311534463719227
  0
ARC
  5
274E4
  8
0
 10
3252.6598709069489814
 20
171.517286763585787
 30
0.0
 40
0.0266568274724615
 50
354.7214469196445066
 51
9.4477796520471973
  0
ARC
  5
274E5
  8
0
 10
3252.5362338559079944
 20
171.4977862863811993
 30
0.0
 40
0.1518214875470274
 50
9.0481643425652951
 51
20.1801054869615903
  0
ARC
  5
274E6
  8
0
 10
3252.6416832772179077
 20
171.5375900533713036
 30
0.0
 40
0.0391264621195291
 50
18.740185379528949
 51
32.8477751575751071
  0
ARC
  5
274E7
  8
0
 10
3252.6724207209540509
 20
171.5571698895743111
 30
0.0
 40
0.002692455839401
 50
37.597763833006411
 51
59.3398667813045222
  0
ARC
  5
274E8
  8
0
 10
3252.6735226637620144
 20
171.5590287178262088
 30
0.0
 40
0.0005315485251165
 50
59.339866781337733
 51
153.4763044263949041
  0
ARC
  5
274E9
  8
0
 10
3252.6775887705080095
 20
171.5573061186385928
 30
0.0
 40
0.0049465761537478
 50
156.6574202969470093
 51
184.5836367397787114
  0
ARC
  5
274EA
  8
0
 10
3252.7125690035582011
 20
171.5575213514873951
 30
0.0
 40
0.03991565830374
 50
180.8764086784362917
 51
189.7717746373361933
  0
ARC
  5
274EB
  8
0
 10
3252.5239024808620343
 20
171.9069585299749008
 30
0.0
 40
0.0286199307110216
 50
105.5150340927378068
 51
153.7085580026680134
  0
ARC
  5
274EC
  8
0
 10
3252.5336855790142181
 20
171.9033546656243914
 30
0.0
 40
0.0390028568480171
 50
155.3279879180352907
 51
186.7032654547990944
  0
ARC
  5
274ED
  8
0
 10
3252.6489769544627961
 20
171.9116177963211953
 30
0.0
 40
0.1545598581632171
 50
184.7563257960750889
 51
191.9416055895
  0
ARC
  5
274EE
  8
0
 10
3252.8022396251108148
 20
171.9430722438980865
 30
0.0
 40
0.3110155730718826
 50
191.7687032790896069
 51
197.4350009662630043
  0
ARC
  5
274EF
  8
0
 10
3252.6469641882008546
 20
171.8908226909842085
 30
0.0
 40
0.1472562206060825
 50
196.1412163473418957
 51
208.8682431425723109
  0
ARC
  5
274F0
  8
0
 10
3252.5454820069608104
 20
171.8355119656839065
 30
0.0
 40
0.031686056807893
 50
209.8771333335427016
 51
255.1717366095687112
  0
ARC
  5
274F1
  8
0
 10
3252.544380062718119
 20
171.8319852708368956
 30
0.0
 40
0.0279952707635843
 50
255.5046942294719088
 51
285.4016456706493159
  0
ARC
  5
274F2
  8
0
 10
3253.3268268084361807
 20
169.0108214020457922
 30
0.0
 40
2.8996639878896069
 50
105.0731357126614967
 51
105.5022588631773033
  0
ARC
  5
274F3
  8
0
 10
3252.5774861082468306
 20
171.7876108633830938
 30
0.0
 40
0.0235881212003224
 50
41.8454035237558699
 51
101.5481424776410933
  0
ARC
  5
274F4
  8
0
 10
3252.6420174185341239
 20
171.8263338269900942
 30
0.0
 40
0.0522836228605228
 50
206.0819063143522101
 51
218.5169950892417887
  0
ARC
  5
274F5
  8
0
 10
3252.6081203974440541
 20
171.799351974139114
 30
0.0
 40
0.0089589370651415
 50
218.5043617778432008
 51
241.1076236634137047
  0
ARC
  5
274F6
  8
0
 10
3252.6047221808039467
 20
171.7937960823587957
 30
0.0
 40
0.0024698725501039
 50
247.8696966799500103
 51
323.439012558338618
  0
ARC
  5
274F7
  8
0
 10
3252.5648668032149544
 20
171.8049650271184987
 30
0.0
 40
0.0437069356344179
 50
343.1897301194114789
 51
8.7034833862794727
  0
ARC
  5
274F8
  8
0
 10
3252.1381961881170355
 20
171.7573150619984119
 30
0.0
 40
0.4729972154389153
 50
6.5876580281471551
 51
16.1595323677644913
  0
ARC
  5
274F9
  8
0
 10
3252.2111075073607935
 20
171.7905512885635915
 30
0.0
 40
0.393888278741412
 50
14.46742838912966
 51
26.27235681339398
  0
ARC
  5
274FA
  8
0
 10
3252.5248606655709409
 20
171.9424833292208064
 30
0.0
 40
0.0453717794698529
 50
29.6103130110450685
 51
38.3695560536811229
  0
ARC
  5
274FB
  8
0
 10
3252.5535056362391515
 20
171.9658169966592993
 30
0.0
 40
0.0084451296596551
 50
34.8848565632726206
 51
69.9896849384930846
  0
ARC
  5
274FC
  8
0
 10
3252.5561319195658143
 20
171.9714947102831104
 30
0.0
 40
0.0022729235198892
 50
83.3414681909711135
 51
162.6815758218953931
  0
ARC
  5
274FD
  8
0
 10
3252.5824792259400056
 20
171.9632791430358907
 30
0.0
 40
0.0298714035210924
 50
162.6815758219512986
 51
182.2073825678174046
  0
ARC
  5
274FE
  8
0
 10
3252.5205691674518675
 20
171.9608928095609031
 30
0.0
 40
0.0320846287073044
 50
341.2370184552984256
 51
2.2073825678629482
  0
ARC
  5
274FF
  8
0
 10
3252.5307954371401138
 20
171.9632015711763984
 30
0.0
 40
0.0237832854797508
 50
283.8937629916907781
 51
327.9269932060327051
  0
ARC
  5
27500
  8
0
 10
3575.8705291610899621
 20
-1002.3379428184749713
 30
0.0
 40
1217.9794108803760082
 50
105.3947371566419946
 51
105.3957256851227982
  0
ARC
  5
27501
  8
0
 10
3252.6422066310378796
 20
171.8996066326162975
 30
0.0
 40
0.1433071359745676
 50
189.3339802749439116
 51
197.2361213032577041
  0
ARC
  5
27502
  8
0
 10
3252.6056529464808591
 20
171.886293037871809
 30
0.0
 40
0.1044670574844524
 50
196.2025108222354959
 51
204.1460138909586135
  0
ARC
  5
27503
  8
0
 10
3252.5236170277858037
 20
171.8492318334745903
 30
0.0
 40
0.0144507614594371
 50
203.1124034099360074
 51
219.3993881985294934
  0
ARC
  5
27504
  8
0
 10
3252.5136237578881264
 20
171.8410234477400991
 30
0.0
 40
0.0015185134093904
 50
219.3993881985445
 51
251.0300979349260899
  0
ARC
  5
27505
  8
0
 10
3252.5132767347918161
 20
171.8400138970195883
 30
0.0
 40
0.0004509846339342
 50
251.0300979349817965
 51
311.8344174488415206
  0
ARC
  5
27506
  8
0
 10
3252.5124614163942169
 20
171.8407483818542971
 30
0.0
 40
0.0015465092365011
 50
316.1950403723951126
 51
348.9311534463719227
  0
ARC
  5
27507
  8
0
 10
3252.4874353749069087
 20
171.842903841185688
 30
0.0
 40
0.0266568274724615
 50
354.7214469196445066
 51
9.4477796520471973
  0
ARC
  5
27508
  8
0
 10
3252.3637983238659217
 20
171.8234033639812139
 30
0.0
 40
0.1518214875470274
 50
9.0481643425652951
 51
20.1801054869615903
  0
ARC
  5
27509
  8
0
 10
3252.4692477451771992
 20
171.8632071309712899
 30
0.0
 40
0.0391264621195291
 50
18.740185379528949
 51
32.8477751575751071
  0
ARC
  5
2750A
  8
0
 10
3252.4999851889128877
 20
171.8827869671742974
 30
0.0
 40
0.002692455839401
 50
37.597763833006411
 51
59.3398667813045222
  0
ARC
  5
2750B
  8
0
 10
3252.5010871317199417
 20
171.8846457954261098
 30
0.0
 40
0.0005315485251165
 50
59.339866781337733
 51
153.4763044263949041
  0
ARC
  5
2750C
  8
0
 10
3252.5051532384668462
 20
171.8829231962386075
 30
0.0
 40
0.0049465761537478
 50
156.6574202969470093
 51
184.5836367397787114
  0
ARC
  5
2750D
  8
0
 10
3252.5401334715161283
 20
171.8831384290874098
 30
0.0
 40
0.03991565830374
 50
180.8764086784362917
 51
189.7717746373361933
  0
ARC
  5
2750E
  8
0
 10
3261.0906151407320976
 20
175.8605697463023887
 30
0.0
 40
9.3880712370594992
 50
184.4323337435014878
 51
185.1352831269549029
  0
ARC
  5
2750F
  8
0
 10
3251.7131989142408202
 20
175.0262891415084994
 30
0.0
 40
0.0276905413854788
 50
347.4358848385708143
 51
5.2097410322414257
  0
ARC
  5
27510
  8
0
 10
3251.7134434996210075
 20
175.0262346310157113
 30
0.0
 40
0.0274399552676213
 50
302.4289134408859923
 51
347.4358848385708143
  0
ARC
  5
27511
  8
0
 10
3251.7128842754809739
 20
175.0271148451284091
 30
0.0
 40
0.0284827920351504
 50
285.8211308285644918
 51
302.4289134408870154
  0
ARC
  5
27512
  8
0
 10
3251.1606934291980906
 20
176.9757725501210928
 30
0.0
 40
2.053867096789924
 50
284.968844924396592
 51
285.8211308285644918
  0
ARC
  5
27513
  8
0
 10
3251.6982655686360886
 20
174.9651534836283986
 30
0.0
 40
0.0273760018518778
 50
104.9688449243967057
 51
184.1628166157630915
  0
LINE
  5
27514
  8
0
 10
3251.6709617902401988
 20
174.9631662335893054
 30
0.0
 11
3251.6794620976447732
 21
174.8823264413651941
 31
0.0
  0
ARC
  5
27515
  8
0
 10
3251.7081743771741458
 20
174.8867559820056954
 30
0.0
 40
0.0290519504691298
 50
188.7700734583197004
 51
213.9731390702804106
  0
ARC
  5
27516
  8
0
 10
3251.7061941653651047
 20
174.8854216625566096
 30
0.0
 40
0.0266641382481262
 50
213.9731390702777105
 51
245.1174261334691948
  0
ARC
  5
27517
  8
0
 10
3251.8505787593389869
 20
174.8813706411922055
 30
0.0
 40
0.1569014898491381
 50
187.374120300131608
 51
194.9742302122340902
  0
ARC
  5
27518
  8
0
 10
3251.7233395606299382
 20
174.8473383301308957
 30
0.0
 40
0.0251896381258587
 50
194.974230212227809
 51
236.1110417468592004
  0
ARC
  5
27519
  8
0
 10
3251.7265477966598155
 20
174.8521146771022075
 30
0.0
 40
0.0309434428509028
 50
236.1110417468592004
 51
279.1833539738756826
  0
ARC
  5
2751A
  8
0
 10
3251.9298232493238174
 20
174.9139802049951982
 30
0.0
 40
0.2406990151166755
 50
180.2745753658603007
 51
192.658701899729806
  0
ARC
  5
2751B
  8
0
 10
3251.7343608498331378
 20
174.9217586408429099
 30
0.0
 40
0.0461072720445629
 50
155.738146882773691
 51
191.1699835046422891
  0
ARC
  5
2751C
  8
0
 10
3251.7157865455901629
 20
174.9280019135916859
 30
0.0
 40
0.0266787610503624
 50
104.5992094747187053
 51
151.5670721248453106
  0
ARC
  5
2751D
  8
0
 10
3251.6464937983660093
 20
175.2172041212432134
 30
0.0
 40
0.270714518707304
 50
283.3631646016812056
 51
291.4557715227588233
  0
ARC
  5
2751E
  8
0
 10
3251.7292641054059459
 20
174.9882159178029895
 30
0.0
 40
0.028134891033544
 50
305.2862095463916035
 51
4.0025099721160577
  0
ARC
  5
2751F
  8
0
 10
3251.7585797814999751
 20
174.9902671600956978
 30
0.0
 40
0.0012524610036689
 50
139.0866031119774959
 51
184.0025099721549964
  0
ARC
  5
27520
  8
0
 10
3251.757829407204099
 20
174.9907997083807061
 30
0.0
 40
0.0003481906966089
 50
7.469370035271365
 51
124.2793671295711988
  0
ARC
  5
27521
  8
0
 10
3251.7181986556929587
 20
174.9754719421048037
 30
0.0
 40
0.0428300085268344
 50
9.9569124735426513
 51
21.0345766928702211
  0
ARC
  5
27522
  8
0
 10
3250.663972701847797
 20
174.7834999255161108
 30
0.0
 40
1.114391411961172
 50
4.3988650546275219
 51
10.3063750882449003
  0
ARC
  5
27523
  8
0
 10
3251.4575080347840412
 20
174.9791629409247093
 30
0.0
 40
0.2875837186390572
 50
4.7900496063614062
 51
9.9397521709665266
  0
ARC
  5
27524
  8
0
 10
3252.4264793210700191
 20
175.0603602706202935
 30
0.0
 40
0.6847836810600932
 50
184.7900496063614071
 51
187.8127487781571858
  0
ARC
  5
27525
  8
0
 10
3257.49627656788698
 20
175.460144422166195
 30
0.0
 40
5.7700512284343608
 50
187.2368248685127128
 51
188.2337899398764023
  0
ARC
  5
27526
  8
0
 10
3251.7503922550290554
 20
174.6846201937464969
 30
0.0
 40
0.0280101251749257
 50
319.8280309341657812
 51
3.5681152147277131
  0
ARC
  5
27527
  8
0
 10
3251.7500580743339924
 20
174.6849023181974019
 30
0.0
 40
0.0284474705104682
 50
286.4604946276620012
 51
319.8280309341669749
  0
LINE
  5
27528
  8
0
 10
3251.7581187837899961
 20
174.6576207577307116
 30
0.0
 11
3251.7314216117970318
 21
174.6497327138258129
 31
0.0
  0
ARC
  5
27529
  8
0
 10
3251.7399235449561274
 20
174.6209578268513098
 30
0.0
 40
0.0300046161087011
 50
106.4604946276623991
 51
153.8266817128329933
  0
ARC
  5
2752A
  8
0
 10
3251.7326529460601705
 20
174.6245312004118944
 30
0.0
 40
0.0219033441774393
 50
153.8266817128128139
 51
193.0053213826373906
  0
LINE
  5
2752B
  8
0
 10
3251.711311440883037
 20
174.619602037918213
 30
0.0
 11
3251.7230789595319038
 21
174.5394628302312015
 31
0.0
  0
ARC
  5
2752C
  8
0
 10
3251.749882636258917
 20
174.5447838212361944
 30
0.0
 40
0.0273264905600766
 50
191.4545184589404982
 51
221.5727869327695885
  0
ARC
  5
2752D
  8
0
 10
3252.0385967309312036
 20
174.5741449380539052
 30
0.0
 40
0.3127842700675932
 50
188.7337611769779926
 51
193.6855736993348103
  0
ARC
  5
2752E
  8
0
 10
3251.7615160245259176
 20
174.5075414740717861
 30
0.0
 40
0.0278250640039065
 50
195.4216801157180043
 51
285.1702686333799193
  0
ARC
  5
2752F
  8
0
 10
10560.4308959741392755
 20
-26368.4962546505994396
 30
0.0
 40
27530.8221189222313114
 50
105.3949703614613043
 51
105.395000322088606
  0
ARC
  5
27530
  8
0
 10
3251.7931286186230864
 20
174.4371767229945931
 30
0.0
 40
0.048471295873156
 50
87.3424370715017915
 51
102.4520122018046067
  0
ARC
  5
27531
  8
0
 10
3251.7578332900538953
 20
174.6472771054912982
 30
0.0
 40
0.0309574906014622
 50
334.1934126686421109
 51
5.8000717418505507
  0
ARC
  5
27532
  8
0
 10
3251.7625070674739618
 20
174.6450170502496064
 30
0.0
 40
0.025765954695806
 50
284.6352521908050903
 51
334.1934126686421109
  0
ARC
  5
27533
  8
0
 10
3252.0326888032418537
 20
173.6103834773884955
 30
0.0
 40
1.043563180993585
 50
104.6352521908051045
 51
106.1883945330097987
  0
ARC
  5
27534
  8
0
 10
3251.7494094870121444
 20
174.5861749746856049
 30
0.0
 40
0.0274843370052672
 50
106.1883945330102961
 51
146.9661186055924134
  0
ARC
  5
27535
  8
0
 10
3251.7510742430281425
 20
174.5850924693426123
 30
0.0
 40
0.0294700938907283
 50
146.966118605593806
 51
189.6883962777862962
  0
LINE
  5
27536
  8
0
 10
3251.7220244642321632
 20
174.58013295465841
 30
0.0
 11
3251.7294393240549653
 21
174.5266507555149076
 31
0.0
  0
ARC
  5
27537
  8
0
 10
3251.4672452106888159
 20
174.5617958377968932
 30
0.0
 40
0.3333786849954124
 50
8.5545446466749926
 51
15.4140845089487701
  0
ARC
  5
27538
  8
0
 10
3248.9917883937218903
 20
174.1281618962466951
 30
0.0
 40
2.846443532074276
 50
7.3477091792683558
 51
9.7741115224228405
  0
ARC
  5
27539
  8
0
 10
3251.796339228062152
 20
174.5214457969433965
 30
0.0
 40
0.0346200365864845
 50
302.3376853224521028
 51
307.1957253256800868
  0
ARC
  5
2753A
  8
0
 10
3251.8001761627137967
 20
174.5153851958141047
 30
0.0
 40
0.0274469651685859
 50
285.8399980770557249
 51
302.3376853224521028
  0
ARC
  5
2753B
  8
0
 10
3251.5836421433259602
 20
175.2785662471621038
 30
0.0
 40
0.8207516346927866
 50
284.9499773271102754
 51
285.8399980770557249
  0
ARC
  5
2753C
  8
0
 10
3252.0200529897688284
 20
173.644152360964398
 30
0.0
 40
0.8709230321059384
 50
104.9499773271102043
 51
105.839998106387398
  0
ARC
  5
2753D
  8
0
 10
3251.7900218994191164
 20
174.4549042674275086
 30
0.0
 40
0.0281698319573186
 50
105.8399981064134039
 51
157.6690456672990877
  0
ARC
  5
2753E
  8
0
 10
3251.8220178372289411
 20
174.4491853764619123
 30
0.0
 40
0.0603312336323448
 50
164.204754088836097
 51
191.0099665899969921
  0
ARC
  5
2753F
  8
0
 10
3252.1753350472531565
 20
174.4838950612482904
 30
0.0
 40
0.415120419020369
 50
186.3942637838642895
 51
196.2075177380366995
  0
ARC
  5
27540
  8
0
 10
3251.803365106623005
 20
174.3778626352599872
 30
0.0
 40
0.0284090154589184
 50
200.254166090494806
 51
270.1809426218285921
  0
ARC
  5
27541
  8
0
 10
3251.8031757355170157
 20
174.3775873695865073
 30
0.0
 40
0.0281349923747953
 50
270.5683605802994975
 51
285.1746116392794193
  0
LINE
  5
27542
  8
0
 10
3251.81054039456194
 20
174.35043337184959
 30
0.0
 11
3251.8256039267680535
 21
174.354571765178008
 31
0.0
  0
ARC
  5
27543
  8
0
 10
3251.8335371957227835
 20
174.3221555004703873
 30
0.0
 40
0.0333729077831582
 50
91.8707781256000686
 51
103.7517667677864068
  0
ARC
  5
27544
  8
0
 10
3251.8332777693472053
 20
174.3300980531942912
 30
0.0
 40
0.0254261193868595
 50
38.8294652727370888
 51
91.8707781256000686
  0
ARC
  5
27545
  8
0
 10
3251.8247634577369354
 20
174.32324515874231
 30
0.0
 40
0.0363556968975694
 50
15.40221713847769
 51
38.8294652727383607
  0
ARC
  5
27546
  8
0
 10
3251.4571803018548053
 20
174.3335784242152044
 30
0.0
 40
0.4026337124484906
 50
359.9035997740787138
 51
12.0133658936360899
  0
ARC
  5
27547
  8
0
 10
3252.0076046296589993
 20
174.4521876231441979
 30
0.0
 40
0.2434024428107048
 50
186.2805745567474105
 51
189.7373515656057918
  0
ARC
  5
27548
  8
0
 10
3252.4001431332881111
 20
174.519548863541786
 30
0.0
 40
0.6416787458201652
 50
189.7373515656074119
 51
190.4790878724062111
  0
ARC
  5
27549
  8
0
 10
3251.9920857067781981
 20
174.4440739304596946
 30
0.0
 40
0.2267000369045212
 50
190.4790878724045911
 51
192.6989146328363063
  0
ARC
  5
2754A
  8
0
 10
3251.874911174637873
 20
174.4176698415670046
 30
0.0
 40
0.1065873943873208
 50
192.6989146328378979
 51
195.8580698401621021
  0
ARC
  5
2754B
  8
0
 10
3251.794487693271094
 20
174.3948242282218928
 30
0.0
 40
0.0229820213284091
 50
195.8580698401653137
 51
200.6018432233015005
  0
ARC
  5
2754C
  8
0
 10
3251.7804350372930458
 20
174.389541666141497
 30
0.0
 40
0.0079692733402628
 50
200.6018432233198894
 51
205.7317838451540979
  0
ARC
  5
2754D
  8
0
 10
3251.7750947838840148
 20
174.3869679262004126
 30
0.0
 40
0.002041167085371
 50
205.7317838452080139
 51
219.9499919123352925
  0
ARC
  5
2754E
  8
0
 10
3251.7736376723019021
 20
174.3857474300413912
 30
0.0
 40
0.0001404343222879
 50
219.9499919121381026
 51
284.5784536674424885
  0
ARC
  5
2754F
  8
0
 10
3251.7736272274059957
 20
174.3857875905210904
 30
0.0
 40
0.0001819308279823
 50
284.578453667254621
 51
311.8242282324895882
  0
ARC
  5
27550
  8
0
 10
3251.7733548884189076
 20
174.3859603348757048
 30
0.0
 40
0.0005000275807143
 50
321.9315649795047989
 51
351.7729088247090772
  0
ARC
  5
27551
  8
0
 10
3251.7241605367030388
 20
174.3874499178058102
 30
0.0
 40
0.0497137511629719
 50
358.2004742939100765
 51
8.6024534783636533
  0
ARC
  5
27552
  8
0
 10
3251.4486182371729228
 20
174.353341413907998
 30
0.0
 40
0.3273437700285399
 50
7.291311692582898
 51
12.3109447482475804
  0
ARC
  5
27553
  8
0
 10
3251.6819181402188406
 20
174.4044640899836054
 30
0.0
 40
0.0885086397197536
 50
12.1791492570474293
 51
17.4172659891759203
  0
ARC
  5
27554
  8
0
 10
3251.7573193587331843
 20
174.4277504196448092
 30
0.0
 40
0.0096007167340056
 50
19.5128474745504796
 51
26.0352965969749306
  0
ARC
  5
27555
  8
0
 10
3251.7649846767421877
 20
174.4314948922749124
 30
0.0
 40
0.0010697041646183
 50
26.0352965969573589
 51
46.1126559891529126
  0
ARC
  5
27556
  8
0
 10
3251.7655868840288349
 20
174.4321209549623859
 30
0.0
 40
0.000201022344106
 50
46.1126559887465532
 51
128.4293256481921901
  0
ARC
  5
27557
  8
0
 10
3251.7946850990319945
 20
174.4297910677433094
 30
0.0
 40
0.0293288265682956
 50
175.1349293984058875
 51
188.2945119490516106
  0
ARC
  5
27558
  8
0
 10
3255.4031713816739284
 20
174.9492363857609121
 30
0.0
 40
3.6229052387123679
 50
189.4363086026216934
 51
192.1837322250806892
  0
ARC
  5
27559
  8
0
 10
3251.8040792553811116
 20
174.2676769805248966
 30
0.0
 40
0.0410219279570588
 50
286.1844746960384214
 51
358.9674504833935202
  0
LINE
  5
2755A
  8
0
 10
3251.8155136091409076
 20
174.228280858242897
 30
0.0
 11
3251.8023365912458758
 21
174.2246525428687107
 31
0.0
  0
ARC
  5
2755B
  8
0
 10
3251.8096527441748549
 20
174.1980823393128901
 30
0.0
 40
0.0275590604098522
 50
105.3949881492049059
 51
185.2594026674362055
  0
ARC
  5
2755C
  8
0
 10
3251.8314492164631702
 20
174.200088760980293
 30
0.0
 40
0.0494476860427488
 50
185.259402667429697
 51
194.2859092026677956
  0
LINE
  5
2755D
  8
0
 10
3251.7835306285719525
 20
174.1878870156342032
 30
0.0
 11
3251.8226020176530255
 21
173.9913369344695013
 31
0.0
  0
ARC
  5
2755E
  8
0
 10
3251.8501689537770289
 20
173.9969233080713025
 30
0.0
 40
0.0281272739048811
 50
191.4557200764928098
 51
234.2826318153564102
  0
ARC
  5
2755F
  8
0
 10
3251.8480557340972155
 20
174.0836470104250964
 30
0.0
 40
0.045386677611215
 50
287.8602733257355908
 51
327.2186425397022731
  0
LINE
  5
27560
  8
0
 10
3251.861975680399155
 20
174.0404476400647127
 30
0.0
 11
3251.8501090002519049
 21
174.0371786424367997
 31
0.0
  0
ARC
  5
27561
  8
0
 10
3251.858161155903872
 20
174.009512662929211
 30
0.0
 40
0.0288136099616865
 50
106.1794756131858009
 51
149.6054069062861061
  0
ARC
  5
27562
  8
0
 10
3251.8584210283111133
 20
174.0093602296572044
 30
0.0
 40
0.0291148898482325
 50
149.6054069062930978
 51
185.6410933398896077
  0
ARC
  5
27563
  8
0
 10
3252.315367469605917
 20
174.0544951224790111
 30
0.0
 40
0.4882850203689533
 50
185.6410933398896077
 51
189.4783786378692128
  0
ARC
  5
27564
  8
0
 10
3253.750493302959967
 20
174.3184205408728928
 30
0.0
 40
1.947428073147911
 50
190.1842810054353095
 51
194.4284885608294076
  0
ARC
  5
27565
  8
0
 10
3252.2262011475381769
 20
173.9260095303021956
 30
0.0
 40
0.3734354700653382
 50
194.3941153308961134
 51
198.6590372728944942
  0
ARC
  5
27566
  8
0
 10
3251.9129392152399305
 20
173.8196446859818991
 30
0.0
 40
0.042612463051784
 50
197.9187616753922043
 51
222.584876066070791
  0
ARC
  5
27567
  8
0
 10
3251.9010935891351437
 20
173.8107366761705066
 30
0.0
 40
0.0279009960438109
 50
225.5781744218245137
 51
282.7253111707415769
  0
ARC
  5
27568
  8
0
 10
3252.0599285690859688
 20
173.1617832273740873
 30
0.0
 40
0.6402123094559269
 50
102.8039372020589042
 51
103.7978779203170063
  0
ARC
  5
27569
  8
0
 10
3251.9238486042781915
 20
173.7481426354036955
 30
0.0
 40
0.0383744630122745
 50
49.7686717854204232
 51
98.6946495908128014
  0
ARC
  5
2756A
  8
0
 10
3249.0171664789299939
 20
173.2835644923657981
 30
0.0
 40
2.985597377837756
 50
9.7541529197360433
 51
15.0192598332612093
  0
ARC
  5
2756B
  8
0
 10
3251.9940272963858661
 20
173.9808212336666031
 30
0.0
 40
0.1575503762506041
 50
181.9019611510142056
 51
192.0638539629698869
  0
ARC
  5
2756C
  8
0
 10
3253.2666539152442056
 20
174.211110488987913
 30
0.0
 40
1.450775429544749
 50
190.4531993156338956
 51
193.1648298663230037
  0
ARC
  5
2756D
  8
0
 10
3252.190239819305134
 20
173.9499158740397888
 30
0.0
 40
0.3432853680872963
 50
191.6335743589104936
 51
200.3069076769621972
  0
ARC
  5
2756E
  8
0
 10
3251.3564281954759281
 20
173.7780880357285866
 30
0.0
 40
0.5145672988340455
 50
5.8773226521959296
 51
12.1049726405519404
  0
ARC
  5
2756F
  8
0
 10
3250.3847530324778745
 20
173.5814791404029052
 30
0.0
 40
1.505910974297985
 50
11.6664241592914095
 51
13.9838903362666507
  0
ARC
  5
27570
  8
0
 10
3251.5886406010299652
 20
173.8812825134120033
 30
0.0
 40
0.2652549622692295
 50
13.9838903362650697
 51
20.8267676152460091
  0
ARC
  5
27571
  8
0
 10
3251.892217681251168
 20
173.7765150139478862
 30
0.0
 40
0.0224473138192816
 50
127.2675074638278971
 51
150.4657953986692007
  0
ARC
  5
27572
  8
0
 10
3251.8888709677580664
 20
173.7784111316964015
 30
0.0
 40
0.0186007889301391
 50
150.4657953986776988
 51
187.8674108134694904
  0
ARC
  5
27573
  8
0
 10
3251.9290734897408583
 20
173.783966387424698
 30
0.0
 40
0.0591853135672171
 50
187.8674108134727021
 51
191.5742826239244891
  0
LINE
  5
27574
  8
0
 10
3251.8710916855361575
 20
173.7720915517134017
 30
0.0
 11
3251.8977153818359511
 21
173.6589246484390117
 31
0.0
  0
ARC
  5
27575
  8
0
 10
3251.9169862431522233
 20
173.6632034231398904
 30
0.0
 40
0.0197401623300249
 50
192.5184972487298865
 51
270.4923901119220204
  0
ARC
  5
27576
  8
0
 10
3251.9169852363011159
 20
173.6633205799980999
 30
0.0
 40
0.0198573235145997
 50
270.4923901119220204
 51
285.208088885016025
  0
ARC
  5
27577
  8
0
 10
3251.0545122641938178
 20
176.8359781425712072
 30
0.0
 40
3.3076553156313522
 50
285.208088885016025
 51
285.4623287459220933
  0
ARC
  5
27578
  8
0
 10
3251.9465830809558611
 20
173.6110424173361082
 30
0.0
 40
0.0383872384937213
 50
24.0583617686670195
 51
105.4623287459230028
  0
ARC
  5
27579
  8
0
 10
3247.9560145889431624
 20
172.7524807945848124
 30
0.0
 40
4.1207159685391224
 50
12.2842864642989298
 51
12.8136750137403101
  0
ARC
  5
2757A
  8
0
 10
3251.9389330422818603
 20
173.6388585363883976
 30
0.0
 40
0.04450691655608
 50
347.4852606618558752
 51
358.8853261821490719
  0
ARC
  5
2757B
  8
0
 10
3251.963865279890797
 20
173.6333244629516059
 30
0.0
 40
0.0189678789669901
 50
339.5317780623578869
 51
347.4852606618575237
  0
ARC
  5
2757C
  8
0
 10
3251.9416639302680778
 20
173.6416111754612075
 30
0.0
 40
0.0426653372544148
 50
287.9245961656915256
 51
339.5317780623594786
  0
ARC
  5
2757D
  8
0
 10
3251.8939996064450497
 20
173.7889664524653881
 30
0.0
 40
0.1975377538641149
 50
282.8679446822533805
 51
287.9245961656915256
  0
ARC
  5
2757E
  8
0
 10
3251.9421137447379806
 20
173.5783476794663898
 30
0.0
 40
0.018506773590928
 50
102.8679446822791022
 51
172.4491039909580081
  0
ARC
  5
2757F
  8
0
 10
3251.9568786941408689
 20
173.576390492361611
 30
0.0
 40
0.033400876861718
 50
172.4491039909563881
 51
189.1935949929209926
  0
ARC
  5
27580
  8
0
 10
3252.1756982590932239
 20
173.6118064256532989
 30
0.0
 40
0.2550679477951724
 50
189.193594992919401
 51
193.544297495790687
  0
ARC
  5
27581
  8
0
 10
3253.2576531677041203
 20
173.8504864180239053
 30
0.0
 40
1.3629981205806609
 50
192.6468398797850909
 51
196.5289616111512032
  0
ARC
  5
27582
  8
0
 10
3251.9835359106009491
 20
173.4718227048172139
 30
0.0
 40
0.033806754562427
 50
195.6315039951516042
 51
228.1981967940303093
  0
ARC
  5
27583
  8
0
 10
3251.9722885980418141
 20
173.4636127615783039
 30
0.0
 40
0.0203985666031904
 50
236.4054431603977946
 51
270.8507034835209879
  0
ARC
  5
27584
  8
0
 10
3252.1027992640738375
 20
173.6584690764019001
 30
0.0
 40
0.1211112526634357
 50
186.2438849589593985
 51
189.7337877218336075
  0
ARC
  5
27585
  8
0
 10
3251.9967502699118995
 20
173.6468662766050102
 30
0.0
 40
0.0144294166934091
 50
176.3294019039169882
 51
186.2438849589707104
  0
ARC
  5
27586
  8
0
 10
3251.9831481890878422
 20
173.6477388747130135
 30
0.0
 40
0.0007993752332491
 50
146.6628657088411956
 51
176.3294019037284102
  0
ARC
  5
27587
  8
0
 10
3251.9826256653741439
 20
173.6480825936270094
 30
0.0
 40
0.0001739364083901
 50
61.842856847714458
 51
146.6628657079126867
  0
ARC
  5
27588
  8
0
 10
3251.9795354106981904
 20
173.6449998541220054
 30
0.0
 40
0.0045316653745915
 50
21.29158163422656
 51
45.5700213720148923
  0
ARC
  5
27589
  8
0
 10
3251.7946295846982139
 20
173.5700079074703126
 30
0.0
 40
0.2040655995064451
 50
16.3758219999791805
 51
22.0584991306354397
  0
ARC
  5
2758A
  8
0
 10
3250.7637487302649788
 20
173.2528950570412007
 30
0.0
 40
1.2826046316112181
 50
14.6967621065515601
 51
16.9836098525557304
  0
ARC
  5
2758B
  8
0
 10
3251.9883620048808552
 20
173.5905016810986012
 30
0.0
 40
0.0124086749802394
 50
335.3269556362971002
 51
8.0397198072421254
  0
ARC
  5
2758C
  8
0
 10
3251.9753169558080117
 20
173.5964942993184081
 30
0.0
 40
0.0267643281683856
 50
300.3043383777471718
 51
335.3269556362956223
  0
ARC
  5
2758D
  8
0
 10
3251.9302568015818906
 20
173.6735921094816888
 30
0.0
 40
0.1160643272207189
 50
288.8395756374354164
 51
300.3043383777471718
  0
ARC
  5
2758E
  8
0
 10
3251.9913566556328988
 20
173.5975913591821893
 30
0.0
 40
0.0214647930273193
 50
332.7444187773107842
 51
16.800756666313081
  0
ARC
  5
2758F
  8
0
 10
3251.9566496067059234
 20
173.6154709418337063
 30
0.0
 40
0.0605065491487777
 50
322.0920762357903868
 51
332.74441877730942
  0
ARC
  5
27590
  8
0
 10
3251.9753688548307764
 20
173.6036064056816031
 30
0.0
 40
0.038507079450542
 50
285.5556063349404212
 51
318.9064302675823228
  0
ARC
  5
27591
  8
0
 10
3252.0048423878729409
 20
173.4792062419649881
 30
0.0
 40
0.0893785205908915
 50
102.3699603667328972
 51
108.4266665512979984
  0
ARC
  5
27592
  8
0
 10
3251.9897210187968994
 20
173.5245922170576023
 30
0.0
 40
0.041539806792734
 50
108.4266665512979984
 51
120.4885674652664989
  0
ARC
  5
27593
  8
0
 10
3251.9822023750148219
 20
173.5373621672904108
 30
0.0
 40
0.0267208448432343
 50
120.4885674652672947
 51
181.7232048996764036
  0
ARC
  5
27594
  8
0
 10
3252.1682758333067795
 20
173.5429601260051982
 30
0.0
 40
0.2128784904629301
 50
181.7232048996764036
 51
191.7751162282106066
  0
ARC
  5
27595
  8
0
 10
3253.6667407494528561
 20
173.8553266265672903
 30
0.0
 40
1.743554790531642
 50
191.7751162282106066
 51
193.6719254979834091
  0
ARC
  5
27596
  8
0
 10
3252.8751497817847849
 20
173.6627684235037918
 30
0.0
 40
0.9288800568733968
 50
193.6719254979834091
 51
195.9628702644257032
  0
ARC
  5
27597
  8
0
 10
3253.1992490867992274
 20
173.7554751487602971
 30
0.0
 40
1.265977811862016
 50
195.9628702644257032
 51
198.851510333372687
  0
ARC
  5
27598
  8
0
 10
3252.107499628018104
 20
173.382717722874105
 30
0.0
 40
0.1123465972611155
 50
198.8515103333712091
 51
206.3938040631917943
  0
ARC
  5
27599
  8
0
 10
3252.0380107518581099
 20
173.3447120721556871
 30
0.0
 40
0.0333556849086602
 50
200.9689229554724079
 51
252.4844932009175125
  0
ARC
  5
2759A
  8
0
 10
3252.0357212126727973
 20
173.3409868746869051
 30
0.0
 40
0.0291335070994464
 50
254.5740160518950859
 51
284.5945213882674238
  0
ARC
  5
2759B
  8
0
 10
3252.071072374589221
 20
173.2243943506323092
 30
0.0
 40
0.0927306030213191
 50
98.8312672785588973
 51
107.5813653945349984
  0
ARC
  5
2759C
  8
0
 10
3252.0606048732211093
 20
173.2659431977648126
 30
0.0
 40
0.0502240288620501
 50
87.7181068149282339
 51
94.3037073260755392
  0
ARC
  5
2759D
  8
0
 10
3251.9342773955959274
 20
173.5854921690201991
 30
0.0
 40
0.0257274753105304
 50
13.7202017651516393
 51
37.1119845734068576
  0
ARC
  5
2759E
  8
0
 10
3251.4564879173981353
 20
173.4235454624198951
 30
0.0
 40
0.5301235388614058
 50
14.9593645930164705
 51
18.4815492639880112
  0
ARC
  5
2759F
  8
0
 10
3252.0653511511518445
 20
173.6070651780511866
 30
0.0
 40
0.053545825810625
 50
176.751156904811495
 51
183.5006918186913083
  0
ARC
  5
275A0
  8
0
 10
3252.0219841006100978
 20
173.6095268591606953
 30
0.0
 40
0.0101089642001896
 50
159.4174228284394985
 51
176.751156904845601
  0
ARC
  5
275A1
  8
0
 10
3252.0137126500671911
 20
173.6126330227639869
 30
0.0
 40
0.0012735159132128
 50
53.0944035247626971
 51
159.4174228285050106
  0
ARC
  5
275A2
  8
0
 10
3252.0089001583341997
 20
173.6062246893224881
 30
0.0
 40
0.0092876792616032
 50
27.0824520143748515
 51
53.0944035247597697
  0
ARC
  5
275A3
  8
0
 10
3251.5822567750769849
 20
173.404091975005997
 30
0.0
 40
0.4813875428987154
 50
16.1384422647315589
 51
25.3838088732507217
  0
ARC
  5
275A4
  8
0
 10
3250.1838405303219588
 20
172.9595368300383029
 30
0.0
 40
1.948641514896204
 50
12.4690915708033501
 51
17.2656416814234284
  0
ARC
  5
275A5
  8
0
 10
3252.0715209193658666
 20
173.4997289931584987
 30
0.0
 40
0.1073183955752516
 50
178.4279875476561017
 51
194.842401143573511
  0
ARC
  5
275A6
  8
0
 10
3252.860772596165134
 20
173.6610997016695137
 30
0.0
 40
0.9127423262885239
 50
191.9417165113426904
 51
195.1899685126506085
  0
ARC
  5
275A7
  8
0
 10
3252.700350681880991
 20
173.6136434831101951
 30
0.0
 40
0.7455001868416673
 50
194.9006504437616911
 51
198.2995586972105002
  0
ARC
  5
275A8
  8
0
 10
3252.0587496693628964
 20
173.3975653816866895
 30
0.0
 40
0.0686006859488057
 50
195.2099741461188103
 51
213.796906791384913
  0
ARC
  5
275A9
  8
0
 10
3251.8969503716270992
 20
173.3632260601476105
 30
0.0
 40
0.104860730924954
 50
357.912370220826574
 51
14.5378890048868996
  0
ARC
  5
275AA
  8
0
 10
3251.1274016888210099
 20
173.2073826288475118
 30
0.0
 40
0.8898965291880401
 50
11.8121859268305407
 51
16.8407239949645984
  0
ARC
  5
275AB
  8
0
 10
3251.8295984278988726
 20
173.4273506246917975
 30
0.0
 40
0.1542503884584873
 50
14.2027152184998595
 51
29.2253696173472086
  0
ARC
  5
275AC
  8
0
 10
3252.0234722651371158
 20
173.3319881040170003
 30
0.0
 40
0.0413988884334906
 50
324.0865523724344825
 51
337.5139722517150744
  0
ARC
  5
275AD
  8
0
 10
3252.02620618040919
 20
173.330008101343509
 30
0.0
 40
0.038023284294602
 50
284.827195378528927
 51
324.0865523724359036
  0
ARC
  5
275AE
  8
0
 10
3252.2106545480201021
 20
172.6332383268672004
 30
0.0
 40
0.6827466643977458
 50
104.8271953785288986
 51
106.2448210616373956
  0
ARC
  5
275AF
  8
0
 10
3252.0248584811470209
 20
173.2708902925456016
 30
0.0
 40
0.0185778546822464
 50
106.2448210616373956
 51
163.3106524142922922
  0
ARC
  5
275B0
  8
0
 10
3252.0320472019361659
 20
173.2687350296928059
 30
0.0
 40
0.0260827107475205
 50
163.3106524142937985
 51
188.6494169398239933
  0
ARC
  5
275B1
  8
0
 10
3252.1488688486037972
 20
173.2865057179789972
 30
0.0
 40
0.1442482492609783
 50
188.6494169398239933
 51
191.3839282018917061
  0
ARC
  5
275B2
  8
0
 10
3252.4152877580659151
 20
173.340147427177186
 30
0.0
 40
0.4160137148461733
 50
191.3839282018917061
 51
196.2319086494100873
  0
ARC
  5
275B3
  8
0
 10
3246.4222854986478524
 20
171.5953994531180911
 30
0.0
 40
5.8257986481117934
 50
15.7361377243393292
 51
16.2319086494101086
  0
ARC
  5
275B4
  8
0
 10
3252.2508852873961587
 20
173.2377123558401877
 30
0.0
 40
0.2297580701298436
 50
195.7361377243377092
 51
202.4185224448164035
  0
ARC
  5
275B5
  8
0
 10
3252.0587209954460377
 20
173.1580882926465108
 30
0.0
 40
0.0217532147482279
 50
201.5736720580532904
 51
241.64246898060631
  0
ARC
  5
275B6
  8
0
 10
3252.0576127765721139
 20
173.1559442785188025
 30
0.0
 40
0.0193401554896779
 50
241.5147446559377897
 51
285.7986218080562821
  0
ARC
  5
275B7
  8
0
 10
3252.3752624556232149
 20
172.0332910395225952
 30
0.0
 40
1.147386724988287
 50
104.9788643815394948
 51
105.7986218080562963
  0
ARC
  5
275B8
  8
0
 10
3252.0889194469268659
 20
173.103516705990188
 30
0.0
 40
0.0395170143294525
 50
49.6030279932263483
 51
104.9788643815651028
  0
ARC
  5
275B9
  8
0
 10
3252.0943363867208973
 20
173.1098822702743973
 30
0.0
 40
0.0311585667827157
 50
19.5950115196239913
 51
49.6030279932242308
  0
ARC
  5
275BA
  8
0
 10
3252.147816347882781
 20
173.128920381355897
 30
0.0
 40
0.0256089936676169
 50
199.5950115196301056
 51
209.9096994184010043
  0
ARC
  5
275BB
  8
0
 10
3252.1349286838931221
 20
173.1215067424913059
 30
0.0
 40
0.0107411113586343
 50
209.909699418402397
 51
218.2658996750145945
  0
ARC
  5
275BC
  8
0
 10
3252.1268344715231251
 20
173.1151221370868996
 30
0.0
 40
0.0004319183705717
 50
218.2658996745012985
 51
274.1511112330229025
  0
ARC
  5
275BD
  8
0
 10
3252.1268422451630613
 20
173.1150150290974921
 30
0.0
 40
0.0003245286556708
 50
274.1511112331534719
 51
341.2947572685889099
  0
ARC
  5
275BE
  8
0
 10
3252.0756129003739261
 20
173.1152519716299878
 30
0.0
 40
0.0515378603933685
 50
359.6208791311304935
 51
12.8525434004927508
  0
ARC
  5
275BF
  8
0
 10
3250.4819379006930831
 20
172.7689499773007924
 30
0.0
 40
1.6824015431133079
 50
12.2778172572549398
 51
16.66489112436075
  0
ARC
  5
275C0
  8
0
 10
3250.7875417609971009
 20
172.507783819059398
 30
0.0
 40
1.4815987545779059
 50
18.3560781473827284
 51
21.2025708657181298
  0
ARC
  5
275C1
  8
0
 10
3251.9055967129470446
 20
172.9415064704768099
 30
0.0
 40
0.282364743247349
 50
21.2025708657181298
 51
26.9337249231151006
  0
ARC
  5
275C2
  8
0
 10
3252.1291783649921854
 20
173.0551014407892865
 30
0.0
 40
0.0315808274725273
 50
26.9337249231165501
 51
39.371247427139707
  0
ARC
  5
275C3
  8
0
 10
3252.1513967232431241
 20
173.0733331410309859
 30
0.0
 40
0.0028397360334871
 50
39.3712474270588189
 51
75.1253119100594375
  0
ARC
  5
275C4
  8
0
 10
3252.1519777467970016
 20
173.0755206767634036
 30
0.0
 40
0.0005763533987118
 50
75.1253119097355153
 51
160.8121751561556039
  0
ARC
  5
275C5
  8
0
 10
3252.2210903907098327
 20
173.0696646563910974
 30
0.0
 40
0.069918825258981
 50
175.0397949795672901
 51
189.9250006146137082
  0
ARC
  5
275C6
  8
0
 10
3252.117645360788174
 20
173.0625418065530994
 30
0.0
 40
0.0349220890781767
 50
319.1674839763927025
 51
351.8872083730278177
  0
ARC
  5
275C7
  8
0
 10
3252.1154745559661023
 20
173.0625005245115915
 30
0.0
 40
0.0365663649351676
 50
285.5642041195437741
 51
321.4410484195678919
  0
ARC
  5
275C8
  8
0
 10
3252.1305705354739075
 20
172.991032382108699
 30
0.0
 40
0.0366258984675654
 50
98.2958723725717221
 51
134.1273078696293055
  0
ARC
  5
275C9
  8
0
 10
3252.1298962290861709
 20
172.9959399108680884
 30
0.0
 40
0.0327653392426531
 50
139.2628182684165097
 51
191.3725314856255011
  0
ARC
  5
275CA
  8
0
 10
3252.6436959855977875
 20
173.0856417882538096
 30
0.0
 40
0.5543264981198364
 50
189.9900295720705969
 51
195.1824802492592994
  0
ARC
  5
275CB
  8
0
 10
3253.5061110520209695
 20
173.3135638725736101
 30
0.0
 40
1.4463438454188231
 50
194.9487450601685907
 51
200.1178276867507009
  0
ARC
  5
275CC
  8
0
 10
3252.2755656128210831
 20
172.8628139779808066
 30
0.0
 40
0.1358410619755968
 50
200.1178276867507009
 51
216.1599850635811038
  0
ARC
  5
275CD
  8
0
 10
3252.1847877067048103
 20
172.8032753491430924
 30
0.0
 40
0.0279639690899575
 50
227.4881596304819027
 51
266.0190028316604867
  0
ARC
  5
275CE
  8
0
 10
3252.1814720018478511
 20
172.838939000882192
 30
0.0
 40
0.0635750030460612
 50
271.2386487478307231
 51
289.9972976895504075
  0
ARC
  5
275CF
  8
0
 10
3252.2124560583270068
 20
172.7418165968321091
 30
0.0
 40
0.0385062019316347
 50
69.3255711772340959
 51
103.8887690388419998
  0
ARC
  5
275D0
  8
0
 10
3252.2157227780849098
 20
172.748241926207811
 30
0.0
 40
0.0313512141105987
 50
32.2409982644053912
 51
70.7655345699724165
  0
ARC
  5
275D1
  8
0
 10
3252.3294626560991674
 20
172.8044901273702862
 30
0.0
 40
0.0957593424356964
 50
204.3765439085794924
 51
210.1716889853668135
  0
ARC
  5
275D2
  8
0
 10
3252.2597562721120994
 20
172.7639661405347056
 30
0.0
 40
0.015129487682289
 50
210.1716889853653925
 51
225.8534966818716896
  0
ARC
  5
275D3
  8
0
 10
3252.2499357058368332
 20
172.7538485469343925
 30
0.0
 40
0.0010295152628389
 50
225.8534966816818041
 51
307.2432624777774777
  0
ARC
  5
275D4
  8
0
 10
3252.2117990511719654
 20
172.7594340785753957
 30
0.0
 40
0.0392853794193491
 50
350.6165880169787101
 51
13.0805810808110401
  0
ARC
  5
275D5
  8
0
 10
3251.3185573886639759
 20
172.597632819003195
 30
0.0
 40
0.9470176711454223
 50
10.3838568153493593
 51
15.18583126855596
  0
ARC
  5
275D6
  8
0
 10
3251.3567542593232247
 20
172.7781451980127088
 30
0.0
 40
0.8312279740044417
 50
18.447532255456089
 51
20.3043532947652317
  0
ARC
  5
275D7
  8
0
 10
3252.0974742894950396
 20
173.0522098393336137
 30
0.0
 40
0.041432056870984
 50
20.3043532947637004
 51
26.8902356749432592
  0
ARC
  5
275D8
  8
0
 10
3252.1553717690730991
 20
173.0696962493045987
 30
0.0
 40
0.0209827006694215
 50
176.5776084465277904
 51
196.6505870281858961
  0
ARC
  5
275D9
  8
0
 10
3252.097715708458054
 20
173.0599949037440126
 30
0.0
 40
0.0377339309319475
 50
341.6198609307945731
 51
5.6105186619047673
  0
ARC
  5
275DA
  8
0
 10
3252.0972087738591654
 20
173.0597017851958981
 30
0.0
 40
0.038125094480624
 50
313.0550805508215717
 51
342.2781356101648953
  0
ARC
  5
275DB
  8
0
 10
3252.0953562014119598
 20
173.0616846008740026
 30
0.0
 40
0.0408386866913695
 50
286.0498751745676032
 51
313.0550805508204917
  0
ARC
  5
275DC
  8
0
 10
3251.9273235001501234
 20
173.6457648806164116
 30
0.0
 40
0.648609006694934
 50
284.7541798202265113
 51
286.0498751745676032
  0
ARC
  5
275DD
  8
0
 10
3252.0973877252167767
 20
173.0000070456619028
 30
0.0
 40
0.0191671699187697
 50
104.7541798202260992
 51
152.631764176183907
  0
ARC
  5
275DE
  8
0
 10
3252.0992309508669678
 20
172.9990529042894138
 30
0.0
 40
0.0212427099824858
 50
152.6317641761617949
 51
194.1089236310247088
  0
ARC
  5
275DF
  8
0
 10
3252.5762800354468709
 20
173.1189583416858966
 30
0.0
 40
0.513130037544611
 50
194.1089236310247088
 51
197.5921076278849
  0
ARC
  5
275E0
  8
0
 10
3255.8364791212138698
 20
174.0469186062362894
 30
0.0
 40
3.9026244324233952
 50
196.1121182603662021
 51
197.1460253710309019
  0
ARC
  5
275E1
  8
0
 10
3252.2326681094668857
 20
172.9315525941690055
 30
0.0
 40
0.1302039724841145
 50
195.6660360035158988
 51
204.1416964616101097
  0
ARC
  5
275E2
  8
0
 10
3252.1311414872839123
 20
172.8860488432711122
 30
0.0
 40
0.0189464048426152
 50
204.141696461598201
 51
242.5846029571515885
  0
ARC
  5
275E3
  8
0
 10
3252.1335075244119253
 20
172.8906103909397984
 30
0.0
 40
0.0240850670052687
 50
242.5846029571494
 51
256.8910097519079727
  0
ARC
  5
275E4
  8
0
 10
3252.13087585514495
 20
172.8793094988915016
 30
0.0
 40
0.0124817983183909
 50
256.8910097519079727
 51
268.2107997009022142
  0
ARC
  5
275E5
  8
0
 10
3252.1260048265271507
 20
172.8930101936267931
 30
0.0
 40
0.0190074340300445
 50
169.7463034470675893
 51
174.6182133769140989
  0
ARC
  5
275E6
  8
0
 10
3252.1270251124560673
 20
172.8929140754308946
 30
0.0
 40
0.0200322374675872
 50
174.6182133769042935
 51
187.6236318048945861
  0
ARC
  5
275E7
  8
0
 10
3252.1268542109669397
 20
172.8928912005561074
 30
0.0
 40
0.0198598118931691
 50
187.6236318049026863
 51
196.8114488752364082
  0
ARC
  5
275E8
  8
0
 10
3260.3942116264338438
 20
175.3907562490402938
 30
0.0
 40
8.6563248546934695
 50
196.8114488752364082
 51
197.5677404858427906
  0
ARC
  5
275E9
  8
0
 10
3252.1869342007721571
 20
172.7923395652283887
 30
0.0
 40
0.0475402712287585
 50
197.5677404858396926
 51
211.54929189758181
  0
ARC
  5
275EA
  8
0
 10
3252.1581452470641125
 20
172.7746635856831006
 30
0.0
 40
0.0137579665637889
 50
211.54929189758181
 51
262.6697876449355817
  0
ARC
  5
275EB
  8
0
 10
3252.1603174903698346
 20
172.7915499433671016
 30
0.0
 40
0.0307834685185803
 50
262.6697876449355817
 51
281.9571221562832761
  0
ARC
  5
275EC
  8
0
 10
3252.1279525316990657
 20
172.9443773911339122
 30
0.0
 40
0.1870003669024911
 50
281.9571221562832761
 51
287.454043365056009
  0
ARC
  5
275ED
  8
0
 10
3252.1943588058152272
 20
172.7331730463100996
 30
0.0
 40
0.0343976197965693
 50
68.6176713730379646
 51
107.4540433650553979
  0
ARC
  5
275EE
  8
0
 10
3252.1883102335668809
 20
172.7177248857670975
 30
0.0
 40
0.0509877038950439
 50
47.739083749586527
 51
68.6176713730385615
  0
ARC
  5
275EF
  8
0
 10
3252.1997701230839084
 20
172.7303364115402076
 30
0.0
 40
0.0339471742651811
 50
24.7827165408658203
 51
47.7390837495887084
  0
ARC
  5
275F0
  8
0
 10
3153.2848450616938862
 20
142.0903980519823051
 30
0.0
 40
103.585417176569905
 50
17.2133912349752691
 51
17.2336971720016017
  0
ARC
  5
275F1
  8
0
 10
3254.7876712304700959
 20
173.5367698751246905
 30
0.0
 40
2.6769845518310751
 50
197.2133912349752052
 51
197.9888153589571971
  0
LINE
  5
275F2
  8
0
 10
3252.1145296199019867
 20
173.1336117797017096
 30
0.0
 11
3252.1353933519058046
 21
173.0579346300251871
 31
0.0
  0
ARC
  5
275F3
  8
0
 10
3247.1886824068269561
 20
170.8874655229363952
 30
0.0
 40
5.3764757783712609
 50
18.2110564235673706
 51
18.9200575476380202
  0
ARC
  5
275F4
  8
0
 10
3249.2193174337930941
 20
171.5835015774109138
 30
0.0
 40
3.2298633769646048
 50
18.9200575476380202
 51
20.2182815937521596
  0
ARC
  5
275F5
  8
0
 10
3251.8257450718751898
 20
172.5434245592915943
 30
0.0
 40
0.4522894060866133
 50
20.2182815937521596
 51
23.1601047842701213
  0
ARC
  5
275F6
  8
0
 10
3252.2297871582500193
 20
172.7162643014237062
 30
0.0
 40
0.0128311213512507
 50
23.1601047842581416
 51
38.3351852562870121
  0
ARC
  5
275F7
  8
0
 10
3252.1883400628321397
 20
172.7108760248906094
 30
0.0
 40
0.053212806416687
 50
359.092430473641798
 51
14.5261327292214801
  0
ARC
  5
275F8
  8
0
 10
3252.2072570906029796
 20
172.7105763526610929
 30
0.0
 40
0.0342934051807359
 50
326.8088022070804755
 51
359.0924304736433896
  0
ARC
  5
275F9
  8
0
 10
3252.2011495563187964
 20
172.7137981680045868
 30
0.0
 40
0.0411733076389463
 50
286.4417879024069862
 51
327.7096131718063248
  0
ARC
  5
275FA
  8
0
 10
3252.2207847721219878
 20
172.6344965601846013
 30
0.0
 40
0.0406041471945593
 50
101.3363418361107051
 51
118.908830300919405
  0
ARC
  5
275FB
  8
0
 10
3252.2148486155160754
 20
172.6464889271217089
 30
0.0
 40
0.0272431349265084
 50
120.1726290435425
 51
178.3904965539462921
  0
ARC
  5
275FC
  8
0
 10
3252.2475307510271705
 20
172.6490138800321859
 30
0.0
 40
0.0599403598325325
 50
181.6823636430567888
 51
199.0657459654107981
  0
ARC
  5
275FD
  8
0
 10
3263.7044037487489732
 20
176.2715027257677036
 30
0.0
 40
12.0758406693956903
 50
197.5537032835337925
 51
198.0175948481978025
  0
ARC
  5
275FE
  8
0
 10
3253.9392985982699429
 20
173.0711906491773959
 30
0.0
 40
1.799861613379985
 50
197.2873626192996994
 51
200.3178524388235928
  0
ARC
  5
275FF
  8
0
 10
3252.2794631056890466
 20
172.4531190812070065
 30
0.0
 40
0.0288743772907441
 50
193.8061987334289995
 51
284.4096469935338973
  0
ARC
  5
27600
  8
0
 10
3252.3278836890790444
 20
172.2940213407642034
 30
0.0
 40
0.1374622155088103
 50
100.4451507276757951
 51
107.4560495208174018
  0
ARC
  5
27601
  8
0
 10
3252.3090848331930829
 20
172.3959955972331102
 30
0.0
 40
0.0337696604965843
 50
63.0869306706119986
 51
100.4451507276755962
  0
ARC
  5
27602
  8
0
 10
3252.3021635940272063
 20
172.3823607987332025
 30
0.0
 40
0.049060549343709
 50
42.5347462657412692
 51
63.0869306706127304
  0
ARC
  5
27603
  8
0
 10
3252.3199348644448037
 20
172.3986650051697893
 30
0.0
 40
0.0249432277718462
 50
24.3445588509673385
 51
42.5347462657388604
  0
ARC
  5
27604
  8
0
 10
3252.493515164071141
 20
172.4772020867179094
 30
0.0
 40
0.1655776204209561
 50
204.3445588509688093
 51
206.6782876475143951
  0
ARC
  5
27605
  8
0
 10
3251.9046363381730771
 20
172.3088351503589024
 30
0.0
 40
0.4508421592996527
 50
12.0377421664077193
 51
16.9165013075199795
  0
ARC
  5
27606
  8
0
 10
3413.4648689883838415
 20
226.9632981915214884
 30
0.0
 40
170.1093350650415061
 50
198.7031028674952893
 51
198.752245598759913
  0
ARC
  5
27607
  8
0
 10
3252.3761234726239309
 20
172.3041785153652938
 30
0.0
 40
0.0285801063324939
 50
288.8500762385692724
 51
314.7354972586643953
  0
ARC
  5
27608
  8
0
 10
3252.3784001576282208
 20
172.3018807123449108
 30
0.0
 40
0.0253454203620183
 50
314.73549725868628
 51
356.3651608550765104
  0
ARC
  5
27609
  8
0
 10
3252.3560744109458938
 20
172.3032989588704993
 30
0.0
 40
0.0477161688547244
 50
356.3651608550716219
 51
10.6610491548027699
  0
ARC
  5
2760A
  8
0
 10
3252.3845375372829949
 20
172.2924360008883014
 30
0.0
 40
0.0269695018035402
 50
20.0347109395992007
 51
46.8946158530493378
  0
ARC
  5
2760B
  8
0
 10
3251.7954452396379565
 20
172.0203564911730894
 30
0.0
 40
0.6757693976877228
 50
19.0487183647286713
 51
24.6008536074104214
  0
ARC
  5
2760C
  8
0
 10
3252.0176468891968398
 20
173.5616702047043987
 30
0.0
 40
1.3361330210712301
 50
285.1760708015077057
 51
285.9742368089952151
  0
ARC
  5
2760D
  8
0
 10
3252.3746508711169554
 20
172.2455049722134106
 30
0.0
 40
0.0275908374590756
 50
105.1760708015077057
 51
161.4144968418505925
  0
ARC
  5
2760E
  8
0
 10
3252.3784339314161116
 20
172.2442328972614121
 30
0.0
 40
0.0315820427795782
 50
161.4144968418476083
 51
193.8878020159008884
  0
ARC
  5
2760F
  8
0
 10
3252.8247211606849305
 20
172.3545769947573092
 30
0.0
 40
0.4913081687076715
 50
193.8878020159008884
 51
197.537918283073509
  0
ARC
  5
27610
  8
0
 10
3252.7296854163278113
 20
172.3245431781132879
 30
0.0
 40
0.3916396037144604
 50
197.537918283073509
 51
205.066259526532491
  0
ARC
  5
27611
  8
0
 10
3252.3998737083188644
 20
172.1702848576364886
 30
0.0
 40
0.0275360577606549
 50
205.0662595265384027
 51
286.5370235060814821
  0
ARC
  5
27612
  8
0
 10
3252.5782939610739959
 20
171.5693743418148927
 30
0.0
 40
0.5993030241562167
 50
104.1607233457859962
 51
106.5370235060814963
  0
ARC
  5
27613
  8
0
 10
3252.4380653898288074
 20
172.1251540486287013
 30
0.0
 40
0.0261057329036153
 50
78.2265712522121106
 51
104.160723345760303
  0
ARC
  5
27614
  8
0
 10
3252.4049320444428304
 20
172.161859788864092
 30
0.0
 40
0.0201661492469061
 50
293.3015568807674072
 51
312.5316114925095121
  0
ARC
  5
27615
  8
0
 10
3252.3940308531150549
 20
172.1871701787767108
 30
0.0
 40
0.0477243024849841
 50
287.7691133262426888
 51
293.3015568807674072
  0
ARC
  5
27616
  8
0
 10
3252.3469207895050204
 20
172.3341730631678956
 30
0.0
 40
0.2020914172234045
 50
283.021820787671686
 51
287.7691133262426888
  0
ARC
  5
27617
  8
0
 10
3252.3982969319808944
 20
172.1120245682801908
 30
0.0
 40
0.0259205600859244
 50
103.0218207876978056
 51
171.6503432188978024
  0
ARC
  5
27618
  8
0
 10
3252.4146733069392212
 20
172.1104618871131038
 30
0.0
 40
0.042358444269973
 50
172.7757556018974014
 51
202.3396835997118046
  0
ARC
  5
27619
  8
0
 10
3253.1602832946227863
 20
172.3414159132811108
 30
0.0
 40
0.8227576047273034
 50
197.4741793238021899
 51
198.67490002814381
  0
ARC
  5
2761A
  8
0
 10
3251.8756880288487991
 20
171.8768081834298016
 30
0.0
 40
0.5437354173445521
 50
19.1233747984636615
 51
21.7133804452972186
  0
ARC
  5
2761B
  8
0
 10
3252.625900605138213
 20
172.1252918339756945
 30
0.0
 40
0.2467263942681265
 50
196.5678292425936036
 51
203.7957891705208908
  0
ARC
  5
2761C
  8
0
 10
3252.4259557067730384
 20
172.0360667419103038
 30
0.0
 40
0.027795393796671
 50
201.8028366789459085
 51
262.6786203070171837
  0
ARC
  5
2761D
  8
0
 10
3252.4263341749588108
 20
172.0329702701251904
 30
0.0
 40
0.0247843611127073
 50
260.8983147842513972
 51
286.5719154802436037
  0
LINE
  5
2761E
  8
0
 10
3252.4334031356070227
 20
172.0092153895500076
 30
0.0
 11
3252.4570040379908278
 21
172.0157139399669859
 31
0.0
  0
ARC
  5
2761F
  8
0
 10
3252.4642918421068316
 20
171.9892500026485038
 30
0.0
 40
0.0274490855755349
 50
81.5484022790392942
 51
105.3964659821759966
  0
ARC
  5
27620
  8
0
 10
3252.4643126132341422
 20
171.9893897932257119
 30
0.0
 40
0.027307760258628
 50
46.5949783523924879
 51
81.5484022790395358
  0
ARC
  5
27621
  8
0
 10
3252.4631549859959705
 20
171.9881658516405025
 30
0.0
 40
0.0289924364368213
 50
20.6462973966038597
 51
46.5949783524170016
  0
ARC
  5
27622
  8
0
 10
3250.8410471813408549
 20
171.5226620775931963
 30
0.0
 40
1.717063778918221
 50
18.3392267851593012
 51
21.4741014579659613
  0
ARC
  5
27623
  8
0
 10
3251.3404304236669304
 20
171.6881966712699921
 30
0.0
 40
1.1909598686312091
 50
15.0970818836609606
 51
18.3392267851593012
  0
ARC
  5
27624
  8
0
 10
3270.652853212573973
 20
178.3936857896925972
 30
0.0
 40
19.2621047586798895
 50
199.3455711536934984
 51
199.6056360610508023
  0
ARC
  5
27625
  8
0
 10
3252.470534063867035
 20
171.9496612435754059
 30
0.0
 40
0.0283822109057322
 50
21.5703088606075006
 51
104.0524556803422058
  0
LINE
  5
27626
  8
0
 10
3252.4636425757339566
 20
171.9771940837341049
 30
0.0
 11
3252.440006654417175
 21
171.9706666399218022
 31
0.0
  0
ARC
  5
27627
  8
0
 10
3252.4322540127891443
 20
171.996368110053595
 30
0.0
 40
0.0268452733734968
 50
203.798842350426014
 51
286.7849789289036835
  0
LINE
  5
27628
  8
0
 10
3252.4076914515007957
 20
171.9855353225337922
 30
0.0
 11
3252.3799132068052131
 21
172.0639455472978909
 31
0.0
  0
ARC
  5
27629
  8
0
 10
3252.4094082955889462
 20
172.0722382793248073
 30
0.0
 40
0.0306386955801842
 50
164.0778469064979959
 51
195.7036662230451043
  0
ARC
  5
2762A
  8
0
 10
3252.3324800832037909
 20
172.207877464995704
 30
0.0
 40
0.0257569595646241
 50
17.5992849989614903
 51
35.8105874778199365
  0
ARC
  5
2762B
  8
0
 10
3252.0834427425061222
 20
172.1060212700838861
 30
0.0
 40
0.2947415894058788
 50
17.9486627218405204
 51
21.8390460918495606
  0
ARC
  5
2762C
  8
0
 10
3252.1914278095891859
 20
172.1385934184177131
 30
0.0
 40
0.1819886541995377
 50
13.7583886315354604
 51
18.6697178490750488
  0
ARC
  5
2762D
  8
0
 10
3252.3458590263671795
 20
172.1778406385861047
 30
0.0
 40
0.0226971886648878
 50
0.8098525876115688
 51
10.2396826658839792
  0
ARC
  5
2762E
  8
0
 10
3252.3744965149030577
 20
172.1841246863106107
 30
0.0
 40
0.0084186916738588
 50
196.8066207733000113
 51
225.0995002112613008
  0
ARC
  5
2762F
  8
0
 10
3252.5841623961568985
 20
172.2753212505922988
 30
0.0
 40
0.2370039790795989
 50
198.4392272340338934
 51
203.2697090989202025
  0
ARC
  5
27630
  8
0
 10
3252.5607845116128374
 20
172.2713672745472877
 30
0.0
 40
0.2136067599283815
 50
194.0940377657256022
 51
199.4165483846167888
  0
ARC
  5
27631
  8
0
 10
3252.3749489928709409
 20
172.2225817109894024
 30
0.0
 40
0.0215842653335751
 50
179.0274840321642102
 51
188.608270590718007
  0
ARC
  5
27632
  8
0
 10
3252.3390740480840577
 20
172.0668940668151095
 30
0.0
 40
0.0447858267276773
 50
17.8935340452671383
 51
28.3206644082081205
  0
ARC
  5
27633
  8
0
 10
3251.8023571605021971
 20
171.8600096346617079
 30
0.0
 40
0.6199312793465532
 50
18.4554017905171683
 51
20.8497309786114897
  0
ARC
  5
27634
  8
0
 10
3252.1657112627581228
 20
171.9797680480861004
 30
0.0
 40
0.2373571466711127
 50
16.6168967169586885
 51
18.79972800811856
  0
ARC
  5
27635
  8
0
 10
3252.357575556881784
 20
172.0370268936493119
 30
0.0
 40
0.0371310675627739
 50
10.0021463473356498
 51
16.6168967169539989
  0
ARC
  5
27636
  8
0
 10
3252.4055236297558622
 20
172.0508343071049069
 30
0.0
 40
0.013552848516574
 50
198.4065147750816891
 51
212.8835642529099061
  0
ARC
  5
27637
  8
0
 10
3253.0123291849167799
 20
172.2970580551101136
 30
0.0
 40
0.6683835678123855
 50
201.3166653727041933
 51
202.0113042328721917
  0
ARC
  5
27638
  8
0
 10
3252.3867260747001637
 20
172.0883932872989988
 30
0.0
 40
0.0082306568007471
 50
181.7584654573147134
 51
199.7014087127745086
  0
ARC
  5
27639
  8
0
 10
3252.5570668466689312
 20
172.1317086686599964
 30
0.0
 40
0.1839570889277154
 50
194.5099444680427894
 51
198.2247935252291029
  0
ARC
  5
2763A
  8
0
 10
3251.8127334904329473
 20
171.5001870635763908
 30
0.0
 40
0.8259307890291044
 50
13.3790901973059508
 51
22.1204850233326908
  0
ARC
  5
2763B
  8
0
 10
3252.5902536446478734
 20
171.681713156990611
 30
0.0
 40
0.0277071780161433
 50
20.2466549517937509
 51
39.9167390575183987
  0
ARC
  5
2763C
  8
0
 10
3252.5905615098108683
 20
171.6819707250838007
 30
0.0
 40
0.027305777615769
 50
39.916739057514647
 51
85.7027552396936159
  0
ARC
  5
2763D
  8
0
 10
3252.6141229252648372
 20
171.5327057790943002
 30
0.0
 40
0.1778005318716313
 50
96.9503084821495662
 51
108.2119405522660998
  0
ARC
  5
2763E
  8
0
 10
3252.5513359515161937
 20
171.7280626411385072
 30
0.0
 40
0.0274297538788675
 50
259.3382886947757129
 51
285.2577480193555175
  0
ARC
  5
2763F
  8
0
 10
3252.5537147740878936
 20
171.7321841305864893
 30
0.0
 40
0.0319590432704582
 50
211.1202217065799118
 51
256.5130736857806824
  0
ARC
  5
27640
  8
0
 10
3253.038140286451835
 20
171.9544898842434861
 30
0.0
 40
0.5647659960917633
 50
199.029869442522596
 51
205.0159968247874076
  0
ARC
  5
27641
  8
0
 10
3252.6430540632859447
 20
171.8189297305989953
 30
0.0
 40
0.1470723857952314
 50
186.4487997903553094
 51
199.2911204131833074
  0
ARC
  5
27642
  8
0
 10
3252.528037949892223
 20
171.800810777189696
 30
0.0
 40
0.0311668101460298
 50
153.4369698448662973
 51
177.0564595715570988
  0
ARC
  5
27643
  8
0
 10
3252.5245805717358962
 20
171.8021190622278027
 30
0.0
 40
0.0274919108560808
 50
112.5948808973765978
 51
152.6535523482293968
  0
ARC
  5
27644
  8
0
 10
3252.5237492872120129
 20
171.7509857390012087
 30
0.0
 40
0.0274824699914475
 50
135.2268029865441008
 51
183.0546609040285091
  0
ARC
  5
27645
  8
0
 10
3252.5367598376628848
 20
171.75276532720261
 30
0.0
 40
0.0405838389184389
 50
184.5848613000518128
 51
198.2054063354038078
  0
ARC
  5
27646
  8
0
 10
3253.8762764158541358
 20
172.2003604280371007
 30
0.0
 40
1.4529027783585871
 50
198.4692998808424136
 51
201.381600121870207
  0
ARC
  5
27647
  8
0
 10
3252.5574063794060748
 20
171.6839894392009001
 30
0.0
 40
0.0365493015907691
 50
201.3816001218656879
 51
242.9605183905142098
  0
ARC
  5
27648
  8
0
 10
3252.5506211988590621
 20
171.6767579378183086
 30
0.0
 40
0.0271638535178994
 50
248.7837669374420955
 51
285.8366235122169883
  0
LINE
  5
27649
  8
0
 10
3252.5580340852379777
 20
171.6506251221742048
 30
0.0
 11
3252.5824620838029659
 21
171.6575603768226017
 31
0.0
  0
ARC
  5
2764A
  8
0
 10
3252.5892027463060003
 20
171.6302553977344871
 30
0.0
 40
0.0281246940246338
 50
20.7935648030100602
 51
103.8671001737560005
  0
ARC
  5
2764B
  8
0
 10
3251.2945158004199584
 20
171.2400815731002979
 30
0.0
 40
1.380258690008624
 50
16.8528867041985109
 51
19.8693796800550686
  0
ARC
  5
2764C
  8
0
 10
2841.3489940402200773
 20
21.6539884392243813
 30
0.0
 40
437.7597301439466833
 50
20.0163366294996514
 51
20.0381342953910604
  0
ARC
  5
2764D
  8
0
 10
3252.5958004079811872
 20
171.764720422463796
 30
0.0
 40
0.2796317988118151
 50
284.5484209358709791
 51
289.1293377207312005
  0
ARC
  5
2764E
  8
0
 10
3252.6765402383648507
 20
171.4675768124288027
 30
0.0
 40
0.0284827832507271
 50
111.6251894565515954
 51
161.6100996559133023
  0
ARC
  5
2764F
  8
0
 10
3252.6810094064207988
 20
171.4668805102076021
 30
0.0
 40
0.0329519068880847
 50
162.9128944850434095
 51
194.2907882938438888
  0
ARC
  5
27650
  8
0
 10
3252.801385813908837
 20
171.4940613759600865
 30
0.0
 40
0.1563491472944078
 50
193.0541322891197069
 51
199.2608758167172027
  0
ARC
  5
27651
  8
0
 10
3252.98871164876482
 20
171.5551091760551969
 30
0.0
 40
0.35335203023555
 50
198.5859287438499052
 51
209.6148747150841984
  0
ARC
  5
27652
  8
0
 10
3252.705516840402197
 20
171.3967112908908064
 30
0.0
 40
0.0289635414914543
 50
214.0501866675093936
 51
284.5686857262887202
  0
LINE
  5
27653
  8
0
 10
3252.71280234212918
 20
171.3686790201959127
 30
0.0
 11
3252.7394488578747769
 21
171.3760207371298918
 31
0.0
  0
ARC
  5
27654
  8
0
 10
3252.7461478977970728
 20
171.352684206535713
 30
0.0
 40
0.0242759464109431
 50
31.3459443724637303
 51
106.2183733050301981
  0
ARC
  5
27655
  8
0
 10
3252.7781632892538255
 20
171.3721850498390893
 30
0.0
 40
0.0132109603662451
 50
211.3459443724622986
 51
246.3093753669708974
  0
ARC
  5
27656
  8
0
 10
3252.6814090505590684
 20
171.3561510434608977
 30
0.0
 40
0.0915307871842089
 50
2.4648106229734892
 51
21.2796031343453791
  0
ARC
  5
27657
  8
0
 10
3247.2443967517460806
 20
169.4130703259504003
 30
0.0
 40
5.8652863037570366
 50
19.6910647725176595
 51
20.6522405233541591
  0
ARC
  5
27658
  8
0
 10
3236.5227178204781922
 20
165.5143114685106127
 30
0.0
 40
17.2146065307933398
 50
17.5804967760355915
 51
19.8806633409655085
  0
ARC
  5
27659
  8
0
 10
3251.5352786500670845
 20
170.0686326561555006
 30
0.0
 40
1.53974481154045
 50
3.8515400330832961
 51
24.7763319783209113
  0
ARC
  5
2765A
  8
0
 10
3247.0629422023239385
 20
168.9989485074185893
 30
0.0
 40
6.1220509218676469
 50
7.9017090941730608
 51
11.0473752353634094
  0
ARC
  5
2765B
  8
0
 10
3253.1384963319587769
 20
169.8424718685434129
 30
0.0
 40
0.0117840362459545
 50
189.2784353278466085
 51
277.0491226335387864
  0
ARC
  5
2765C
  8
0
 10
3252.6258777135049058
 20
171.2408544970751905
 30
0.0
 40
0.1426561342721853
 50
19.4208091485479102
 51
40.2442324953767425
  0
ARC
  5
2765D
  8
0
 10
3249.0722071803220388
 20
169.5477504363149137
 30
0.0
 40
4.0782794512760594
 50
21.1347444037679715
 51
25.263533570546759
  0
ARC
  5
2765E
  8
0
 10
3251.609852420309835
 20
170.5185374614329135
 30
0.0
 40
1.361332477263937
 50
15.2173746312029206
 51
21.5342718869601413
  0
ARC
  5
2765F
  8
0
 10
3252.6459084307248304
 20
170.8010240013394991
 30
0.0
 40
0.2874568851911569
 50
4.260706035738635
 51
15.0906373835208907
  0
ARC
  5
27660
  8
0
 10
3252.8953703626589231
 20
170.8198415122101039
 30
0.0
 40
0.0372870627480161
 50
344.0368209197213218
 51
3.9045579034902151
  0
ARC
  5
27661
  8
0
 10
3252.9254638819347747
 20
170.811869844863196
 30
0.0
 40
0.0061919486613301
 50
298.9118538502934825
 51
338.3642130963385739
  0
ARC
  5
27662
  8
0
 10
3252.9276583529058371
 20
170.8099131529822898
 30
0.0
 40
0.0035545112135336
 50
248.9911362431176087
 51
282.9920450804124243
  0
ARC
  5
27663
  8
0
 10
3252.9551020754552155
 20
170.8448039530682081
 30
0.0
 40
0.0477980804880866
 50
202.1313033795279068
 51
233.0713274732090099
  0
ARC
  5
27664
  8
0
 10
3253.9720683475438818
 20
171.3239282420732081
 30
0.0
 40
1.1719111069717949
 50
198.7373375303058936
 51
205.1003922063462142
  0
ARC
  5
27665
  8
0
 10
3263.5732960907789675
 20
174.7770650697665076
 30
0.0
 40
11.3750560486471706
 50
199.1082990632984888
 51
199.6738539766051872
  0
ARC
  5
27666
  8
0
 10
3270.0282938454029136
 20
177.0646465212255976
 30
0.0
 40
18.2233082891754314
 50
198.6198409387928905
 51
199.2606773072130864
  0
ARC
  5
27667
  8
0
 10
3253.2134102076938689
 20
171.4188937646781881
 30
0.0
 40
0.486286263490297
 50
190.1716050925697914
 51
200.8047915632392062
  0
ARC
  5
27668
  8
0
 10
3252.6443302551251691
 20
171.435022471020801
 30
0.0
 40
0.01543161685316
 50
21.3885221351702306
 51
46.3155324339105618
  0
ARC
  5
27669
  8
0
 10
3252.4652306438229061
 20
171.345067259935405
 30
0.0
 40
0.2157918905086332
 50
21.4247356680563392
 51
26.2916487217856201
  0
ARC
  5
2766A
  8
0
 10
3252.4647830877488559
 20
171.3424685675877868
 30
0.0
 40
0.2171694810471699
 50
17.5835861776930784
 51
22.0198501758472815
  0
ARC
  5
2766B
  8
0
 10
3252.6330923782270474
 20
171.3989407318676967
 30
0.0
 40
0.0397763852500307
 50
4.8145651858582887
 51
13.2755740988519406
  0
ARC
  5
2766C
  8
0
 10
3252.7098596970940889
 20
171.4309859797641877
 30
0.0
 40
0.0469341069451218
 50
201.4549958598765897
 51
217.7081578173298908
  0
ARC
  5
2766D
  8
0
 10
3252.9015702384422184
 20
171.5200377766279871
 30
0.0
 40
0.2582479741199769
 50
199.6018282614882935
 51
204.2868918744470932
  0
ARC
  5
2766E
  8
0
 10
3252.7599544789018182
 20
171.4705681062526139
 30
0.0
 40
0.1082469404791704
 50
194.7335501627300118
 51
200.081778963663794
  0
ARC
  5
2766F
  8
0
 10
3252.6727583468259581
 20
171.4461700238319111
 30
0.0
 40
0.0177696878649654
 50
179.961665634523996
 51
190.1508744329318006
  0
ARC
  5
27670
  8
0
 10
3247.7981789717750871
 20
174.6739498407372935
 30
0.0
 40
4.6385738808190107
 50
14.2480835860854302
 51
16.5728062304852806
  0
ARC
  5
27671
  8
0
 10
3238.8634284111021771
 20
168.0870913478246962
 30
0.0
 40
15.0046180431831395
 50
8.6290874305344705
 51
14.1353778462022603
  0
ARC
  5
27672
  8
0
 10
3240.7958606960451107
 20
168.9219460073867936
 30
0.0
 40
12.9798506321645792
 50
1.57518438563398
 51
6.2647508144332029
  0
ARC
  5
27673
  8
0
 10
3234.0471709824541904
 20
168.6975085177199958
 30
0.0
 40
19.7321978323826492
 50
358.5376336836499149
 51
1.6879630765008671
  0
ARC
  5
27674
  8
0
 10
3209.4529988281938131
 20
169.3182310970719016
 30
0.0
 40
44.3342013654345166
 50
356.1237011039056028
 51
358.5468496725723071
  0
ARC
  5
27675
  8
0
 10
3009.7238521633707933
 20
105.2910279798205977
 30
0.0
 40
252.5900632004093893
 50
15.2550143577376893
 51
15.5310175392595102
  0
LINE
  5
27676
  8
0
 10
3253.0907509465741896
 20
172.9245448500329871
 30
0.0
 11
3252.4477320833029808
 21
175.259672244948689
 31
0.0
  0
ARC
  5
27677
  8
0
 10
3218.8067562291221293
 20
166.2600605214900895
 30
0.0
 40
34.8239611129261277
 50
14.9770187184369199
 51
15.9259947950043408
  0
ARC
  5
27DF8
  8
0
 10
3253.2992256149627792
 20
166.3414190369782091
 30
0.0
 40
0.0203240194750721
 50
184.7670763565278946
 51
266.8592423286565918
  0
LINE
  5
27DF9
  8
0
 10
3253.2573333857180842
 20
166.3211255452285968
 30
0.0
 11
3254.2587406032180297
 21
166.3211255452285968
 31
0.0
  0
ARC
  5
27DFA
  8
0
 10
3254.2587421133807766
 20
166.3408090560411097
 30
0.0
 40
0.0196835108703591
 50
269.9956041399955211
 51
358.3168685551111139
  0
LINE
  5
27DFB
  8
0
 10
3254.3788458753178929
 20
166.3138674929546994
 30
0.0
 11
3253.1583734343180367
 21
166.3138674929546994
 31
0.0
  0
ARC
  5
27DFC
  8
0
 10
3253.1583749096830616
 20
166.2843384585194997
 30
0.0
 40
0.0295290344720852
 50
90.0028626818803161
 51
179.9988142383535035
  0
LINE
  5
27DFD
  8
0
 10
3253.128845875216939
 20
166.2843390696359904
 30
0.0
 11
3253.128845875216939
 21
164.8315831641359921
 31
0.0
  0
ARC
  5
27DFE
  8
0
 10
3253.1583719590162218
 20
164.8315825530457914
 30
0.0
 40
0.029526083804157
 50
179.9988141709814897
 51
270.0028628448811219
  0
LINE
  5
27DFF
  8
0
 10
3253.1583734343180367
 20
164.8020564692785115
 30
0.0
 11
3254.3788458753178929
 21
164.8020564692785115
 31
0.0
  0
ARC
  5
27E00
  8
0
 10
3254.3788473506069749
 20
164.8315825530596044
 30
0.0
 40
0.0295260838179
 50
269.9971371821119988
 51
0.0011858023787953
  0
LINE
  5
27E01
  8
0
 10
3254.4083734344180812
 20
164.8315831641359921
 30
0.0
 11
3254.4083734348178041
 21
166.2843390696359904
 31
0.0
  0
ARC
  5
27E02
  8
0
 10
3254.378844400359867
 20
166.2843384585275999
 30
0.0
 40
0.0295290344639551
 50
0.0011857459092429
 51
89.9971381095695193
  0
LINE
  5
27E03
  8
0
 10
3256.4634915446172272
 20
166.6996942644971114
 30
0.0
 11
3256.4634915446172272
 21
164.4162296893528037
 31
0.0
  0
LINE
  5
27E04
  8
0
 10
3256.4634915446172272
 20
164.4162296893528037
 30
0.0
 11
3256.2181297971169442
 21
164.4205116386359862
 31
0.0
  0
ARC
  5
27E05
  8
0
 10
3256.218645413917784
 20
164.4500349970107891
 30
0.0
 40
0.0295278605796357
 50
180.7224792500203989
 51
268.999447724313427
  0
ARC
  5
27E06
  8
0
 10
3406.5575034022990621
 20
165.5578802288181066
 30
0.0
 40
150.3724672372034945
 50
179.5775953148489918
 51
180.422263229491989
  0
ARC
  5
27E07
  8
0
 10
3256.2184755347361715
 20
166.6660855168312025
 30
0.0
 40
0.0293554026739208
 50
88.4637088813386754
 51
179.251446686368098
  0
LINE
  5
27E08
  8
0
 10
3256.2192625567649884
 20
166.6954303675290134
 30
0.0
 11
3256.4634915446172272
 21
166.6996942644971114
 31
0.0
  0
ARC
  5
27E09
  8
0
 10
3256.1254043523699693
 20
166.3991619758772913
 30
0.0
 40
0.0620496437714365
 50
274.8095909231686278
 51
357.0484214292292791
  0
LINE
  5
27E0A
  8
0
 10
3256.1306068829280775
 20
166.3373308189420072
 30
0.0
 11
3254.8062268674020743
 21
166.313867492978801
 31
0.0
  0
ARC
  5
27E0B
  8
0
 10
3254.8063317651499347
 20
166.239794487862099
 30
0.0
 40
0.0740730793916628
 50
90.0811387918323163
 51
98.9561264472356044
  0
ARC
  5
27E0C
  8
0
 10
3254.8031300117299907
 20
166.2851104657347889
 30
0.0
 40
0.0290728467537309
 50
106.6494221473401041
 51
179.973792158548008
  0
ARC
  5
27E0D
  8
0
 10
3340.1557896501858522
 20
165.5579612744299993
 30
0.0
 40
85.3848289038689074
 50
179.5120462751087871
 51
180.4879544025112068
  0
ARC
  5
27E0E
  8
0
 10
3254.8028382941938617
 20
164.8308367019268132
 30
0.0
 40
0.0287811439012162
 50
180.0774933492446053
 51
270.4559472667505133
  0
LINE
  5
27E0F
  8
0
 10
3254.8030673258181196
 20
164.8020564693221957
 30
0.0
 11
3256.1304339742760021
 21
164.7784063242133925
 31
0.0
  0
ARC
  5
27E10
  8
0
 10
3256.126966639416878
 20
164.7194530837359991
 30
0.0
 40
0.0590551181000169
 50
17.5837606361438894
 51
86.6340263323966155
  0
ARC
  5
27E11
  8
0
 10
3256.0143512369759264
 20
164.6913382556355998
 30
0.0
 40
0.1750511504703189
 50
8.7123796814240695
 51
15.2199596937915693
  0
LINE
  5
27E12
  8
0
 10
3254.4083734343180367
 20
165.7469374948360041
 30
0.0
 11
3254.7430191036178257
 21
165.7469374948360041
 31
0.0
  0
LINE
  5
27E13
  8
0
 10
3254.7430191036178257
 20
165.7469374948360041
 30
0.0
 11
3254.7430191036178257
 21
165.3689847389360068
 31
0.0
  0
LINE
  5
27E14
  8
0
 10
3254.7430191036178257
 20
165.3689847389360068
 30
0.0
 11
3254.4083734343180367
 21
165.3689847389360068
 31
0.0
  0
LINE
  5
27E15
  8
0
 10
3254.7430191036178257
 20
165.4398508806359871
 30
0.0
 11
3254.7710424357228476
 21
165.4398508806359871
 31
0.0
  0
LINE
  5
27E16
  8
0
 10
3254.7430191036178257
 20
165.6760713531359954
 30
0.0
 11
3254.7710424352871996
 21
165.6760713531359954
 31
0.0
  0
ARC
  5
27E17
  8
0
 10
3253.2571972928030846
 20
166.3128731849434985
 30
0.0
 40
0.0082534823897123
 50
89.0551984376770207
 51
173.0867494163719869
  0
ARC
  5
27E18
  8
0
 10
3254.1456460047170367
 20
166.312943040571497
 30
0.0
 40
0.0081866435799387
 50
6.4776865649740474
 51
87.9967827844385226
  0
LINE
  5
27E19
  8
0
 10
3253.3267800569819883
 20
164.7782676352285876
 30
0.0
 11
3254.0761938149321395
 21
164.7782676352285876
 31
0.0
  0
LINE
  5
27E1A
  8
0
 10
3253.986614403223939
 20
164.7782676352285876
 30
0.0
 11
3253.9868184930178359
 21
130.1911882916460002
 31
0.0
  0
ARC
  5
27E1B
  8
0
 10
3157.2322497079949244
 20
130.1911873002956099
 30
0.0
 40
96.7545687850242757
 50
358.0552608188280033
 51
0.0000005870540609
  0
ARC
  5
27E1C
  8
0
 10
3232.3873855838760392
 20
127.6415979409532042
 30
0.0
 40
21.5561989195973815
 50
353.4404279747442956
 51
358.0491138767769144
  0
ARC
  5
27E1D
  8
0
 10
3253.1078503967291908
 20
125.2587202157476014
 30
0.0
 40
0.6991673387278455
 50
329.3022522536575138
 51
353.4610298781394135
  0
ARC
  5
27E1E
  8
0
 10
3253.4588953316570041
 20
125.0688932170245948
 30
0.0
 40
0.3008300692854371
 50
246.0499729729106093
 51
326.2563973597170275
  0
ARC
  5
27E1F
  8
0
 10
3253.4752361507407841
 20
125.0922076357534962
 30
0.0
 40
0.3288159954064059
 50
200.9349238047259973
 51
245.0968537861394907
  0
ARC
  5
27E20
  8
0
 10
3255.2057971463191279
 20
125.6130374124766007
 30
0.0
 40
2.1353108459102339
 50
184.1033094437102875
 51
197.3936200248369914
  0
ARC
  5
27E21
  8
0
 10
3302.1221984087060264
 20
129.1666425657539037
 30
0.0
 40
49.1860844053777271
 50
180.1626032657925975
 51
184.3215967258410046
  0
ARC
  5
27E22
  8
0
 10
3359.5453118431369148
 20
130.1847521397990874
 30
0.0
 40
106.6152854665654957
 50
179.9965396065855998
 51
180.6221668140196073
  0
LINE
  5
27E23
  8
0
 10
3253.4159489275180022
 20
130.1912042880360048
 30
0.0
 11
3253.4157482524260558
 21
164.7782676352285876
 31
0.0
  0
LINE
  5
27E24
  8
0
 10
3252.9300280139132155
 20
141.2817554665286082
 30
0.0
 11
3252.9300265710171516
 21
130.1911911975199985
 31
0.0
  0
ARC
  5
27E25
  8
0
 10
3149.9417888897751254
 20
130.1759200681636912
 30
0.0
 40
103.4741611665621974
 50
359.0332759543761085
 51
0.0084631881542288
  0
ARC
  5
27E26
  8
0
 10
3192.6957347209558975
 20
129.454484905699104
 30
0.0
 40
60.7141289772714288
 50
356.6132775334231724
 51
359.0332759541677206
  0
ARC
  5
27E27
  8
0
 10
3247.8021373909841714
 20
126.1953418789260013
 30
0.0
 40
5.5114335168787791
 50
347.0667342913707216
 51
356.5928805513004249
  0
LINE
  5
27E28
  8
0
 10
3253.415950954732125
 20
141.2817554665286082
 30
0.0
 11
3252.840652473631053
 21
141.2817554665286082
 31
0.0
  0
ARC
  5
27E29
  8
0
 10
3252.8406524764691312
 20
141.301451208531887
 30
0.0
 40
0.0196957420032437
 50
182.4158037322748953
 51
269.9999917445445021
  0
LINE
  5
27E2A
  8
0
 10
3252.8209742392209591
 20
141.3006210086359999
 30
0.0
 11
3252.7630458854291646
 21
142.6908764858285963
 31
0.0
  0
LINE
  5
27E2B
  8
0
 10
3253.415874688977965
 20
142.9864798759286089
 30
0.0
 11
3252.3690033556181334
 21
142.9864798759286089
 31
0.0
  0
ARC
  5
27E2C
  8
0
 10
3252.3689968717731062
 20
143.0256705927953078
 30
0.0
 40
0.039190717403014
 50
179.7377742777323988
 51
270.0094792074110046
  0
LINE
  5
27E2D
  8
0
 10
3252.3298065648182273
 20
143.0258499564131114
 30
0.0
 11
3252.3296332768181855
 21
144.364432633435996
 31
0.0
  0
LINE
  5
27E2E
  8
0
 10
3253.9867325370842082
 20
144.7581334192344968
 30
0.0
 11
3254.0619167414179174
 21
144.7581334192344968
 31
0.0
  0
ARC
  5
27E2F
  8
0
 10
3254.0620386212558515
 20
144.7190575806328923
 30
0.0
 40
0.0390760286762862
 50
359.5685645667480799
 51
90.1787083257335951
  0
ARC
  5
27E30
  8
0
 10
3254.199834797422227
 20
144.600949524061491
 30
0.0
 40
0.0987216913767514
 50
180.1701646682768967
 51
269.9287410832587284
  0
LINE
  5
27E31
  8
0
 10
3254.1997120170181006
 20
144.5022279090360087
 30
0.0
 11
3254.554042725716954
 21
144.5022279090360087
 31
0.0
  0
ARC
  5
27E32
  8
0
 10
3254.5540427152518532
 20
144.4825428441274084
 30
0.0
 40
0.0196850649085746
 50
359.9289328089819264
 51
89.9999695374407054
  0
LINE
  5
27E33
  8
0
 10
3254.573727765017793
 20
144.4825184276359948
 30
0.0
 11
3254.5737277651178374
 21
143.2620704287359956
 31
0.0
  0
ARC
  5
27E34
  8
0
 10
3254.554042725716954
 20
143.2620704287359956
 30
0.0
 40
0.0196850394000023
 50
270.0
 51
359.9999999999772058
  0
LINE
  5
27E35
  8
0
 10
3254.554042725716954
 20
143.2423853893359933
 30
0.0
 11
3254.1997120170181006
 21
143.2423853893359933
 31
0.0
  0
ARC
  5
27E36
  8
0
 10
3254.1997120169949085
 20
143.1439601924577971
 30
0.0
 40
0.0984251968781358
 50
89.9999999872590593
 51
179.9999999545142941
  0
LINE
  5
27E37
  8
0
 10
3253.9867429911701038
 20
142.9864798759286089
 30
0.0
 11
3254.0619167413410651
 21
142.9864798759286089
 31
0.0
  0
ARC
  5
27E38
  8
0
 10
3254.0616193323971856
 20
143.0259731480591938
 30
0.0
 40
0.0394943919519613
 50
270.4314647581257987
 51
359.821281386130579
  0
LINE
  5
27E39
  8
0
 10
3254.1011135322169139
 20
143.0258499562359873
 30
0.0
 11
3254.1011135355352053
 21
143.5927790901359913
 31
0.0
  0
LINE
  5
27E3A
  8
0
 10
3254.101113538806203
 20
144.1518342082360107
 30
0.0
 11
3254.1011135421240397
 21
144.7187633420589918
 31
0.0
  0
LINE
  5
27E3B
  8
0
 10
3254.0930720688179463
 20
143.5927790901359913
 30
0.0
 11
3254.2778026012178998
 21
143.5927790901359913
 31
0.0
  0
ARC
  5
27E3C
  8
0
 10
3254.2778026012178998
 20
143.6006531058359883
 30
0.0
 40
0.007874015699997
 50
270.0
 51
0.0000007276783422
  0
LINE
  5
27E3D
  8
0
 10
3254.2856766169170442
 20
143.6006531059360043
 30
0.0
 11
3254.2856766100171626
 21
144.1439601829360129
 31
0.0
  0
ARC
  5
27E3E
  8
0
 10
3254.277802584616893
 20
144.1439601828359969
 30
0.0
 40
0.0078740254000209
 50
0.0000007276815991
 51
89.9998792074437688
  0
LINE
  5
27E3F
  8
0
 10
3254.2778026012178998
 20
144.1518342082360107
 30
0.0
 11
3254.0930697550288642
 21
144.1518342082360107
 31
0.0
  0
ARC
  5
27E40
  8
0
 10
3253.4698898684177948
 20
144.1359983155541045
 30
0.0
 40
0.6250460024065715
 50
1.4517762017857461
 51
2.4713165942849531
  0
ARC
  5
27E41
  8
0
 10
3254.0152270213661723
 20
144.159534728769188
 30
0.0
 40
0.07920117726686
 50
2.4713165942849531
 51
4.983719679279484
  0
ARC
  5
27E42
  8
0
 10
3254.084990335258226
 20
144.1656182537201971
 30
0.0
 40
0.0091731168829463
 50
4.9837196792827276
 51
11.3984718240522191
  0
ARC
  5
27E43
  8
0
 10
3254.0935890012219716
 20
144.1673518102437015
 30
0.0
 40
0.0004014423240039
 50
11.3984718242329706
 51
32.586483893130783
  0
ARC
  5
27E44
  8
0
 10
3254.0939000383568782
 20
144.1675506234226987
 30
0.0
 40
0.0000322936009541
 50
32.5864838983039817
 51
145.0956699071487037
  0
ARC
  5
27E45
  8
0
 10
3254.0940883626149116
 20
144.1674192254405966
 30
0.0
 40
0.0002619269084332
 50
145.0956699075215965
 51
163.7522105416504132
  0
ARC
  5
27E46
  8
0
 10
3254.0972743243551122
 20
144.1664907356372112
 30
0.0
 40
0.0035804274012761
 50
163.7522105416472016
 51
176.8499143680554937
  0
ARC
  5
27E47
  8
0
 10
3254.1735859955988417
 20
144.1593317479517111
 30
0.0
 40
0.0802246216025586
 50
174.7392021454531914
 51
177.7280353787307092
  0
ARC
  5
27E48
  8
0
 10
3254.6557757213959121
 20
144.138487863485409
 30
0.0
 40
0.5628642194212539
 50
177.5537534946321045
 51
178.6413048233607128
  0
ARC
  5
27E49
  8
0
 10
3265.2563774939080758
 20
143.9637953802190111
 30
0.0
 40
11.1648913238670602
 50
179.0349802502182968
 51
179.9240140200246003
  0
ARC
  5
27E4A
  8
0
 10
3279.2827746257480612
 20
143.8756173309213011
 30
0.0
 40
25.1914891438279192
 50
179.7657692472106135
 51
180.591620058384791
  0
ARC
  5
27E4B
  8
0
 10
3255.5430171189468638
 20
143.6331896165008004
 30
0.0
 40
1.4504965351434529
 50
180.6987025881664977
 51
182.0039126675686134
  0
ARC
  5
27E4C
  8
0
 10
3254.1374114522068339
 20
143.5830270036759941
 30
0.0
 40
0.0440073423385397
 50
180.7264850585185059
 51
186.4358289851195991
  0
ARC
  5
27E4D
  8
0
 10
3254.1098385069099095
 20
143.5799167418608135
 30
0.0
 40
0.0162595308765456
 50
186.4358289851195991
 51
189.3353348514604875
  0
ARC
  5
27E4E
  8
0
 10
3254.0946398766550374
 20
143.5774182452435923
 30
0.0
 40
0.0008569061986884
 50
189.3353348515007042
 51
203.5079539345395006
  0
ARC
  5
27E4F
  8
0
 10
3254.0939806099618181
 20
143.5771314790966073
 30
0.0
 40
0.0001379712953744
 50
203.5079539348498088
 51
220.1771095145954007
  0
ARC
  5
27E50
  8
0
 10
3254.093899986381075
 20
143.5770634020821035
 30
0.0
 40
0.0000324504832925
 50
220.1771095119381982
 51
321.8848528380622156
  0
ARC
  5
27E51
  8
0
 10
3254.0933138690811575
 20
143.5773791603459131
 30
0.0
 40
0.0006977588874431
 50
331.2337077170304269
 51
349.9707346904389738
  0
ARC
  5
27E52
  8
0
 10
3254.0299522679511028
 20
143.5847617679835082
 30
0.0
 40
0.0644868011122873
 50
353.3175333173836066
 51
358.4120366096883004
  0
ARC
  5
27E53
  8
0
 10
3253.4857115486670409
 20
143.6074856031893887
 30
0.0
 40
0.6091960492886745
 50
357.6940943604076892
 51
358.6166965533016082
  0
LINE
  5
27E54
  8
0
 10
3254.573727765017793
 20
144.289629483835995
 30
0.0
 11
3254.5796332768181855
 21
144.2955349956359896
 31
0.0
  0
LINE
  5
27E55
  8
0
 10
3254.5796332768181855
 20
144.2955349956359896
 30
0.0
 11
3254.6327828831172155
 21
144.2955349956359896
 31
0.0
  0
LINE
  5
27E56
  8
0
 10
3254.573727765017793
 20
143.454983814536007
 30
0.0
 11
3254.5796332768181855
 21
143.4490783027360123
 31
0.0
  0
LINE
  5
27E57
  8
0
 10
3254.5796332768181855
 20
143.4490783027360123
 30
0.0
 11
3254.6327828831172155
 21
143.4490783027360123
 31
0.0
  0
LINE
  5
27E58
  8
0
 10
3254.5796332768181855
 20
143.4490783027360123
 30
0.0
 11
3254.5796332768181855
 21
144.2955349956359896
 31
0.0
  0
LINE
  5
27E59
  8
0
 10
3254.6327828831172155
 20
144.4628578303359916
 30
0.0
 11
3254.6327828831172155
 21
143.2817554681359979
 31
0.0
  0
LINE
  5
27E5A
  8
0
 10
3254.6327828831172155
 20
143.2817554681359979
 30
0.0
 11
3255.0461687099168557
 21
143.2817554681359979
 31
0.0
  0
LINE
  5
27E5B
  8
0
 10
3255.0461687099168557
 20
143.2817554681359979
 30
0.0
 11
3255.0874635481168298
 21
143.2325428697359939
 31
0.0
  0
LINE
  5
27E5C
  8
0
 10
3255.0874635481168298
 20
143.2325428697359939
 30
0.0
 11
3255.2823891823181839
 21
143.2325428697359939
 31
0.0
  0
LINE
  5
27E5D
  8
0
 10
3255.2823891824177736
 20
142.8483425236360063
 30
0.0
 11
3255.2823891823181839
 21
144.8962707748360117
 31
0.0
  0
ARC
  5
27E5E
  8
0
 10
3255.3217592610071733
 20
144.8962707748378875
 30
0.0
 40
0.0393700786891671
 50
90.4999998371409333
 51
180.0000000028024942
  0
LINE
  5
27E5F
  8
0
 10
3255.3214156967292183
 20
144.9356393544360913
 30
0.0
 11
3256.4634915446449668
 21
144.9456060977285858
 31
0.0
  0
LINE
  5
27E60
  8
0
 10
3256.4634915446449668
 20
144.9456060977285858
 30
0.0
 11
3256.4634915446172272
 21
142.7990071975690967
 31
0.0
  0
LINE
  5
27E61
  8
0
 10
3256.4634915446172272
 20
142.7990071975690967
 30
0.0
 11
3255.3214156967260351
 21
142.8089739440358983
 31
0.0
  0
ARC
  5
27E62
  8
0
 10
3255.3217592611181317
 20
142.8483425236439928
 30
0.0
 40
0.0393700787000744
 50
180.0000000116727108
 51
269.4999999965689881
  0
LINE
  5
27E63
  8
0
 10
3254.6327828831172155
 20
144.4628578303359916
 30
0.0
 11
3255.0461687099168557
 21
144.4628578303359916
 31
0.0
  0
LINE
  5
27E64
  8
0
 10
3255.0461687099168557
 20
144.4628578303359916
 30
0.0
 11
3255.0874629831168932
 21
144.5120704287359956
 31
0.0
  0
LINE
  5
27E65
  8
0
 10
3255.0874629831168932
 20
144.5120704287359956
 30
0.0
 11
3255.2823891823368285
 21
144.5120704287454885
 31
0.0
  0
ARC
  5
27E66
  8
0
 10
3251.9948923303331867
 20
144.6993463324022002
 30
0.0
 40
0.0587871640352181
 50
89.9071397709766842
 51
180.2612309281954879
  0
LINE
  5
27E67
  8
0
 10
3251.9361057773180619
 20
144.6990783026737972
 30
0.0
 11
3251.9361057773180619
 21
144.6203389636361862
 31
0.0
  0
ARC
  5
27E68
  8
0
 10
3251.9945057704439932
 20
144.6198563148645064
 30
0.0
 40
0.0584019875263708
 50
179.5264878204961008
 51
270.4727159266377043
  0
LINE
  5
27E69
  8
0
 10
3251.9949876076179862
 20
144.561456315035997
 30
0.0
 11
3252.132782883118125
 21
144.561456315035997
 31
0.0
  0
ARC
  5
27E6A
  8
0
 10
3252.1322654876698834
 20
144.3640889047472911
 30
0.0
 40
0.1973680884594049
 50
0.0997841812726454
 51
89.8498003926033704
  0
ARC
  5
27FDE
  8
0
 10
3253.3282876197558835
 20
164.799618781390194
 30
0.0
 40
0.0214043030237249
 50
182.1810728957524077
 51
265.9611597656660251
  0
LINE
  5
27FDF
  8
0
 10
3253.3068988232321317
 20
164.7988041826286008
 30
0.0
 11
3253.3067743373940175
 21
164.8020564692785115
 31
0.0
  0
ARC
  5
27FE0
  8
0
 10
3254.0746949610470438
 20
164.7993992561615926
 30
0.0
 40
0.0211847106711359
 50
274.0571623989891918
 51
358.3903633248980896
  0
LINE
  5
27FE1
  8
0
 10
3254.0958713123318375
 20
164.7988041826286008
 30
0.0
 11
3254.0959957980699073
 21
164.8020564692785115
 31
0.0
  0
LINE
  5
27FE2
  8
0
 10
3251.9949876076320834
 20
144.7581334192286135
 30
0.0
 11
3253.4158644097938122
 21
144.7581334192344968
 31
0.0
  0
ARC
  5
27FE3
  8
0
 10
3252.7709318772058396
 20
142.691197889811292
 30
0.0
 40
0.007892538672423
 50
93.1766395868308877
 51
182.3339214450303984
  0
LINE
  5
27FE4
  8
0
 10
3253.415876356489207
 20
142.6990783011285941
 30
0.0
 11
3252.7430193646318912
 21
142.6990783011287078
 31
0.0
  0
LINE
  5
27FE5
  8
0
 10
3252.7430193646318912
 20
142.6990783011287078
 30
0.0
 11
3252.7430193646318912
 21
142.9864807417285135
 31
0.0
  0
ENDSEC
  0
EOF
