  0
SECTION
  2
HEADER
  9
$ACADVER
  1
AC1009
  9
$INSBASE
 10
3090.2321773455068978
 20
137.4134323230281893
 30
0.0
  9
$EXTMIN
 10
3080.6159138478401474
 20
136.9510934968679123
 30
-0.0000000000112498
  9
$EXTMAX
 10
3099.7742635423060165
 20
137.4235651621891918
 30
0.0000000000002956
  9
$LIMMIN
 10
0.0
 20
0.0
  9
$LIMMAX
 10
11.6929133858000007
 20
8.2677165353999982
  9
$ORTHOMODE
 70
     0
  9
$REGENMODE
 70
     1
  9
$FILLMODE
 70
     1
  9
$QTEXTMODE
 70
     0
  9
$MIRRTEXT
 70
     0
  9
$DRAGMODE
 70
     2
  9
$LTSCALE
 40
0.6431102362
  9
$OSMODE
 70
   575
  9
$ATTMODE
 70
     1
  9
$TEXTSIZE
 40
0.2
  9
$TRACEWID
 40
0.05
  9
$TEXTSTYLE
  7
STANDARD
  9
$CLAYER
  8
0
  9
$CELTYPE
  6
BYLAYER
  9
$CECOLOR
 62
   256
  9
$DIMSCALE
 40
1.0
  9
$DIMASZ
 40
0.1875
  9
$DIMEXO
 40
0.0625
  9
$DIMDLI
 40
0.4443307087
  9
$DIMRND
 40
0.0
  9
$DIMDLE
 40
0.0
  9
$DIMEXE
 40
0.125
  9
$DIMTP
 40
0.01
  9
$DIMTM
 40
0.01
  9
$DIMTXT
 40
2.0
  9
$DIMCEN
 40
0.1052362205
  9
$DIMTSZ
 40
0.0
  9
$DIMTOL
 70
     1
  9
$DIMLIM
 70
     0
  9
$DIMTIH
 70
     1
  9
$DIMTOH
 70
     1
  9
$DIMSE1
 70
     0
  9
$DIMSE2
 70
     0
  9
$DIMTAD
 70
     0
  9
$DIMZIN
 70
     0
  9
$DIMBLK
  1

  9
$DIMASO
 70
     1
  9
$DIMSHO
 70
     1
  9
$DIMPOST
  1
\X
  9
$DIMAPOST
  1

  9
$DIMALT
 70
     1
  9
$DIMALTD
 70
     2
  9
$DIMALTF
 40
25.3999999999999986
  9
$DIMLFAC
 40
1.0
  9
$DIMTOFL
 70
     0
  9
$DIMTVP
 40
0.0
  9
$DIMTIX
 70
     0
  9
$DIMSOXD
 70
     0
  9
$DIMSAH
 70
     0
  9
$DIMBLK1
  1

  9
$DIMBLK2
  1

  9
$DIMSTYLE
  2
STANDARD
  9
$DIMCLRD
 70
     0
  9
$DIMCLRE
 70
     0
  9
$DIMCLRT
 70
     0
  9
$DIMTFAC
 40
1.0
  9
$DIMGAP
 40
0.09
  9
$LUNITS
 70
     2
  9
$LUPREC
 70
     4
  9
$SKETCHINC
 40
0.1
  9
$FILLETRAD
 40
0.0
  9
$AUNITS
 70
     0
  9
$AUPREC
 70
     0
  9
$MENU
  1
.
  9
$ELEVATION
 40
0.0
  9
$PELEVATION
 40
0.0
  9
$THICKNESS
 40
0.0
  9
$LIMCHECK
 70
     0
  9
$BLIPMODE
 70
     0
  9
$CHAMFERA
 40
0.0
  9
$CHAMFERB
 40
0.0
  9
$SKPOLY
 70
     0
  9
$TDCREATE
 40
2458060.468368056230247
  9
$TDUPDATE
 40
2459542.0671412041410804
  9
$TDINDWG
 40
0.6667547454
  9
$TDUSRTIMER
 40
0.6667547454
  9
$USRTIMER
 70
     1
  9
$ANGBASE
 50
0.0
  9
$ANGDIR
 70
     0
  9
$PDMODE
 70
     0
  9
$PDSIZE
 40
0.3125
  9
$PLINEWID
 40
0.0
  9
$COORDS
 70
     1
  9
$SPLFRAME
 70
     0
  9
$SPLINETYPE
 70
     6
  9
$SPLINESEGS
 70
     8
  9
$ATTDIA
 70
     1
  9
$ATTREQ
 70
     1
  9
$HANDLING
 70
     1
  9
$HANDSEED
  5
2F358
  9
$SURFTAB1
 70
     6
  9
$SURFTAB2
 70
     6
  9
$SURFTYPE
 70
     6
  9
$SURFU
 70
     6
  9
$SURFV
 70
     6
  9
$UCSNAME
  2

  9
$UCSORG
 10
0.0
 20
0.0
 30
0.0
  9
$UCSXDIR
 10
1.0
 20
0.0
 30
0.0
  9
$UCSYDIR
 10
0.0
 20
1.0
 30
0.0
  9
$PUCSNAME
  2

  9
$PUCSORG
 10
0.0
 20
0.0
 30
0.0
  9
$PUCSXDIR
 10
1.0
 20
0.0
 30
0.0
  9
$PUCSYDIR
 10
0.0
 20
1.0
 30
0.0
  9
$USERI1
 70
     0
  9
$USERI2
 70
     0
  9
$USERI3
 70
     0
  9
$USERI4
 70
     0
  9
$USERI5
 70
     0
  9
$USERR1
 40
0.0
  9
$USERR2
 40
0.0
  9
$USERR3
 40
0.0
  9
$USERR4
 40
0.0
  9
$USERR5
 40
0.0
  9
$WORLDVIEW
 70
     1
  9
$SHADEDGE
 70
     3
  9
$SHADEDIF
 70
    70
  9
$TILEMODE
 70
     1
  9
$MAXACTVP
 70
    64
  9
$PLIMCHECK
 70
     0
  9
$PEXTMIN
 10
1.0000000000000000E+20
 20
1.0000000000000000E+20
 30
1.0000000000000000E+20
  9
$PEXTMAX
 10
-1.0000000000000000E+20
 20
-1.0000000000000000E+20
 30
-1.0000000000000000E+20
  9
$PLIMMIN
 10
0.0
 20
0.0
  9
$PLIMMAX
 10
12.0
 20
9.0
  9
$UNITMODE
 70
     0
  9
$VISRETAIN
 70
     1
  9
$PLINEGEN
 70
     0
  9
$PSLTSCALE
 70
     1
  0
ENDSEC
  0
SECTION
  2
TABLES
  0
TABLE
  2
VPORT
 70
     1
  0
VPORT
  2
*ACTIVE
 70
     0
 10
0.0
 20
0.0
 11
1.0
 21
1.0
 12
-213.4980266164826901
 22
-58.0741822836892325
 13
0.0
 23
0.0
 14
1.0
 24
1.0
 15
0.0
 25
0.0
 16
0.0
 26
0.0
 36
96.5995694866707311
 17
3303.693115234375
 27
195.2615115758877096
 37
0.0
 40
9.0115486236041562
 41
2.7531083481349912
 42
50.0
 43
0.0
 44
0.0
 50
0.0
 51
0.0
 71
     0
 72
   100
 73
     1
 74
     1
 75
     0
 76
     0
 77
     0
 78
     0
  0
ENDTAB
  0
TABLE
  2
LTYPE
 70
     2
  0
LTYPE
  2
CONTINUOUS
 70
     0
  3
Solid line
 72
    65
 73
     0
 40
0.0
  0
LTYPE
  2
PHANTOM2
 70
     0
  3
___ _ _ ___ _ _ ___ _ _ ___ _ _
 72
    65
 73
     6
 40
1.25
 49
0.625
 49
-0.125
 49
0.125
 49
-0.125
 49
0.125
 49
-0.125
  0
ENDTAB
  0
TABLE
  2
LAYER
 70
     2
  0
LAYER
  2
0
 70
     0
 62
   255
  6
CONTINUOUS
  0
LAYER
  2
DEFPOINTS
 70
     0
 62
     7
  6
CONTINUOUS
  0
ENDTAB
  0
TABLE
  2
STYLE
 70
     1
  0
STYLE
  2
STANDARD
 70
     0
 40
0.0
 41
0.8
 50
0.0
 71
     0
 42
0.2
  3
txt
  4

  0
ENDTAB
  0
TABLE
  2
VIEW
 70
     0
  0
ENDTAB
  0
TABLE
  2
UCS
 70
     0
  0
ENDTAB
  0
TABLE
  2
APPID
 70
     9
  0
APPID
  2
ACAD
 70
     0
  0
APPID
  2
ACAD_MLEADERVER
 70
     0
  0
APPID
  2
ACAD_EXEMPT_FROM_CAD_STANDARDS
 70
     0
  0
APPID
  2
ACAD_NAV_VCDISPLAY
 70
     0
  0
APPID
  2
ACAECLAYERSTANDARD
 70
     0
  0
APPID
  2
ACCMTRANSPARENCY
 70
     0
  0
APPID
  2
ACAD_DSTYLE_DIMJAG
 70
     0
  0
APPID
  2
ACAD_DSTYLE_DIMTALN
 70
     0
  0
APPID
  2
ACDBATTR
 70
     0
  0
ENDTAB
  0
TABLE
  2
DIMSTYLE
 70
     1
  0
DIMSTYLE
  2
STANDARD
 70
     0
  3

  4

  5

  6

  7

 40
1.0
 41
0.1875
 42
0.0625
 43
0.38
 44
0.125
 45
0.0
 46
0.0
 47
0.01
 48
0.01
140
0.15625
141
0.09
142
0.0
143
25.3999999999999986
144
1.0
145
0.0
146
1.0
147
0.09
 71
     1
 72
     0
 73
     1
 74
     1
 75
     0
 76
     0
 77
     0
 78
     4
170
     0
171
     2
172
     0
173
     0
174
     0
175
     0
176
     0
177
     0
178
     0
  0
ENDTAB
  0
ENDSEC
  0
SECTION
  2
BLOCKS
  0
BLOCK
  8
0
  2
$MODEL_SPACE
 70
     0
 10
0.0
 20
0.0
 30
0.0
  3
$MODEL_SPACE
  1

  0
ENDBLK
  5
21
  8
0
  0
BLOCK
 67
     1
  8
0
  2
$PAPER_SPACE
 70
     0
 10
0.0
 20
0.0
 30
0.0
  3
$PAPER_SPACE
  1

  0
ENDBLK
  5
1D
 67
     1
  8
0
  0
ENDSEC
  0
SECTION
  2
ENTITIES
  0
ATTDEF
  5
28FC7
  8
DEFPOINTS
 10
3090.2321432179887779
 20
137.4169381094127971
 30
0.0
 40
0.001
  1
K-76728GL
  3

  2
MODELNUMBER
 70
     0
1001
ACDBATTR
1070
     0
1070
     1
  0
ATTDEF
  5
28FC8
  8
DEFPOINTS
 10
3090.2321432179887779
 20
137.4152714427461888
 30
0.0
 40
0.001
  1
REAL RAIN 
  3

  2
TRADENAME
 70
     0
1001
ACDBATTR
1070
     0
1070
     1
  0
ATTDEF
  5
28FC9
  8
DEFPOINTS
 10
3090.2321432179887779
 20
137.4136047760794952
 30
0.0
 40
0.001
  1
OVERHEAD SHOWER PANEL
  3

  2
PRODUCT
 70
     0
1001
ACDBATTR
1070
     0
1070
     1
  0
LINE
  5
2F0AE
  8
0
 10
3080.8521773455067887
 20
137.1534323230281984
 30
0.0
 11
3080.8521773455067887
 21
137.1784323230282041
 31
0.0
  0
LINE
  5
2F0AF
  8
0
 10
3080.7743683412068094
 20
137.1784323230282041
 30
0.0
 11
3080.7421773455071161
 21
137.4134323230281893
 31
0.0
  0
LINE
  5
2F0B0
  8
0
 10
3080.8721773455072253
 20
137.1334323230281882
 30
0.0
 11
3099.5921773455070252
 21
137.1334323230281882
 31
0.0
  0
LINE
  5
2F0B1
  8
0
 10
3080.7743683412068094
 20
137.1784323230282041
 30
0.0
 11
3099.6899863497069418
 21
137.1784323230282041
 31
0.0
  0
LINE
  5
2F0B2
  8
0
 10
3099.7221773455071343
 20
137.4134323230281893
 30
0.0
 11
3080.7421773455071161
 21
137.4134323230281893
 31
0.0
  0
LINE
  5
2F0B3
  8
0
 10
3099.612177345507007
 20
137.1784323230282041
 30
0.0
 11
3099.612177345507007
 21
137.1534323230281984
 31
0.0
  0
LINE
  5
2F0B4
  8
0
 10
3099.7221773455071343
 20
137.4134323230281893
 30
0.0
 11
3099.6899863497069418
 21
137.1784323230282041
 31
0.0
  0
ARC
  5
2F0B5
  8
0
 10
3080.8721773455072253
 20
137.1534323230281984
 30
0.0
 40
0.02
 50
180.0
 51
270.0
  0
ARC
  5
2F0B6
  8
0
 10
3099.5921773455070252
 20
137.1534323230281984
 30
0.0
 40
0.02
 50
270.0
 51
0.0
  0
LINE
  5
2F0B7
  8
0
 10
3097.9212970781068179
 20
136.9584323230282052
 30
0.0
 11
3097.9182970781071162
 21
136.9815310435280935
 31
0.0
  0
LINE
  5
2F0B8
  8
0
 10
3098.1752970781071781
 20
136.9584323230282052
 30
0.0
 11
3098.1787841761351956
 21
136.9859384611449116
 31
0.0
  0
LINE
  5
2F0B9
  8
0
 10
3098.145297078106978
 20
136.9584323230282052
 30
0.0
 11
3098.1482970781080439
 21
136.9815310435280935
 31
0.0
  0
LINE
  5
2F0BA
  8
0
 10
3098.2432970781069344
 20
136.9584323230282052
 30
0.0
 11
3098.2682970781070253
 21
137.0517335932281924
 31
0.0
  0
LINE
  5
2F0BB
  8
0
 10
3097.8582970781071708
 20
136.9584323230282052
 30
0.0
 11
3097.8521762180071164
 21
136.9984323230281973
 31
0.0
  0
LINE
  5
2F0BC
  8
0
 10
3097.2071773490069972
 20
136.9584323230282052
 30
0.0
 11
3097.2010564889069428
 21
136.9984323230281973
 31
0.0
  0
LINE
  5
2F0BD
  8
0
 10
3097.7482970781070435
 20
136.9584323230282052
 30
0.0
 11
3097.7544179382070979
 21
136.9984323230281973
 31
0.0
  0
LINE
  5
2F0BE
  8
0
 10
3097.5171773490069427
 20
136.9584323230282052
 30
0.0
 11
3097.5232982091069971
 21
136.9984323230281973
 31
0.0
  0
LINE
  5
2F0BF
  8
0
 10
3097.5891773490079686
 20
136.9584323230282052
 30
0.0
 11
3097.6141773490080595
 21
137.0517335932281924
 31
0.0
  0
LINE
  5
2F0C0
  8
0
 10
3096.8521773490069791
 20
136.9584323230282052
 30
0.0
 11
3096.8271773490068881
 21
137.0517335932281924
 31
0.0
  0
LINE
  5
2F0C1
  8
0
 10
3096.9101773490069718
 20
136.9584323230282052
 30
0.0
 11
3096.9071773490068153
 21
136.9815310435280935
 31
0.0
  0
LINE
  5
2F0C2
  8
0
 10
3096.7371773490071973
 20
136.9584323230282052
 30
0.0
 11
3096.743298209106797
 21
136.9984323230281973
 31
0.0
  0
LINE
  5
2F0C3
  8
0
 10
3097.0621773490070154
 20
136.9584323230282052
 30
0.0
 11
3097.0871773490071064
 21
137.0517335932281924
 31
0.0
  0
LINE
  5
2F0C4
  8
0
 10
3096.7621773490068335
 20
136.9584323230282052
 30
0.0
 11
3096.7871773490069245
 21
137.0517335932281924
 31
0.0
  0
LINE
  5
2F0C5
  8
0
 10
3096.4271773490067972
 20
136.9584323230282052
 30
0.0
 11
3096.4210564889071975
 21
136.9984323230281973
 31
0.0
  0
LINE
  5
2F0C6
  8
0
 10
3096.1971773490081432
 20
136.9584323230282052
 30
0.0
 11
3096.2032982091068334
 21
136.9984323230281973
 31
0.0
  0
LINE
  5
2F0C7
  8
0
 10
3096.12717734900707
 20
136.9584323230282052
 30
0.0
 11
3096.1332982091071244
 21
136.9984323230281973
 31
0.0
  0
LINE
  5
2F0C8
  8
0
 10
3096.0681773490068736
 20
136.9584323230282052
 30
0.0
 11
3096.0931773490069645
 21
137.0517335932281924
 31
0.0
  0
LINE
  5
2F0C9
  8
0
 10
3095.9281773490070009
 20
136.9584323230282052
 30
0.0
 11
3095.9031773490069099
 21
137.0517335932281924
 31
0.0
  0
LINE
  5
2F0CA
  8
0
 10
3095.8171773490071246
 20
136.9584323230282052
 30
0.0
 11
3095.8110564889070702
 21
136.9984323230281973
 31
0.0
  0
LINE
  5
2F0CB
  8
0
 10
3095.6571773490068153
 20
136.9584323230282052
 30
0.0
 11
3095.6510564889072157
 21
136.9984323230281973
 31
0.0
  0
LINE
  5
2F0CC
  8
0
 10
3095.6901773490080814
 20
136.9584323230282052
 30
0.0
 11
3095.6844979173411048
 21
137.0021615245834141
 31
0.0
  0
LINE
  5
2F0CD
  8
0
 10
3095.5541773490072046
 20
136.9584323230282052
 30
0.0
 11
3095.5571773490069063
 21
136.9815310435280935
 31
0.0
  0
LINE
  5
2F0CE
  8
0
 10
3095.6071773490070882
 20
136.9584323230282052
 30
0.0
 11
3095.6132982091071426
 21
136.9984323230281973
 31
0.0
  0
LINE
  5
2F0CF
  8
0
 10
3095.152177349007161
 20
136.9584323230282052
 30
0.0
 11
3095.12717734900707
 21
137.0517335932281924
 31
0.0
  0
LINE
  5
2F0D0
  8
0
 10
3094.9021773490080705
 20
136.9584323230282052
 30
0.0
 11
3094.87717734900707
 21
137.0517335932281924
 31
0.0
  0
LINE
  5
2F0D1
  8
0
 10
3095.2171773490072155
 20
136.9584323230282052
 30
0.0
 11
3095.2110564889071611
 21
136.9984323230281973
 31
0.0
  0
LINE
  5
2F0D2
  8
0
 10
3095.0421773490070336
 20
136.9584323230282052
 30
0.0
 11
3095.0671773490071246
 21
137.0517335932281924
 31
0.0
  0
LINE
  5
2F0D3
  8
0
 10
3094.822177349006779
 20
136.9584323230282052
 30
0.0
 11
3094.8471773490068699
 21
137.0517335932281924
 31
0.0
  0
LINE
  5
2F0D4
  8
0
 10
3094.6821773490069063
 20
136.9584323230282052
 30
0.0
 11
3094.6571771684070882
 21
137.0517342812281925
 31
0.0
  0
LINE
  5
2F0D5
  8
0
 10
3094.4221773490071428
 20
136.9584323230282052
 30
0.0
 11
3094.3971773490070518
 21
137.0517335932281924
 31
0.0
  0
LINE
  5
2F0D6
  8
0
 10
3094.3621773490071973
 20
136.9584323230282052
 30
0.0
 11
3094.3521773490101623
 21
136.9957528311182102
 31
0.0
  0
LINE
  5
2F0D7
  8
0
 10
3094.4371773490079249
 20
136.9584323230282052
 30
0.0
 11
3094.431056488906961
 21
136.9984323230281973
 31
0.0
  0
LINE
  5
2F0D8
  8
0
 10
3094.0601773490070627
 20
136.9584323230282052
 30
0.0
 11
3094.0571773490069063
 21
136.9815310435280935
 31
0.0
  0
LINE
  5
2F0D9
  8
0
 10
3094.2841773490072228
 20
136.9584323230282052
 30
0.0
 11
3094.2871890051069386
 21
136.9816226384282061
 31
0.0
  0
LINE
  5
2F0DA
  8
0
 10
3094.342177349008125
 20
136.9584323230282052
 30
0.0
 11
3094.3671773490068517
 21
137.0517335932281924
 31
0.0
  0
LINE
  5
2F0DB
  8
0
 10
3093.5421773490070336
 20
136.9584323230282052
 30
0.0
 11
3093.5171773490069427
 21
137.0517335932281924
 31
0.0
  0
LINE
  5
2F0DC
  8
0
 10
3093.8271773490068881
 20
136.9584323230282052
 30
0.0
 11
3093.8180899288881847
 21
137.0178188796290044
 31
0.0
  0
LINE
  5
2F0DD
  8
0
 10
3093.4471773490081432
 20
136.9584323230282052
 30
0.0
 11
3093.4532982091068334
 21
136.9984323230281973
 31
0.0
  0
LINE
  5
2F0DE
  8
0
 10
3093.8021773490081614
 20
136.9584323230282052
 30
0.0
 11
3093.8271773490068881
 21
137.0517335932281924
 31
0.0
  0
LINE
  5
2F0DF
  8
0
 10
3093.6821773490069063
 20
136.9584323230282052
 30
0.0
 11
3093.7071773490069972
 21
137.0517335932281924
 31
0.0
  0
LINE
  5
2F0E0
  8
0
 10
3093.4621773490071064
 20
136.9584323230282052
 30
0.0
 11
3093.4871773490081068
 21
137.0517335932281924
 31
0.0
  0
LINE
  5
2F0E1
  8
0
 10
3093.4221773490071428
 20
136.9584323230282052
 30
0.0
 11
3093.4471773490081432
 21
137.0517335932281924
 31
0.0
  0
LINE
  5
2F0E2
  8
0
 10
3093.2821773490068153
 20
136.9584323230282052
 30
0.0
 11
3093.2571773490071791
 21
137.0517335932281924
 31
0.0
  0
LINE
  5
2F0E3
  8
0
 10
3092.8971773490070518
 20
136.9584323230282052
 30
0.0
 11
3092.8910564889069974
 21
136.9984323230281973
 31
0.0
  0
LINE
  5
2F0E4
  8
0
 10
3093.2071773490069972
 20
136.9584323230282052
 30
0.0
 11
3093.2132982091079612
 21
136.9984323230281973
 31
0.0
  0
LINE
  5
2F0E5
  8
0
 10
3092.4421773490071246
 20
136.9584323230282052
 30
0.0
 11
3092.4171773490070336
 21
137.0517335932281924
 31
0.0
  0
LINE
  5
2F0E6
  8
0
 10
3092.6701773490071901
 20
136.9584323230282052
 30
0.0
 11
3092.6663284324658889
 21
136.9897572912493047
 31
0.0
  0
LINE
  5
2F0E7
  8
0
 10
3092.3301773490070445
 20
136.9584323230282052
 30
0.0
 11
3092.327165692906874
 21
136.9816226384282061
 31
0.0
  0
LINE
  5
2F0E8
  8
0
 10
3092.3167914220070998
 20
136.9584323230282052
 30
0.0
 11
3092.3137914220069433
 21
136.9815310435280935
 31
0.0
  0
LINE
  5
2F0E9
  8
0
 10
3092.0141773490067862
 20
136.9584323230282052
 30
0.0
 11
3092.0171773490069427
 21
136.9815310435280935
 31
0.0
  0
LINE
  5
2F0EA
  8
0
 10
3092.2974815320071684
 20
136.9584323230282052
 30
0.0
 11
3092.3045438339891007
 21
137.0045846732982966
 31
0.0
  0
LINE
  5
2F0EB
  8
0
 10
3092.5821773490069972
 20
136.9584323230282052
 30
0.0
 11
3092.6071773490079977
 21
137.0517335932281924
 31
0.0
  0
LINE
  5
2F0EC
  8
0
 10
3092.2921773490070336
 20
136.9584323230282052
 30
0.0
 11
3092.3171773490071246
 21
137.0517335932281924
 31
0.0
  0
LINE
  5
2F0ED
  8
0
 10
3092.1921773490071246
 20
136.9584323230282052
 30
0.0
 11
3092.217177349008125
 21
137.0517335932281924
 31
0.0
  0
LINE
  5
2F0EE
  8
0
 10
3092.0521773490067972
 20
136.9584323230282052
 30
0.0
 11
3092.027177168406979
 21
137.0517342812281925
 31
0.0
  0
LINE
  5
2F0EF
  8
0
 10
3091.8321773490069972
 20
136.9584323230282052
 30
0.0
 11
3091.8071773490069063
 21
137.0517335932281924
 31
0.0
  0
LINE
  5
2F0F0
  8
0
 10
3091.7371773490071973
 20
136.9584323230282052
 30
0.0
 11
3091.7432982091081612
 21
136.9984323230281973
 31
0.0
  0
LINE
  5
2F0F1
  8
0
 10
3091.9721773490068699
 20
136.9584323230282052
 30
0.0
 11
3091.9971773490069609
 21
137.0517335932281924
 31
0.0
  0
LINE
  5
2F0F2
  8
0
 10
3091.822177349006779
 20
136.9584323230282052
 30
0.0
 11
3091.8271773490118903
 21
136.9770925770480972
 31
0.0
  0
LINE
  5
2F0F3
  8
0
 10
3090.9921773490068517
 20
136.9584323230282052
 30
0.0
 11
3090.9671773490072155
 21
137.0517335932281924
 31
0.0
  0
LINE
  5
2F0F4
  8
0
 10
3091.4271773490081614
 20
136.9584323230282052
 30
0.0
 11
3091.4210564889071975
 21
136.9984323230281973
 31
0.0
  0
LINE
  5
2F0F5
  8
0
 10
3091.1671773490070336
 20
136.9584323230282052
 30
0.0
 11
3091.1610564889069792
 21
136.9984323230281973
 31
0.0
  0
LINE
  5
2F0F6
  8
0
 10
3091.1571773490068153
 20
136.9584323230282052
 30
0.0
 11
3091.1510564889081252
 21
136.9984323230281973
 31
0.0
  0
LINE
  5
2F0F7
  8
0
 10
3091.1321773490071791
 20
136.9584323230282052
 30
0.0
 11
3091.1571773490068153
 21
137.0517335932281924
 31
0.0
  0
LINE
  5
2F0F8
  8
0
 10
3090.9421773490071246
 20
136.9584323230282052
 30
0.0
 11
3090.9671773490072155
 21
137.0517335932281924
 31
0.0
  0
LINE
  5
2F0F9
  8
0
 10
3090.9321773490069063
 20
136.9584323230282052
 30
0.0
 11
3090.9617078480719101
 21
137.0686416459232078
 31
0.0
  0
LINE
  5
2F0FA
  8
0
 10
3090.7221773490068699
 20
136.9584323230282052
 30
0.0
 11
3090.7471773490069609
 21
137.0517335932281924
 31
0.0
  0
LINE
  5
2F0FB
  8
0
 10
3082.2071773490069972
 20
136.9584323230282052
 30
0.0
 11
3098.2432970781069344
 21
136.9584323230282052
 31
0.0
  0
LINE
  5
2F0FC
  8
0
 10
3090.7921773490070336
 20
136.9584323230282052
 30
0.0
 11
3090.7671773490069427
 21
137.0517335932281924
 31
0.0
  0
LINE
  5
2F0FD
  8
0
 10
3090.6871773490070154
 20
136.9584323230282052
 30
0.0
 11
3090.6932982091070699
 21
136.9984323230281973
 31
0.0
  0
LINE
  5
2F0FE
  8
0
 10
3082.2071773490069972
 20
136.9584323230282052
 30
0.0
 11
3082.2010564889069428
 21
136.9984323230281973
 31
0.0
  0
ARC
  5
2F0FF
  8
0
 10
3091.8263363015998948
 20
136.9185058509671933
 30
0.0
 40
0.4915126339251083
 50
7.3671496608854534
 51
9.2987309512815362
  0
ARC
  5
2F100
  8
0
 10
3091.9036612340069041
 20
136.9307292737281898
 30
0.0
 40
0.4132289463000001
 50
9.3585623085980956
 51
10.0115399178011302
  0
ARC
  5
2F101
  8
0
 10
3091.9545866074067817
 20
136.9398134614282014
 30
0.0
 40
0.3614997832
 50
9.9968535783969372
 51
12.2883302502955907
  0
ARC
  5
2F102
  8
0
 10
3097.9401508811070016
 20
136.9614341069282091
 30
0.0
 40
0.1899682857
 50
136.0625856190252989
 51
151.9021681331026912
  0
ARC
  5
2F103
  8
0
 10
3091.0132875736198912
 20
136.977471417094705
 30
0.0
 40
0.1393543454536002
 50
8.6509447606963175
 51
15.7464883618700497
  0
ARC
  5
2F104
  8
0
 10
3098.3810134721861687
 20
137.0258270000744858
 30
0.0
 40
0.1156552509094149
 50
134.5499734964633944
 51
167.0560115044847009
  0
ARC
  5
2F105
  8
0
 10
3098.3708495474370466
 20
137.0234339899645022
 30
0.0
 40
0.1105907741553765
 50
95.9332799068041737
 51
129.922572413599994
  0
ARC
  5
2F106
  8
0
 10
3098.4533630069317951
 20
136.9535060645742988
 30
0.0
 40
0.2764876031031529
 50
156.8219355866945932
 51
173.2636130000338142
  0
ARC
  5
2F107
  8
0
 10
3098.3362653976910224
 20
136.9806909644130997
 30
0.0
 40
0.1595428175347428
 50
106.7901705741250993
 51
149.2229538337103918
  0
ARC
  5
2F108
  8
0
 10
3098.4050743713801239
 20
136.9564969186353949
 30
0.0
 40
0.257994739770524
 50
152.839990606666305
 51
174.4316301024610993
  0
ARC
  5
2F109
  8
0
 10
3098.2651755339988995
 20
137.0228593940281883
 30
0.0
 40
0.1033411355276955
 50
114.6426158908988953
 51
150.1691071233655919
  0
ARC
  5
2F10A
  8
0
 10
3098.3122773107088506
 20
136.9005101748763025
 30
0.0
 40
0.2343305614734695
 50
96.2850102228063349
 51
112.6366709980232059
  0
ARC
  5
2F10B
  8
0
 10
3097.6750631930940472
 20
136.9609095803969865
 30
0.0
 40
0.2441064676732705
 50
4.8459701023852864
 51
26.8770771374159807
  0
ARC
  5
2F10C
  8
0
 10
3097.8007328070520998
 20
137.0220265860218944
 30
0.0
 40
0.104407510644554
 50
28.137924653770181
 51
66.4880877757502446
  0
ARC
  5
2F10D
  8
0
 10
3097.7308352611930786
 20
136.8069685171695937
 30
0.0
 40
0.3302095916869101
 50
70.2561744254384166
 51
81.3617522337352455
  0
ARC
  5
2F10E
  8
0
 10
3097.6740711072939121
 20
136.9662662771546024
 30
0.0
 40
0.1809864220584003
 50
10.2373507241883104
 51
38.3969855211304605
  0
ARC
  5
2F10F
  8
0
 10
3097.683512702653843
 20
136.9772390291095121
 30
0.0
 40
0.1667939804688171
 50
37.457301364275807
 51
58.4329420651012796
  0
ARC
  5
2F110
  8
0
 10
3097.6965185150947946
 20
136.988460731987999
 30
0.0
 40
0.1505143697195221
 50
60.4153916620760825
 51
74.4025260323540181
  0
ARC
  5
2F111
  8
0
 10
3097.9215687041400997
 20
136.9699815504667981
 30
0.0
 40
0.1695547846899195
 50
151.4927001400174902
 51
170.3402473814805091
  0
ARC
  5
2F112
  8
0
 10
3097.7277861193651916
 20
137.0256404293400863
 30
0.0
 40
0.1165667444167782
 50
137.3488628934701126
 51
167.0648889826321977
  0
ARC
  5
2F113
  8
0
 10
3097.7181625402508871
 20
137.0250303708895956
 30
0.0
 40
0.1101227400015192
 50
100.1421480804772983
 51
133.7205450559820008
  0
ARC
  5
2F114
  8
0
 10
3097.7032627385478918
 20
136.9654901439670027
 30
0.0
 40
0.1829546911625294
 50
138.7240098065381915
 51
169.6269499415637085
  0
ARC
  5
2F115
  8
0
 10
3097.6877229346978311
 20
136.9825820290475917
 30
0.0
 40
0.1600216297663969
 50
121.1813889735519041
 51
139.6527765032431887
  0
ARC
  5
2F116
  8
0
 10
3097.6710422316141376
 20
137.0050797520864876
 30
0.0
 40
0.1321637028105085
 50
103.7929673086701996
 51
120.0443151854938009
  0
ARC
  5
2F117
  8
0
 10
3097.020659055221131
 20
136.9653631695452134
 30
0.0
 40
0.1834033887163029
 50
10.3877179971973206
 51
44.2269718707476329
  0
ARC
  5
2F118
  8
0
 10
3097.0526099106109541
 20
137.0030168962763071
 30
0.0
 40
0.134326518114775
 50
42.2234439807707389
 51
76.1399385218800688
  0
ARC
  5
2F119
  8
0
 10
3097.3842398533888627
 20
136.9588527098256066
 30
0.0
 40
0.2481011646305892
 50
151.5428881069879878
 51
180.0970829815198897
  0
ARC
  5
2F11A
  8
0
 10
3097.229831530059073
 20
137.013779011763603
 30
0.0
 40
0.1476169557534212
 50
135.7638379050519006
 51
165.1010357084342957
  0
ARC
  5
2F11B
  8
0
 10
3096.6595773346662099
 20
136.9598510141412078
 30
0.0
 40
0.2485473612337267
 50
5.0040957351676667
 51
26.2928354969264184
  0
ARC
  5
2F11C
  8
0
 10
3096.7770453327948417
 20
137.0126163319106922
 30
0.0
 40
0.1199526937202892
 50
28.5513835801726401
 51
52.4122980933632192
  0
ARC
  5
2F11D
  8
0
 10
3096.7651195306439149
 20
136.9704199247337897
 30
0.0
 40
0.161488008822854
 50
58.2012877522999972
 51
67.8621513471335902
  0
ARC
  5
2F11E
  8
0
 10
3096.6920030189207864
 20
137.0170406095510884
 30
0.0
 40
0.1395553747825488
 50
14.3944783456133294
 51
37.9896682576747935
  0
ARC
  5
2F11F
  8
0
 10
3096.9427747365289179
 20
137.0099427905975062
 30
0.0
 40
0.1611118188965992
 50
147.5544724089662907
 51
164.9661270901752914
  0
ARC
  5
2F120
  8
0
 10
3096.9243650529838305
 20
136.965010849479512
 30
0.0
 40
0.1841254921125047
 50
136.1411847487985085
 51
169.5420039007188961
  0
ARC
  5
2F121
  8
0
 10
3096.8905046217969357
 20
137.0037207583488055
 30
0.0
 40
0.1329634855999849
 50
102.6978606173553032
 51
138.0592868458280975
  0
ARC
  5
2F122
  8
0
 10
3096.2455095034711121
 20
136.967628082284989
 30
0.0
 40
0.1782291932979389
 50
9.9526924249013788
 51
68.4795440160644659
  0
ARC
  5
2F123
  8
0
 10
3096.3937955067890471
 20
136.9606352551622876
 30
0.0
 40
0.1942108101090263
 50
117.1594441245576945
 51
168.7775462733642939
  0
ARC
  5
2F124
  8
0
 10
3096.3137900209990221
 20
136.9651848625051116
 30
0.0
 40
0.1835284386446717
 50
113.5462615806871014
 51
169.5628412344551066
  0
ARC
  5
2F125
  8
0
 10
3096.1992173989638104
 20
137.0293140771740923
 30
0.0
 40
0.1083841634871289
 50
129.6567922420173886
 51
168.0620461574224862
  0
ARC
  5
2F126
  8
0
 10
3096.2191486947558587
 20
136.9801015330058078
 30
0.0
 40
0.159801144954873
 50
106.3601817284825017
 51
123.888077578130904
  0
ARC
  5
2F127
  8
0
 10
3095.7893670528328585
 20
137.0255596267145961
 30
0.0
 40
0.1167812486587745
 50
12.9516162069320497
 51
42.3608087829980278
  0
ARC
  5
2F128
  8
0
 10
3095.8030074052098826
 20
137.0300546895066987
 30
0.0
 40
0.1038394187928926
 50
45.6010865937725072
 51
84.5944782139211213
  0
ARC
  5
2F129
  8
0
 10
3095.6313214058000085
 20
136.9656011838372081
 30
0.0
 40
0.1827090140089483
 50
10.3517535857192193
 51
41.2972866573098898
  0
ARC
  5
2F12A
  8
0
 10
3095.6404052928292003
 20
136.9748706953928945
 30
0.0
 40
0.1697695341822822
 50
40.9702272814718711
 51
69.0642394410469507
  0
ARC
  5
2F12B
  8
0
 10
3095.4428772074538756
 20
136.9602912341923115
 30
0.0
 40
0.2452217132796044
 50
9.8311161554255833
 51
27.4799512651364708
  0
ARC
  5
2F12C
  8
0
 10
3095.5704340080478687
 20
137.0228322070915965
 30
0.0
 40
0.1032532242442518
 50
29.3530681866592005
 51
59.3474047112901673
  0
ARC
  5
2F12D
  8
0
 10
3095.480289494788849
 20
136.9688515853368074
 30
0.0
 40
0.1733100871914451
 50
9.8274157487038725
 51
30.859022981026861
  0
ARC
  5
2F12E
  8
0
 10
3095.4653432246318516
 20
136.9614646365535862
 30
0.0
 40
0.189934034832467
 50
30.4592702562894608
 51
43.8973731183289217
  0
ARC
  5
2F12F
  8
0
 10
3095.7779784524268507
 20
136.9708821722497873
 30
0.0
 40
0.1669688394520303
 50
150.822289525591799
 51
170.5026638449168104
  0
ARC
  5
2F130
  8
0
 10
3095.8455340399950728
 20
136.950066832226895
 30
0.0
 40
0.2900665924386087
 50
157.2304757630035965
 51
173.7545379029631079
  0
ARC
  5
2F131
  8
0
 10
3095.7351721119598551
 20
136.9643592565408881
 30
0.0
 40
0.1851445652678954
 50
128.4630963241204995
 51
148.051445073935696
  0
ARC
  5
2F132
  8
0
 10
3095.6875725167878954
 20
137.0284373760422909
 30
0.0
 40
0.1053951179139546
 50
94.9944498794460799
 51
129.8692508258710063
  0
ARC
  5
2F133
  8
0
 10
3095.0336959125661451
 20
136.9666585206337004
 30
0.0
 40
0.1801842072959961
 50
10.1566857924921798
 51
39.7046758753372728
  0
ARC
  5
2F134
  8
0
 10
3095.0481301478289424
 20
136.9834414965251028
 30
0.0
 40
0.158400793830697
 50
38.369502063473881
 51
62.1472067008945075
  0
ARC
  5
2F135
  8
0
 10
3095.0061588918119924
 20
137.0224767245701969
 30
0.0
 40
0.1245047442693862
 50
13.5907960185722807
 51
42.8010473684288968
  0
ARC
  5
2F136
  8
0
 10
3095.1847049727539343
 20
137.0232952642936084
 30
0.0
 40
0.1209193156458907
 50
136.1452773370045861
 51
166.3975110168123024
  0
ARC
  5
2F137
  8
0
 10
3095.1595345164309947
 20
137.041945489493088
 30
0.0
 40
0.0899360146486709
 50
107.3902824660230948
 51
133.6023651706742044
  0
ARC
  5
2F138
  8
0
 10
3094.9243346998018751
 20
136.9310379167584983
 30
0.0
 40
0.314039769227548
 50
5.0044022451233179
 51
18.8035394782586103
  0
ARC
  5
2F139
  8
0
 10
3095.0460479626781307
 20
136.9617528310346017
 30
0.0
 40
0.1891950193526976
 50
21.8805039925323896
 51
49.4714621233647804
  0
ARC
  5
2F13A
  8
0
 10
3095.0839532518079977
 20
137.0072784162983908
 30
0.0
 40
0.1299622506399698
 50
49.1308486925856585
 51
76.0952440708438189
  0
ARC
  5
2F13B
  8
0
 10
3094.9643081158351379
 20
137.0231150177120014
 30
0.0
 40
0.1205762804293949
 50
133.9569458871937968
 51
166.2699122785136012
  0
ARC
  5
2F13C
  8
0
 10
3094.9501802146069167
 20
137.0215277076310088
 30
0.0
 40
0.1124787240678155
 50
106.2451262864176016
 51
128.205467318508596
  0
ARC
  5
2F13D
  8
0
 10
3094.9530053690491513
 20
136.9894346199446886
 30
0.0
 40
0.1442169523200917
 50
93.1597560519258963
 51
103.7550899039733991
  0
ARC
  5
2F13E
  8
0
 10
3094.7462800008302111
 20
137.0185646380816138
 30
0.0
 40
0.1350344228157974
 50
14.2192647317724497
 51
30.7101357638223114
  0
ARC
  5
2F13F
  8
0
 10
3094.550908285450987
 20
137.0291757662091072
 30
0.0
 40
0.1086368357629075
 50
11.9847127016345105
 51
50.2967722895493026
  0
ARC
  5
2F140
  8
0
 10
3094.5542485395940275
 20
137.0216504911657012
 30
0.0
 40
0.1125347759607073
 50
54.0554324987625066
 51
83.3684039185661732
  0
ARC
  5
2F141
  8
0
 10
3094.2646240832518743
 20
136.9701958057547984
 30
0.0
 40
0.1688106826005124
 50
9.6289754496260898
 51
28.8823842848884382
  0
ARC
  5
2F142
  8
0
 10
3094.2511964282921326
 20
136.9656766995717874
 30
0.0
 40
0.18276839517597
 50
28.0896263141480702
 51
54.6765686083724418
  0
ARC
  5
2F143
  8
0
 10
3094.2657905537112129
 20
137.0182379681901068
 30
0.0
 40
0.1355892579630527
 50
14.3022729431498696
 51
30.8583513775931806
  0
ARC
  5
2F144
  8
0
 10
3094.4966272921901691
 20
137.0189915278832018
 30
0.0
 40
0.1335265165914711
 50
147.3591769540236953
 51
165.8057431022143078
  0
ARC
  5
2F145
  8
0
 10
3094.5442243173238239
 20
136.9579071898689051
 30
0.0
 40
0.2581270505514738
 50
155.520154392760702
 51
174.7285105818519924
  0
ARC
  5
2F146
  8
0
 10
3094.4052891889728016
 20
137.0210414359852109
 30
0.0
 40
0.1055201299857701
 50
114.071957678516398
 51
155.4593081187217933
  0
ARC
  5
2F147
  8
0
 10
3094.4444125540421737
 20
136.9188709201062863
 30
0.0
 40
0.2148455388315652
 50
92.9470357014115933
 51
112.4842609888298028
  0
ARC
  5
2F148
  8
0
 10
3093.7933082576441848
 20
136.9562186064480898
 30
0.0
 40
0.2650803969514299
 50
5.4795034123506889
 51
23.9513969938716116
  0
ARC
  5
2F149
  8
0
 10
3093.9386596368808569
 20
137.0205238598381072
 30
0.0
 40
0.1061400111371398
 50
24.0804844964022315
 51
59.9075044276493998
  0
ARC
  5
2F14A
  8
0
 10
3093.9166901040448465
 20
136.9734181399902866
 30
0.0
 40
0.15797943693803
 50
61.5797889544971895
 51
82.7996011014227378
  0
ARC
  5
2F14B
  8
0
 10
3093.7504047545999128
 20
135.6185330953931896
 30
0.0
 40
1.5230295693922671
 50
82.9819620021666253
 51
84.0771429471715948
  0
ARC
  5
2F14C
  8
0
 10
3093.93617207663101
 20
137.0275020343412962
 30
0.0
 40
0.1116558063688821
 50
130.0260551019366062
 51
167.4659283986283071
  0
ARC
  5
2F14D
  8
0
 10
3093.9254983982800695
 20
137.030745802994204
 30
0.0
 40
0.1024881903125721
 50
96.0175752559726874
 51
126.6210124231702991
  0
ARC
  5
2F14E
  8
0
 10
3093.8152944117800871
 20
137.028059135676699
 30
0.0
 40
0.1106787206415062
 50
130.0699870933920863
 51
167.648851306068309
  0
ARC
  5
2F14F
  8
0
 10
3093.8090470713418654
 20
137.0236639293106862
 30
0.0
 40
0.1102835168596107
 50
95.5399653411487861
 51
126.1131409361621962
  0
ARC
  5
2F150
  8
0
 10
3093.6201048396410442
 20
137.0177251904511024
 30
0.0
 40
0.1372089254585239
 50
149.2983259876615989
 51
165.6491727807305949
  0
ARC
  5
2F151
  8
0
 10
3093.5554923517788666
 20
137.0280859314476061
 30
0.0
 40
0.1108663688103647
 50
131.4188353546724102
 51
167.6842601168258966
  0
ARC
  5
2F152
  8
0
 10
3093.6337971885841398
 20
136.9652819737050891
 30
0.0
 40
0.1835179207931512
 50
136.7834682990730073
 51
169.5930638764004073
  0
ARC
  5
2F153
  8
0
 10
3093.4032314973910616
 20
137.0253240545447966
 30
0.0
 40
0.116966323504176
 50
13.0491927776654997
 51
43.8543185537807219
  0
ARC
  5
2F154
  8
0
 10
3093.4242243026919823
 20
137.0410945714475019
 30
0.0
 40
0.0909574249282608
 50
45.8529558698531332
 51
75.3241995294019375
  0
ARC
  5
2F155
  8
0
 10
3093.5964505696488231
 20
137.7666871813887894
 30
0.0
 40
0.6548225184212088
 50
255.253918724552193
 51
256.831186772591991
  0
ARC
  5
2F156
  8
0
 10
3093.0722181537121287
 20
137.0009659851681079
 30
0.0
 40
0.1918000363718292
 50
15.3485508479988493
 51
23.3864662179680387
  0
ARC
  5
2F157
  8
0
 10
3093.3876346576471406
 20
136.9677061723722886
 30
0.0
 40
0.177023426764995
 50
145.3269332980736124
 51
170.0044844047891104
  0
ARC
  5
2F158
  8
0
 10
3093.3890215530250316
 20
136.969824121973403
 30
0.0
 40
0.1769772354958943
 50
124.7129819151500953
 51
146.146306029669006
  0
ARC
  5
2F159
  8
0
 10
3093.3566822671041336
 20
137.0144726264751114
 30
0.0
 40
0.1218648746192963
 50
102.5357783835438994
 51
124.1687262998295012
  0
ARC
  5
2F15A
  8
0
 10
3092.7090746472408682
 20
136.9645664907799016
 30
0.0
 40
0.1851061460079281
 50
10.5418450282309397
 51
46.89746735979476
  0
ARC
  5
2F15B
  8
0
 10
3092.7493463697010156
 20
137.013827713331608
 30
0.0
 40
0.1216955087676428
 50
44.8928962278019767
 51
79.3636976716278753
  0
ARC
  5
2F15C
  8
0
 10
3092.4174984573442089
 20
136.9600360123108942
 30
0.0
 40
0.2505987049869485
 50
6.8113742438249592
 51
24.2229947103277006
  0
ARC
  5
2F15D
  8
0
 10
3092.5373426227429263
 20
137.0127543446558036
 30
0.0
 40
0.1196814006690567
 50
24.7467275691005213
 51
42.2949035048798123
  0
ARC
  5
2F15E
  8
0
 10
3092.7265207928157906
 20
137.0230398708908979
 30
0.0
 40
0.1227443981686719
 50
141.1097227806095873
 51
166.4809835418913906
  0
ARC
  5
2F15F
  8
0
 10
3092.7006055210367776
 20
137.0404532007530065
 30
0.0
 40
0.0916808872763179
 50
107.8052211719761004
 51
139.4116466113100046
  0
ARC
  5
2F160
  8
0
 10
3092.7161911772482199
 20
136.9823321912759013
 30
0.0
 40
0.1518121434868464
 50
95.551340109000634
 51
106.6981130120287986
  0
ARC
  5
2F161
  8
0
 10
3091.9939299724342163
 20
136.9423966252738865
 30
0.0
 40
0.3355364741832768
 50
6.7135356730887601
 51
17.1981323109226487
  0
ARC
  5
2F162
  8
0
 10
3092.4198501493569893
 20
137.0306722919850984
 30
0.0
 40
0.1048106976490312
 50
120.2087928766728027
 51
168.4077099950636978
  0
ARC
  5
2F163
  8
0
 10
3092.3091520744719674
 20
137.0283716729990999
 30
0.0
 40
0.1105225735090465
 50
12.2030549779410293
 51
47.2715193717310029
  0
ARC
  5
2F164
  8
0
 10
3092.3156431659472219
 20
137.0264011501622861
 30
0.0
 40
0.1077388309103096
 50
50.5200509805529734
 51
83.4294575513310122
  0
ARC
  5
2F165
  8
0
 10
3092.3266357742218133
 20
137.0272486778021062
 30
0.0
 40
0.1121635321034906
 50
130.32784100370489
 51
167.3909973957642876
  0
ARC
  5
2F166
  8
0
 10
3092.3170446294830072
 20
137.0272319872046864
 30
0.0
 40
0.1062219503701091
 50
91.1558751432212944
 51
126.3748926348155948
  0
ARC
  5
2F167
  8
0
 10
3092.3479334129237941
 20
136.9429189126207973
 30
0.0
 40
0.3330022079070106
 50
162.7609718322302967
 51
173.3414864572582132
  0
ARC
  5
2F168
  8
0
 10
3092.1377166229322029
 20
137.015191803256414
 30
0.0
 40
0.1452122237611861
 50
149.934865143560387
 51
165.4251809247215874
  0
ARC
  5
2F169
  8
0
 10
3091.9016352016601559
 20
137.0205208554880869
 30
0.0
 40
0.1293640729150943
 50
13.9623102632553007
 51
34.7059919264068313
  0
ARC
  5
2F16A
  8
0
 10
3091.9358163957649595
 20
137.0432190971320097
 30
0.0
 40
0.0883442851578456
 50
35.2259553962067997
 51
63.8790980821934227
  0
ARC
  5
2F16B
  8
0
 10
3091.9227463738798178
 20
137.0105321697153897
 30
0.0
 40
0.1234756606415922
 50
65.1115622902047591
 51
84.4659738369251443
  0
ARC
  5
2F16C
  8
0
 10
3091.6791588462738218
 20
137.0196146451283141
 30
0.0
 40
0.1319862260579093
 50
14.0843895552895297
 51
32.7900842367011123
  0
ARC
  5
2F16D
  8
0
 10
3091.9166385330931917
 20
136.9680373447343982
 30
0.0
 40
0.175985006818761
 50
146.4918013441636049
 51
170.054377391178889
  0
ARC
  5
2F16E
  8
0
 10
3091.9198116797801958
 20
136.9690440896563928
 30
0.0
 40
0.1780938696364731
 50
125.3824533057057948
 51
147.3254588139949988
  0
ARC
  5
2F16F
  8
0
 10
3091.8818215545461499
 20
137.0230435747116928
 30
0.0
 40
0.1120707163009732
 50
99.9390546967203903
 51
125.5326876198631965
  0
ARC
  5
2F170
  8
0
 10
3091.2555334073990707
 20
136.9724790388789017
 30
0.0
 40
0.1675454071884832
 50
8.9111699031710181
 51
42.7378703398542399
  0
ARC
  5
2F171
  8
0
 10
3091.270105524212795
 20
136.9981830283207103
 30
0.0
 40
0.139688338596149
 50
39.0481449873080209
 51
75.5169801868644157
  0
ARC
  5
2F172
  8
0
 10
3091.009973580219139
 20
136.9745930574842134
 30
0.0
 40
0.1529521359093117
 50
8.9667320603062013
 51
21.9567335663982206
  0
ARC
  5
2F173
  8
0
 10
3091.276392834608032
 20
137.0232018559709104
 30
0.0
 40
0.1225821848314153
 50
142.0578677669425076
 51
166.5406173633591891
  0
ARC
  5
2F174
  8
0
 10
3091.2484324557030959
 20
137.0434929965776121
 30
0.0
 40
0.0880634483731034
 50
112.1701459845849058
 51
141.2838543030864003
  0
ARC
  5
2F175
  8
0
 10
3091.2715873461829688
 20
136.9766688499792053
 30
0.0
 40
0.158729662027161
 50
99.027563173023097
 51
110.807860426715294
  0
ARC
  5
2F176
  8
0
 10
3090.8381665408910521
 20
137.0193392127322909
 30
0.0
 40
0.1330157302674469
 50
14.0954485633588504
 51
30.8908375192993105
  0
ARC
  5
2F177
  8
0
 10
3090.8735182141358564
 20
137.0407511458267038
 30
0.0
 40
0.0916861004235762
 50
30.7502976424072294
 51
55.067040663049319
  0
ARC
  5
2F178
  8
0
 10
3090.8716725793919977
 20
137.0357225562628969
 30
0.0
 40
0.0968751311099249
 50
55.8751900746550874
 51
80.878695014075376
  0
ARC
  5
2F179
  8
0
 10
3090.8628433924050114
 20
136.9904878259378052
 30
0.0
 40
0.1429458818224528
 50
80.2587340278403047
 51
89.7478058378317769
  0
ARC
  5
2F17A
  8
0
 10
3090.8780739074550183
 20
137.0183704732129115
 30
0.0
 40
0.1350814820420073
 50
147.5075457694740919
 51
165.7008197099563915
  0
ARC
  5
2F17B
  8
0
 10
3090.8388696669348974
 20
137.0427320506877038
 30
0.0
 40
0.0889289009827628
 50
113.5150756125858038
 51
147.1776696400297908
  0
ARC
  5
2F17C
  8
0
 10
3090.8493166644270786
 20
137.0145960575841002
 30
0.0
 40
0.1189079960443447
 50
91.9902432848867875
 51
112.7216549421417966
  0
ARC
  5
2F17D
  8
0
 10
3090.6249503319550058
 20
137.0145182890173032
 30
0.0
 40
0.1470153163690451
 50
14.66333769958446
 51
25.886225887510669
  0
ARC
  5
2F17E
  8
0
 10
3090.8657680433448149
 20
136.9684853411573044
 30
0.0
 40
0.175050465424726
 50
145.021805632942403
 51
170.1495980517161968
  0
ARC
  5
2F17F
  8
0
 10
3090.8643716327669608
 20
136.9739562557377042
 30
0.0
 40
0.1708096998432752
 50
120.9639045482772985
 51
146.2570422919910982
  0
ARC
  5
2F180
  8
0
 10
3090.8249225107570055
 20
137.0389640037473953
 30
0.0
 40
0.0947703745972579
 50
94.5757257956652353
 51
120.7335995096298973
  0
ARC
  5
2F181
  8
0
 10
3082.0278470530411141
 20
136.9682365407404916
 30
0.0
 40
0.1758217675400522
 50
9.8890520192103271
 51
35.7238873634510767
  0
ARC
  5
2F182
  8
0
 10
3082.025598052227906
 20
136.9702144292054982
 30
0.0
 40
0.1765168826078472
 50
34.7764037274376676
 51
55.0071382048288413
  0
ARC
  5
2F183
  8
0
 10
3082.0606327644732119
 20
137.0199098949512972
 30
0.0
 40
0.1157138562044989
 50
55.107249373208397
 51
78.8314612287765044
  0
LINE
  5
2F184
  8
0
 10
3090.3523412902300151
 20
136.9584323230282052
 30
0.0
 11
3090.3773412902301061
 21
137.0517335932281924
 31
0.0
  0
ARC
  5
2F185
  8
0
 10
3090.4956590943488663
 20
137.0233933653913994
 30
0.0
 40
0.1216645698036782
 50
139.6603339311359093
 51
166.5295964956029877
  0
ARC
  5
2F186
  8
0
 10
3090.4688329654609333
 20
137.0432472094682907
 30
0.0
 40
0.0883935895351482
 50
110.189310242149503
 51
138.213407640205503
  0
ARC
  5
2F187
  8
0
 10
3090.4954642849879747
 20
136.9587098746397942
 30
0.0
 40
0.1769772050133288
 50
99.1556877004292687
 51
108.8356759243705056
  0
LINE
  5
2F188
  8
0
 10
3082.5341773490072228
 20
136.9584323230282052
 30
0.0
 11
3082.5371773490069245
 21
136.9815310435280935
 31
0.0
  0
LINE
  5
2F189
  8
0
 10
3082.2801773490068626
 20
136.9584323230282052
 30
0.0
 11
3082.2766902509802094
 21
136.9859384611449116
 31
0.0
  0
LINE
  5
2F18A
  8
0
 10
3082.3101773490070627
 20
136.9584323230282052
 30
0.0
 11
3082.3071773490069063
 21
136.9815310435280935
 31
0.0
  0
LINE
  5
2F18B
  8
0
 10
3082.5971773490068699
 20
136.9584323230282052
 30
0.0
 11
3082.6032982091069243
 21
136.9984323230281973
 31
0.0
  0
LINE
  5
2F18C
  8
0
 10
3083.217177349008125
 20
136.9584323230282052
 30
0.0
 11
3083.2232982091068152
 21
136.9984323230281973
 31
0.0
  0
LINE
  5
2F18D
  8
0
 10
3082.7071773490079067
 20
136.9584323230282052
 30
0.0
 11
3082.7010564889069428
 21
136.9984323230281973
 31
0.0
  0
LINE
  5
2F18E
  8
0
 10
3082.9071773490068153
 20
136.9584323230282052
 30
0.0
 11
3082.9010564889072157
 21
136.9984323230281973
 31
0.0
  0
LINE
  5
2F18F
  8
0
 10
3082.8351773490080632
 20
136.9584323230282052
 30
0.0
 11
3082.8101773490070627
 21
137.0517335932281924
 31
0.0
  0
LINE
  5
2F190
  8
0
 10
3083.572177349006779
 20
136.9584323230282052
 30
0.0
 11
3083.5971773490068699
 21
137.0517335932281924
 31
0.0
  0
LINE
  5
2F191
  8
0
 10
3083.5141773490081505
 20
136.9584323230282052
 30
0.0
 11
3083.5171773490069427
 21
136.9815310435280935
 31
0.0
  0
LINE
  5
2F192
  8
0
 10
3083.6871773490070154
 20
136.9584323230282052
 30
0.0
 11
3083.681056488906961
 21
136.9984323230281973
 31
0.0
  0
LINE
  5
2F193
  8
0
 10
3083.3621773490081068
 20
136.9584323230282052
 30
0.0
 11
3083.3371773490071064
 21
137.0517335932281924
 31
0.0
  0
LINE
  5
2F194
  8
0
 10
3083.6621773490069245
 20
136.9584323230282052
 30
0.0
 11
3083.6371773490068335
 21
137.0517335932281924
 31
0.0
  0
LINE
  5
2F195
  8
0
 10
3083.9971773490069609
 20
136.9584323230282052
 30
0.0
 11
3084.0032982091070153
 21
136.9984323230281973
 31
0.0
  0
LINE
  5
2F196
  8
0
 10
3084.2271773490069791
 20
136.9584323230282052
 30
0.0
 11
3084.2210564889069246
 21
136.9984323230281973
 31
0.0
  0
LINE
  5
2F197
  8
0
 10
3084.2971773490071428
 20
136.9584323230282052
 30
0.0
 11
3084.2910564889070884
 21
136.9984323230281973
 31
0.0
  0
LINE
  5
2F198
  8
0
 10
3084.3561773490068845
 20
136.9584323230282052
 30
0.0
 11
3084.3311773490067935
 21
137.0517335932281924
 31
0.0
  0
LINE
  5
2F199
  8
0
 10
3084.4961773490081214
 20
136.9584323230282052
 30
0.0
 11
3084.5211773490068481
 21
137.0517335932281924
 31
0.0
  0
LINE
  5
2F19A
  8
0
 10
3084.6071773490070882
 20
136.9584323230282052
 30
0.0
 11
3084.6132982091071426
 21
136.9984323230281973
 31
0.0
  0
LINE
  5
2F19B
  8
0
 10
3084.7671773490069427
 20
136.9584323230282052
 30
0.0
 11
3084.7732982091069971
 21
136.9984323230281973
 31
0.0
  0
LINE
  5
2F19C
  8
0
 10
3084.7341773490079504
 20
136.9584323230282052
 30
0.0
 11
3084.7398567806740175
 21
137.0021615245834141
 31
0.0
  0
LINE
  5
2F19D
  8
0
 10
3084.8701773490070082
 20
136.9584323230282052
 30
0.0
 11
3084.8671773490068517
 21
136.9815310435280935
 31
0.0
  0
LINE
  5
2F19E
  8
0
 10
3084.8171773490080341
 20
136.9584323230282052
 30
0.0
 11
3084.8110564889070702
 21
136.9984323230281973
 31
0.0
  0
LINE
  5
2F19F
  8
0
 10
3085.2721773490070518
 20
136.9584323230282052
 30
0.0
 11
3085.2971773490071428
 21
137.0517335932281924
 31
0.0
  0
LINE
  5
2F1A0
  8
0
 10
3085.5221773490079613
 20
136.9584323230282052
 30
0.0
 11
3085.5471773490071428
 21
137.0517335932281924
 31
0.0
  0
LINE
  5
2F1A1
  8
0
 10
3085.2071773490069972
 20
136.9584323230282052
 30
0.0
 11
3085.2132982091070517
 21
136.9984323230281973
 31
0.0
  0
LINE
  5
2F1A2
  8
0
 10
3085.3821773490071791
 20
136.9584323230282052
 30
0.0
 11
3085.3571773490070882
 21
137.0517335932281924
 31
0.0
  0
LINE
  5
2F1A3
  8
0
 10
3085.6021773490069791
 20
136.9584323230282052
 30
0.0
 11
3085.5771773490068881
 21
137.0517335932281924
 31
0.0
  0
LINE
  5
2F1A4
  8
0
 10
3085.7421773490068517
 20
136.9584323230282052
 30
0.0
 11
3085.7671775296080341
 21
137.0517342812281925
 31
0.0
  0
LINE
  5
2F1A5
  8
0
 10
3086.00217734900707
 20
136.9584323230282052
 30
0.0
 11
3086.027177349007161
 21
137.0517335932281924
 31
0.0
  0
LINE
  5
2F1A6
  8
0
 10
3086.0621773490070154
 20
136.9584323230282052
 30
0.0
 11
3086.0721773490040505
 21
136.9957528311182102
 31
0.0
  0
LINE
  5
2F1A7
  8
0
 10
3085.9871773490081068
 20
136.9584323230282052
 30
0.0
 11
3085.993298209106797
 21
136.9984323230281973
 31
0.0
  0
LINE
  5
2F1A8
  8
0
 10
3086.3641773490080595
 20
136.9584323230282052
 30
0.0
 11
3086.3671773490068517
 21
136.9815310435280935
 31
0.0
  0
LINE
  5
2F1A9
  8
0
 10
3086.14017734900699
 20
136.9584323230282052
 30
0.0
 11
3086.1371656929068195
 21
136.9816226384282061
 31
0.0
  0
LINE
  5
2F1AA
  8
0
 10
3086.0821773490069972
 20
136.9584323230282052
 30
0.0
 11
3086.0571773490069063
 21
137.0517335932281924
 31
0.0
  0
LINE
  5
2F1AB
  8
0
 10
3086.8821773490080886
 20
136.9584323230282052
 30
0.0
 11
3086.9071773490068153
 21
137.0517335932281924
 31
0.0
  0
LINE
  5
2F1AC
  8
0
 10
3086.5971773490068699
 20
136.9584323230282052
 30
0.0
 11
3086.6062647691269376
 21
137.0178188796290897
 31
0.0
  0
LINE
  5
2F1AD
  8
0
 10
3086.9771773490078886
 20
136.9584323230282052
 30
0.0
 11
3086.9710564889069246
 21
136.9984323230281973
 31
0.0
  0
LINE
  5
2F1AE
  8
0
 10
3086.6221773490069609
 20
136.9584323230282052
 30
0.0
 11
3086.5971773490068699
 21
137.0517335932281924
 31
0.0
  0
LINE
  5
2F1AF
  8
0
 10
3086.7421773490068517
 20
136.9584323230282052
 30
0.0
 11
3086.717177349008125
 21
137.0517335932281924
 31
0.0
  0
LINE
  5
2F1B0
  8
0
 10
3086.9621773490071064
 20
136.9584323230282052
 30
0.0
 11
3086.9371773490070154
 21
137.0517335932281924
 31
0.0
  0
LINE
  5
2F1B1
  8
0
 10
3087.00217734900707
 20
136.9584323230282052
 30
0.0
 11
3086.9771773490078886
 21
137.0517335932281924
 31
0.0
  0
LINE
  5
2F1B2
  8
0
 10
3087.1421773490069427
 20
136.9584323230282052
 30
0.0
 11
3087.1671773490070336
 21
137.0517335932281924
 31
0.0
  0
LINE
  5
2F1B3
  8
0
 10
3087.5271773490080705
 20
136.9584323230282052
 30
0.0
 11
3087.5332982091081249
 21
136.9984323230281973
 31
0.0
  0
LINE
  5
2F1B4
  8
0
 10
3087.2171773490072155
 20
136.9584323230282052
 30
0.0
 11
3087.2110564889080706
 21
136.9984323230281973
 31
0.0
  0
LINE
  5
2F1B5
  8
0
 10
3087.9821773490070882
 20
136.9584323230282052
 30
0.0
 11
3088.0071773490080886
 21
137.0517335932281924
 31
0.0
  0
LINE
  5
2F1B6
  8
0
 10
3087.7541773490070227
 20
136.9584323230282052
 30
0.0
 11
3087.7580262655487786
 21
136.9897572912493047
 31
0.0
  0
LINE
  5
2F1B7
  8
0
 10
3088.0941773490071682
 20
136.9584323230282052
 30
0.0
 11
3088.097189005106884
 21
136.9816226384282061
 31
0.0
  0
LINE
  5
2F1B8
  8
0
 10
3088.107563276007113
 20
136.9584323230282052
 30
0.0
 11
3088.1105632760068147
 21
136.9815310435280935
 31
0.0
  0
LINE
  5
2F1B9
  8
0
 10
3088.4101773490069718
 20
136.9584323230282052
 30
0.0
 11
3088.4071773490068153
 21
136.9815310435280935
 31
0.0
  0
LINE
  5
2F1BA
  8
0
 10
3088.1268731660070443
 20
136.9584323230282052
 30
0.0
 11
3088.1198108640251121
 21
137.0045846732982966
 31
0.0
  0
LINE
  5
2F1BB
  8
0
 10
3087.8421773490072155
 20
136.9584323230282052
 30
0.0
 11
3087.8171773490071246
 21
137.0517335932281924
 31
0.0
  0
LINE
  5
2F1BC
  8
0
 10
3088.1321773490071791
 20
136.9584323230282052
 30
0.0
 11
3088.1071773490070882
 21
137.0517335932281924
 31
0.0
  0
LINE
  5
2F1BD
  8
0
 10
3088.2321773490079977
 20
136.9584323230282052
 30
0.0
 11
3088.2071773490069972
 21
137.0517335932281924
 31
0.0
  0
LINE
  5
2F1BE
  8
0
 10
3088.3721773490069609
 20
136.9584323230282052
 30
0.0
 11
3088.397177529606779
 21
137.0517342812281925
 31
0.0
  0
LINE
  5
2F1BF
  8
0
 10
3088.5921773490072155
 20
136.9584323230282052
 30
0.0
 11
3088.6171773490068517
 21
137.0517335932281924
 31
0.0
  0
LINE
  5
2F1C0
  8
0
 10
3088.6871773490070154
 20
136.9584323230282052
 30
0.0
 11
3088.681056488906961
 21
136.9984323230281973
 31
0.0
  0
LINE
  5
2F1C1
  8
0
 10
3088.4521773490068881
 20
136.9584323230282052
 30
0.0
 11
3088.4271773490081614
 21
137.0517335932281924
 31
0.0
  0
LINE
  5
2F1C2
  8
0
 10
3088.6021773490069791
 20
136.9584323230282052
 30
0.0
 11
3088.5971773490018677
 21
136.9770925770480972
 31
0.0
  0
LINE
  5
2F1C3
  8
0
 10
3089.4321773490069063
 20
136.9584323230282052
 30
0.0
 11
3089.4571773490069972
 21
137.0517335932281924
 31
0.0
  0
LINE
  5
2F1C4
  8
0
 10
3088.9971773490069609
 20
136.9584323230282052
 30
0.0
 11
3089.0032982091070153
 21
136.9984323230281973
 31
0.0
  0
LINE
  5
2F1C5
  8
0
 10
3089.2571773490071791
 20
136.9584323230282052
 30
0.0
 11
3089.2632982091067788
 21
136.9984323230281973
 31
0.0
  0
LINE
  5
2F1C6
  8
0
 10
3089.2671773490069427
 20
136.9584323230282052
 30
0.0
 11
3089.2732982091079066
 21
136.9984323230281973
 31
0.0
  0
LINE
  5
2F1C7
  8
0
 10
3089.2921773490070336
 20
136.9584323230282052
 30
0.0
 11
3089.2671773490069427
 21
137.0517335932281924
 31
0.0
  0
LINE
  5
2F1C8
  8
0
 10
3089.4821773490070882
 20
136.9584323230282052
 30
0.0
 11
3089.4571773490069972
 21
137.0517335932281924
 31
0.0
  0
LINE
  5
2F1C9
  8
0
 10
3089.4921773490068517
 20
136.9584323230282052
 30
0.0
 11
3089.4626468499432121
 21
137.0686416459232078
 31
0.0
  0
LINE
  5
2F1CA
  8
0
 10
3089.7021773490068881
 20
136.9584323230282052
 30
0.0
 11
3089.6771773490067972
 21
137.0517335932281924
 31
0.0
  0
LINE
  5
2F1CB
  8
0
 10
3089.6321773490071791
 20
136.9584323230282052
 30
0.0
 11
3089.6571773490068153
 21
137.0517335932281924
 31
0.0
  0
LINE
  5
2F1CC
  8
0
 10
3089.7371773490071973
 20
136.9584323230282052
 30
0.0
 11
3089.7310564889071429
 21
136.9984323230281973
 31
0.0
  0
ARC
  5
2F1CD
  8
0
 10
3088.5980183964138632
 20
136.9185058509671933
 30
0.0
 40
0.4915126339251083
 50
170.7012690487183875
 51
172.6328503391144977
  0
ARC
  5
2F1CE
  8
0
 10
3088.5206934640068539
 20
136.9307292737281898
 30
0.0
 40
0.4132289463000001
 50
169.9884600821987988
 51
170.6414376914019044
  0
ARC
  5
2F1CF
  8
0
 10
3088.4697680906069763
 20
136.9398134614282014
 30
0.0
 40
0.3614997832
 50
167.7116697497044129
 51
170.0031464216031054
  0
ARC
  5
2F1D0
  8
0
 10
3082.5153235460070391
 20
136.9614341069282091
 30
0.0
 40
0.1899682857
 50
28.0978318668986589
 51
43.93741438097463
  0
ARC
  5
2F1D1
  8
0
 10
3089.4110671243938668
 20
136.977471417094705
 30
0.0
 40
0.1393543454536002
 50
164.2535116381299076
 51
171.3490552393037092
  0
ARC
  5
2F1D2
  8
0
 10
3082.0021114201817909
 20
136.9535060645742988
 30
0.0
 40
0.2764876031031529
 50
6.7363869999645472
 51
23.1780644133053713
  0
ARC
  5
2F1D3
  8
0
 10
3082.1192090294239279
 20
136.9806909644130997
 30
0.0
 40
0.1595428175347428
 50
30.7770461662896402
 51
73.2098294258749007
  0
ARC
  5
2F1D4
  8
0
 10
3082.0504000557348263
 20
136.9564969186353949
 30
0.0
 40
0.257994739770524
 50
5.5683698975388651
 51
27.1600093933337092
  0
ARC
  5
2F1D5
  8
0
 10
3082.1902988931151413
 20
137.0228593940281883
 30
0.0
 40
0.1033411355276955
 50
29.8308928766344117
 51
65.3573841091011332
  0
ARC
  5
2F1D6
  8
0
 10
3082.1431971164051902
 20
136.9005101748763025
 30
0.0
 40
0.2343305614734695
 50
67.3633290019767514
 51
83.7149897771936651
  0
ARC
  5
2F1D7
  8
0
 10
3082.7804112340199936
 20
136.9609095803969865
 30
0.0
 40
0.2441064676732705
 50
153.1229228625840051
 51
175.1540298976146914
  0
ARC
  5
2F1D8
  8
0
 10
3082.6547416200619409
 20
137.0220265860218944
 30
0.0
 40
0.104407510644554
 50
113.5119122242496985
 51
151.8620753462298012
  0
ARC
  5
2F1D9
  8
0
 10
3082.7246391659209621
 20
136.8069685171695937
 30
0.0
 40
0.3302095916869101
 50
98.6382477662647545
 51
109.7438255745615976
  0
ARC
  5
2F1DA
  8
0
 10
3082.7814033198210382
 20
136.9662662771546877
 30
0.0
 40
0.1809864220584003
 50
141.6030144788695111
 51
169.7626492758116967
  0
ARC
  5
2F1DB
  8
0
 10
3082.7719617244611072
 20
136.9772390291095121
 30
0.0
 40
0.1667939804688171
 50
121.567057934898699
 51
142.5426986357242072
  0
ARC
  5
2F1DC
  8
0
 10
3082.7589559120187914
 20
136.988460731987999
 30
0.0
 40
0.1505143697195221
 50
105.5974739676459961
 51
119.5846083379238962
  0
ARC
  5
2F1DD
  8
0
 10
3082.5339057229748505
 20
136.9699815504667981
 30
0.0
 40
0.1695547846899195
 50
9.6597526185194393
 51
28.5072998599824992
  0
ARC
  5
2F1DE
  8
0
 10
3082.6965685786490212
 20
137.0256404293400863
 30
0.0
 40
0.1165667444167782
 50
12.9351110173678094
 51
42.6511371065298519
  0
ARC
  5
2F1DF
  8
0
 10
3082.7061921577637804
 20
137.0250303708895956
 30
0.0
 40
0.1101227400015192
 50
46.2794549440179992
 51
79.8578519195227017
  0
ARC
  5
2F1E0
  8
0
 10
3082.7210919594658662
 20
136.9654901439670027
 30
0.0
 40
0.1829546911625294
 50
10.3730500584362595
 51
41.2759901934617517
  0
ARC
  5
2F1E1
  8
0
 10
3082.7366317633159269
 20
136.9825820290475917
 30
0.0
 40
0.1600216297663969
 50
40.3472234967568184
 51
58.8186110264480675
  0
ARC
  5
2F1E2
  8
0
 10
3082.7533124664009847
 20
137.0050797520864876
 30
0.0
 40
0.1321637028105085
 50
59.9556848145061778
 51
76.2070326913297578
  0
ARC
  5
2F1E3
  8
0
 10
3083.4036956427930818
 20
136.9653631695452134
 30
0.0
 40
0.1834033887163029
 50
135.7730281292512018
 51
169.6122820028026865
  0
ARC
  5
2F1E4
  8
0
 10
3083.3717447874028039
 20
137.0030168962763071
 30
0.0
 40
0.134326518114775
 50
103.8600614781199027
 51
137.77655601922919
  0
ARC
  5
2F1E5
  8
0
 10
3083.0401148446248953
 20
136.9588527098256066
 30
0.0
 40
0.2481011646305892
 50
359.9029170184800819
 51
28.4571118930119802
  0
ARC
  5
2F1E6
  8
0
 10
3083.1945231679551398
 20
137.013779011763603
 30
0.0
 40
0.1476169557534212
 50
14.8989642915656102
 51
44.2361620949480709
  0
ARC
  5
2F1E7
  8
0
 10
3083.7647773633489123
 20
136.9598510141412078
 30
0.0
 40
0.2485473612337267
 50
153.7071645030736136
 51
174.9959042648322907
  0
ARC
  5
2F1E8
  8
0
 10
3083.6473093652198258
 20
137.0126163319106922
 30
0.0
 40
0.1199526937202892
 50
127.587701906636795
 51
151.4486164198272888
  0
ARC
  5
2F1E9
  8
0
 10
3083.6592351673698431
 20
136.9704199247337897
 30
0.0
 40
0.161488008822854
 50
112.1378486528663956
 51
121.7987122476999957
  0
ARC
  5
2F1EA
  8
0
 10
3083.7323516790938811
 20
137.0170406095510884
 30
0.0
 40
0.1395553747825488
 50
142.0103317423252065
 51
165.6055216543867061
  0
ARC
  5
2F1EB
  8
0
 10
3083.4815799614862044
 20
137.0099427905975062
 30
0.0
 40
0.1611118188965992
 50
15.0338729098246908
 51
32.4455275910336525
  0
ARC
  5
2F1EC
  8
0
 10
3083.499989645030837
 20
136.965010849479512
 30
0.0
 40
0.1841254921125047
 50
10.4579960992811305
 51
43.8588152512014631
  0
ARC
  5
2F1ED
  8
0
 10
3083.5338500762168223
 20
137.0037207583488055
 30
0.0
 40
0.1329634855999849
 50
41.9407131541719096
 51
77.3021393826447252
  0
ARC
  5
2F1EE
  8
0
 10
3084.1788451945440102
 20
136.967628082284989
 30
0.0
 40
0.1782291932979389
 50
111.5204559839355056
 51
170.0473075750986141
  0
ARC
  5
2F1EF
  8
0
 10
3084.0305591912260752
 20
136.9606352551622876
 30
0.0
 40
0.1942108101090263
 50
11.2224537266356705
 51
62.8405558754422984
  0
ARC
  5
2F1F0
  8
0
 10
3084.1105646770151907
 20
136.9651848625051116
 30
0.0
 40
0.1835284386446717
 50
10.4371587655432805
 51
66.4537384193129128
  0
ARC
  5
2F1F1
  8
0
 10
3084.2251372990508571
 20
137.0293140771740923
 30
0.0
 40
0.1083841634871289
 50
11.9379538425775191
 51
50.3432077579826114
  0
ARC
  5
2F1F2
  8
0
 10
3084.2052060032588088
 20
136.9801015330058078
 30
0.0
 40
0.159801144954873
 50
56.1119224218691031
 51
73.6398182715174556
  0
ARC
  5
2F1F3
  8
0
 10
3084.6349876451808996
 20
137.0255596267145961
 30
0.0
 40
0.1167812486587745
 50
137.6391912170018941
 51
167.0483837930678988
  0
ARC
  5
2F1F4
  8
0
 10
3084.6213472928038755
 20
137.0300546895066987
 30
0.0
 40
0.1038394187928926
 50
95.4055217860789071
 51
134.398913406227507
  0
ARC
  5
2F1F5
  8
0
 10
3084.7930332922151138
 20
136.9656011838372081
 30
0.0
 40
0.1827090140089483
 50
138.7027133426900889
 51
169.6482464142792139
  0
ARC
  5
2F1F6
  8
0
 10
3084.7839494051859219
 20
136.9748706953928945
 30
0.0
 40
0.1697695341822822
 50
110.9357605589530067
 51
139.0297727185269139
  0
ARC
  5
2F1F7
  8
0
 10
3084.9814774905607919
 20
136.9602912341923115
 30
0.0
 40
0.2452217132796044
 50
152.5200487348635079
 51
170.1688838445743954
  0
ARC
  5
2F1F8
  8
0
 10
3084.8539206899658893
 20
137.0228322070915965
 30
0.0
 40
0.1032532242442518
 50
120.6525952887098043
 51
150.6469318133408137
  0
ARC
  5
2F1F9
  8
0
 10
3084.9440652032249091
 20
136.9688515853368074
 30
0.0
 40
0.1733100871914451
 50
149.1409770189731034
 51
170.1725842512960867
  0
ARC
  5
2F1FA
  8
0
 10
3084.9590114733819064
 20
136.9614646365535862
 30
0.0
 40
0.189934034832467
 50
136.1026268816711138
 51
149.5407297437105001
  0
ARC
  5
2F1FB
  8
0
 10
3084.6463762455869073
 20
136.9708821722497873
 30
0.0
 40
0.1669688394520303
 50
9.4973361550831985
 51
29.1777104744081583
  0
ARC
  5
2F1FC
  8
0
 10
3084.5788206580200494
 20
136.950066832226895
 30
0.0
 40
0.2900665924386087
 50
6.2454620970368557
 51
22.7695242369963715
  0
ARC
  5
2F1FD
  8
0
 10
3084.6891825860548124
 20
136.9643592565408881
 30
0.0
 40
0.1851445652678954
 50
31.9485549260642898
 51
51.5369036758794721
  0
ARC
  5
2F1FE
  8
0
 10
3084.7367821812258626
 20
137.0284373760422909
 30
0.0
 40
0.1053951179139546
 50
50.1307491741289297
 51
85.0055501205539343
  0
ARC
  5
2F1FF
  8
0
 10
3085.3906587854489771
 20
136.9666585206337004
 30
0.0
 40
0.1801842072959961
 50
140.2953241246626988
 51
169.8433142075078024
  0
ARC
  5
2F200
  8
0
 10
3085.3762245501848156
 20
136.9834414965251028
 30
0.0
 40
0.158400793830697
 50
117.8527932991054996
 51
141.6304979365260976
  0
ARC
  5
2F201
  8
0
 10
3085.4181958062022204
 20
137.0224767245701969
 30
0.0
 40
0.1245047442693862
 50
137.1989526315711032
 51
166.4092039814277086
  0
ARC
  5
2F202
  8
0
 10
3085.2396497252598238
 20
137.0232952642936084
 30
0.0
 40
0.1209193156458907
 50
13.6024889831876692
 51
43.8547226629953428
  0
ARC
  5
2F203
  8
0
 10
3085.2648201815832181
 20
137.041945489493088
 30
0.0
 40
0.0899360146486709
 50
46.3976348293257885
 51
72.6097175339768626
  0
ARC
  5
2F204
  8
0
 10
3085.5000199982118829
 20
136.9310379167584983
 30
0.0
 40
0.314039769227548
 50
161.1964605217397946
 51
174.9955977548767123
  0
ARC
  5
2F205
  8
0
 10
3085.3783067353369916
 20
136.9617528310346017
 30
0.0
 40
0.1891950193526976
 50
130.5285378766351982
 51
158.1194960074676032
  0
ARC
  5
2F206
  8
0
 10
3085.3404014462071245
 20
137.0072784162983908
 30
0.0
 40
0.1299622506399698
 50
103.9047559291561953
 51
130.8691513074143131
  0
ARC
  5
2F207
  8
0
 10
3085.4600465821799844
 20
137.0231150177120014
 30
0.0
 40
0.1205762804293949
 50
13.7300877214863792
 51
46.0430541128062174
  0
ARC
  5
2F208
  8
0
 10
3085.4741744834082056
 20
137.0215277076310088
 30
0.0
 40
0.1124787240678155
 50
51.7945326814913471
 51
73.7548737135824268
  0
ARC
  5
2F209
  8
0
 10
3085.4713493289659709
 20
136.9894346199446886
 30
0.0
 40
0.1442169523200917
 50
76.2449100960266009
 51
86.840243948074118
  0
ARC
  5
2F20A
  8
0
 10
3085.6780746971840017
 20
137.0185646380816138
 30
0.0
 40
0.1350344228157974
 50
149.2898642361776922
 51
165.7807352682274882
  0
ARC
  5
2F20B
  8
0
 10
3085.8734464125632257
 20
137.0291757662091072
 30
0.0
 40
0.1086368357629075
 50
129.7032277104507045
 51
168.0152872983653936
  0
ARC
  5
2F20C
  8
0
 10
3085.8701061584210947
 20
137.0216504911657012
 30
0.0
 40
0.1125347759607073
 50
96.6315960814338268
 51
125.9445675012375006
  0
ARC
  5
2F20D
  8
0
 10
3086.1597306147627933
 20
136.9701958057547984
 30
0.0
 40
0.1688106826005124
 50
151.1176157151114978
 51
170.3710245503739031
  0
ARC
  5
2F20E
  8
0
 10
3086.1731582697220801
 20
136.9656766995717874
 30
0.0
 40
0.18276839517597
 50
125.3234313916274942
 51
151.9103736858519085
  0
ARC
  5
2F20F
  8
0
 10
3086.1585641443039094
 20
137.0182379681901068
 30
0.0
 40
0.1355892579630527
 50
149.141648622406791
 51
165.6977270568501126
  0
ARC
  5
2F210
  8
0
 10
3085.9277274058249532
 20
137.0189915278832018
 30
0.0
 40
0.1335265165914711
 50
14.1942568977856798
 51
32.6408230459762905
  0
ARC
  5
2F211
  8
0
 10
3085.8801303806908436
 20
136.9579071898689051
 30
0.0
 40
0.2581270505514738
 50
5.271489418147973
 51
24.4798456072392803
  0
ARC
  5
2F212
  8
0
 10
3086.0190655090418659
 20
137.0210414359852109
 30
0.0
 40
0.1055201299857701
 50
24.5406918812781889
 51
65.9280423214836162
  0
ARC
  5
2F213
  8
0
 10
3085.979942143972039
 20
136.9188709201062863
 30
0.0
 40
0.2148455388315652
 50
67.5157390111701403
 51
87.0529642985884067
  0
ARC
  5
2F214
  8
0
 10
3086.6310464403709375
 20
136.9562186064480898
 30
0.0
 40
0.2650803969514299
 50
156.0486030061283884
 51
174.5204965876492906
  0
ARC
  5
2F215
  8
0
 10
3086.4856950611338107
 20
137.0205238598381072
 30
0.0
 40
0.1061400111371398
 50
120.0924955723506002
 51
155.9195155035976939
  0
ARC
  5
2F216
  8
0
 10
3086.507664593969821
 20
136.9734181399902866
 30
0.0
 40
0.15797943693803
 50
97.2003988985772622
 51
118.4202110455027963
  0
ARC
  5
2F217
  8
0
 10
3086.6739499434138452
 20
135.6185330953931896
 30
0.0
 40
1.5230295693922671
 50
95.9228570528284195
 51
97.0180379978333605
  0
ARC
  5
2F218
  8
0
 10
3086.4881826213832028
 20
137.0275020343412962
 30
0.0
 40
0.1116558063688821
 50
12.5340716013716502
 51
49.9739448980633867
  0
ARC
  5
2F219
  8
0
 10
3086.4988562997341432
 20
137.030745802994204
 30
0.0
 40
0.1024881903125721
 50
53.3789875768296582
 51
83.9824247440273126
  0
ARC
  5
2F21A
  8
0
 10
3086.6090602862350352
 20
137.028059135676699
 30
0.0
 40
0.1106787206415062
 50
12.3511486939316804
 51
49.9300129066078924
  0
ARC
  5
2F21B
  8
0
 10
3086.6153076266718926
 20
137.0236639293106862
 30
0.0
 40
0.1102835168596107
 50
53.8868590638368374
 51
84.4600346588512139
  0
ARC
  5
2F21C
  8
0
 10
3086.804249858374078
 20
137.0177251904511024
 30
0.0
 40
0.1372089254585239
 50
14.3508272192693198
 51
30.7016740123383585
  0
ARC
  5
2F21D
  8
0
 10
3086.8688623462348914
 20
137.0280859314476061
 30
0.0
 40
0.1108663688103647
 50
12.3157398831740998
 51
48.5811646453275969
  0
ARC
  5
2F21E
  8
0
 10
3086.7905575094309825
 20
136.9652819737050891
 30
0.0
 40
0.1835179207931512
 50
10.4069361235996407
 51
43.2165317009269927
  0
ARC
  5
2F21F
  8
0
 10
3087.0211232006240607
 20
137.0253240545447966
 30
0.0
 40
0.116966323504176
 50
136.1456814462192995
 51
166.9508072223345039
  0
ARC
  5
2F220
  8
0
 10
3087.00013039532314
 20
137.0410945714475019
 30
0.0
 40
0.0909574249282608
 50
104.6758004705981051
 51
134.1470441301468099
  0
ARC
  5
2F221
  8
0
 10
3086.8279041283649349
 20
137.7666871813887894
 30
0.0
 40
0.6548225184212088
 50
283.1688132274081227
 51
284.7460812754479207
  0
ARC
  5
2F222
  8
0
 10
3087.3521365443020841
 20
137.0009659851681079
 30
0.0
 40
0.1918000363718292
 50
156.6135337820319933
 51
164.6514491520011063
  0
ARC
  5
2F223
  8
0
 10
3087.0367200403670722
 20
136.9677061723722886
 30
0.0
 40
0.177023426764995
 50
9.995515595210902
 51
34.6730667019264516
  0
ARC
  5
2F224
  8
0
 10
3087.0353331449900907
 20
136.969824121973403
 30
0.0
 40
0.1769772354958943
 50
33.8536939703310367
 51
55.287018084849862
  0
ARC
  5
2F225
  8
0
 10
3087.0676724309100791
 20
137.0144726264751114
 30
0.0
 40
0.1218648746192963
 50
55.8312737001704988
 51
77.4642216164561006
  0
ARC
  5
2F226
  8
0
 10
3087.7152800507728898
 20
136.9645664907799016
 30
0.0
 40
0.1851061460079281
 50
133.1025326402051974
 51
169.4581549717690052
  0
ARC
  5
2F227
  8
0
 10
3087.6750083283131971
 20
137.013827713331608
 30
0.0
 40
0.1216955087676428
 50
100.6363023283720963
 51
135.1071037721980019
  0
ARC
  5
2F228
  8
0
 10
3088.0068562406709134
 20
136.9600360123108942
 30
0.0
 40
0.2505987049869485
 50
155.777005289672303
 51
173.1886257561750142
  0
ARC
  5
2F229
  8
0
 10
3087.8870120752708317
 20
137.0127543446558036
 30
0.0
 40
0.1196814006690567
 50
137.7050964951201877
 51
155.2532724308995
  0
ARC
  5
2F22A
  8
0
 10
3087.6978339051979674
 20
137.0230398708908979
 30
0.0
 40
0.1227443981686719
 50
13.5190164581086094
 51
38.8902772193904198
  0
ARC
  5
2F22B
  8
0
 10
3087.7237491769778899
 20
137.0404532007530065
 30
0.0
 40
0.0916808872763179
 50
40.5883533886899599
 51
72.1947788280238427
  0
ARC
  5
2F22C
  8
0
 10
3087.7081635207669024
 20
136.9823321912759013
 30
0.0
 40
0.1518121434868464
 50
73.3018869879712156
 51
84.448659890999366
  0
ARC
  5
2F22D
  8
0
 10
3088.4304247255809059
 20
136.9423966252738865
 30
0.0
 40
0.3355364741832768
 50
162.8018676890773122
 51
173.2864643269111866
  0
ARC
  5
2F22E
  8
0
 10
3088.004504548658133
 20
137.0306722919850984
 30
0.0
 40
0.1048106976490312
 50
11.5922900049362507
 51
59.7912071233271476
  0
ARC
  5
2F22F
  8
0
 10
3088.1152026235417907
 20
137.0283716729990999
 30
0.0
 40
0.1105225735090465
 50
132.7284806282690113
 51
167.796945022058992
  0
ARC
  5
2F230
  8
0
 10
3088.1087115320669909
 20
137.0264011501622861
 30
0.0
 40
0.1077388309103096
 50
96.5705424486690021
 51
129.4799490194469911
  0
ARC
  5
2F231
  8
0
 10
3088.0977189237928542
 20
137.0272486778021062
 30
0.0
 40
0.1121635321034906
 50
12.6090026042356804
 51
49.67215899629511
  0
ARC
  5
2F232
  8
0
 10
3088.1073100685312056
 20
137.0272319872046864
 30
0.0
 40
0.1062219503701091
 50
53.6251073651843484
 51
88.8441248567787056
  0
ARC
  5
2F233
  8
0
 10
3088.0764212850908734
 20
136.9429189126207973
 30
0.0
 40
0.3330022079070106
 50
6.6585135427417512
 51
17.2390281677697104
  0
ARC
  5
2F234
  8
0
 10
3088.2866380750820099
 20
137.015191803256414
 30
0.0
 40
0.1452122237611861
 50
14.5748190752784197
 51
30.0651348564395384
  0
ARC
  5
2F235
  8
0
 10
3088.5227194963540569
 20
137.0205208554880869
 30
0.0
 40
0.1293640729150943
 50
145.2940080735932042
 51
166.03768973674471
  0
ARC
  5
2F236
  8
0
 10
3088.4885383022487986
 20
137.0432190971320097
 30
0.0
 40
0.0883442851578456
 50
116.1209019178066058
 51
144.7740446037931861
  0
ARC
  5
2F237
  8
0
 10
3088.5016083241348497
 20
137.0105321697153897
 30
0.0
 40
0.1234756606415922
 50
95.5340261630748557
 51
114.8884377097951983
  0
ARC
  5
2F238
  8
0
 10
3088.7451958517399362
 20
137.0196146451283141
 30
0.0
 40
0.1319862260579093
 50
147.209915763298909
 51
165.9156104447104099
  0
ARC
  5
2F239
  8
0
 10
3088.5077161649210211
 20
136.9680373447343982
 30
0.0
 40
0.175985006818761
 50
9.9456226088210986
 51
33.5081986558363383
  0
ARC
  5
2F23A
  8
0
 10
3088.5045430182340169
 20
136.9690440896563928
 30
0.0
 40
0.1780938696364731
 50
32.6745411860049799
 51
54.6175466942941412
  0
ARC
  5
2F23B
  8
0
 10
3088.5425331434680629
 20
137.0230435747116928
 30
0.0
 40
0.1120707163009732
 50
54.4673123801367467
 51
80.0609453032796239
  0
ARC
  5
2F23C
  8
0
 10
3089.1688212906151421
 20
136.9724790388789017
 30
0.0
 40
0.1675454071884832
 50
137.2621296601456891
 51
171.0888300968290139
  0
ARC
  5
2F23D
  8
0
 10
3089.154249173800963
 20
136.9981830283207103
 30
0.0
 40
0.139688338596149
 50
104.483019813135499
 51
140.9518550126919934
  0
ARC
  5
2F23E
  8
0
 10
3089.4143811177950738
 20
136.9745930574842134
 30
0.0
 40
0.1529521359093117
 50
158.0432664336017865
 51
171.0332679396937863
  0
ARC
  5
2F23F
  8
0
 10
3089.1479618634061808
 20
137.0232018559709104
 30
0.0
 40
0.1225821848314153
 50
13.4593826366407399
 51
37.9421322330574711
  0
ARC
  5
2F240
  8
0
 10
3089.1759222423111169
 20
137.0434929965776121
 30
0.0
 40
0.0880634483731034
 50
38.7161456969135571
 51
67.8298540153909642
  0
ARC
  5
2F241
  8
0
 10
3089.1527673518307893
 20
136.9766688499792053
 30
0.0
 40
0.158729662027161
 50
69.1921395732846776
 51
80.972436826976903
  0
ARC
  5
2F242
  8
0
 10
3089.5861881571240701
 20
137.0193392127322909
 30
0.0
 40
0.1330157302674469
 50
149.1091624807006895
 51
165.9045514366410998
  0
ARC
  5
2F243
  8
0
 10
3089.5508364838788111
 20
137.0407511458267038
 30
0.0
 40
0.0916861004235762
 50
124.9329593369507023
 51
149.2497023575928097
  0
ARC
  5
2F244
  8
0
 10
3089.5526821186231246
 20
137.0357225562628969
 30
0.0
 40
0.0968751311099249
 50
99.1213049859246382
 51
124.1248099253449055
  0
ARC
  5
2F245
  8
0
 10
3089.5615113056092014
 20
136.9904878259378052
 30
0.0
 40
0.1429458818224528
 50
90.2521941621682373
 51
99.7412659721596953
  0
ARC
  5
2F246
  8
0
 10
3089.5462807905591944
 20
137.0183704732129115
 30
0.0
 40
0.1350814820420073
 50
14.29918029004358
 51
32.492454230525837
  0
ARC
  5
2F247
  8
0
 10
3089.5854850310802249
 20
137.0427320506877038
 30
0.0
 40
0.0889289009827628
 50
32.8223303599701097
 51
66.4849243874141251
  0
ARC
  5
2F248
  8
0
 10
3089.5750380335871341
 20
137.0145960575841002
 30
0.0
 40
0.1189079960443447
 50
67.278345057858175
 51
88.0097567151132267
  0
ARC
  5
2F249
  8
0
 10
3089.799404366059207
 20
137.0145182890173032
 30
0.0
 40
0.1470153163690451
 50
154.1137741124877891
 51
165.3366623004154974
  0
ARC
  5
2F24A
  8
0
 10
3089.5585866546689431
 20
136.9684853411573044
 30
0.0
 40
0.175050465424726
 50
9.8504019482837393
 51
34.978194367057597
  0
ARC
  5
2F24B
  8
0
 10
3089.5599830652467972
 20
136.9739562557377042
 30
0.0
 40
0.1708096998432752
 50
33.7429577080088876
 51
59.0360954517226872
  0
ARC
  5
2F24C
  8
0
 10
3089.5994321872572073
 20
137.0389640037473953
 30
0.0
 40
0.0947703745972579
 50
59.2664004903700175
 51
85.4242742043347931
  0
LINE
  5
2F24D
  8
0
 10
3090.0720134077841976
 20
136.9584323230282052
 30
0.0
 11
3090.0470134077841067
 21
137.0517335932281924
 31
0.0
  0
ARC
  5
2F24E
  8
0
 10
3089.9286956036658012
 20
137.0233933653913994
 30
0.0
 40
0.1216645698036782
 50
13.4704035043970105
 51
40.3396660688640623
  0
ARC
  5
2F24F
  8
0
 10
3089.9555217325528247
 20
137.0432472094682907
 30
0.0
 40
0.0883935895351482
 50
41.7865923597944828
 51
69.810689757850497
  0
ARC
  5
2F250
  8
0
 10
3089.9288904130271476
 20
136.9587098746397942
 30
0.0
 40
0.1769772050133288
 50
71.1643240756294944
 51
80.8443122995707455
  0
ENDSEC
  0
EOF
