  0
SECTION
  2
HEADER
  9
$ACADVER
  1
AC1009
  9
$INSBASE
 10
8.9757218694499983
 20
20.496258993725
 30
0.0
  9
$EXTMIN
 10
-0.7787273100000001
 20
10.7429221091
 30
0.0
  9
$EXTMAX
 10
18.73017104894069
 20
30.251820468140689
 30
0.0
  9
$LIMMIN
 10
0.0
 20
0.0
  9
$LIMMAX
 10
22.0
 20
17.0
  9
$ORTHOMODE
 70
     1
  9
$REGENMODE
 70
     1
  9
$FILLMODE
 70
     1
  9
$QTEXTMODE
 70
     0
  9
$MIRRTEXT
 70
     0
  9
$DRAGMODE
 70
     2
  9
$LTSCALE
 40
1.2099999999999991
  9
$OSMODE
 70
  3071
  9
$ATTMODE
 70
     1
  9
$TEXTSIZE
 40
0.2
  9
$TRACEWID
 40
0.05
  9
$TEXTSTYLE
  7
STANDARD
  9
$CLAYER
  8
0
  9
$CELTYPE
  6
BYLAYER
  9
$CECOLOR
 62
   256
  9
$DIMSCALE
 40
1.0
  9
$DIMASZ
 40
0.1875
  9
$DIMEXO
 40
0.0625
  9
$DIMDLI
 40
0.8359999999999999
  9
$DIMRND
 40
0.0
  9
$DIMDLE
 40
0.0
  9
$DIMEXE
 40
0.125
  9
$DIMTP
 40
0.0
  9
$DIMTM
 40
0.0
  9
$DIMTXT
 40
0.15625
  9
$DIMCEN
 40
0.198
  9
$DIMTSZ
 40
0.0
  9
$DIMTOL
 70
     0
  9
$DIMLIM
 70
     0
  9
$DIMTIH
 70
     1
  9
$DIMTOH
 70
     1
  9
$DIMSE1
 70
     0
  9
$DIMSE2
 70
     0
  9
$DIMTAD
 70
     0
  9
$DIMZIN
 70
     0
  9
$DIMBLK
  1

  9
$DIMASO
 70
     1
  9
$DIMSHO
 70
     1
  9
$DIMPOST
  1

  9
$DIMAPOST
  1

  9
$DIMALT
 70
     0
  9
$DIMALTD
 70
     2
  9
$DIMALTF
 40
25.399999999999999
  9
$DIMLFAC
 40
1.0
  9
$DIMTOFL
 70
     0
  9
$DIMTVP
 40
0.0
  9
$DIMTIX
 70
     0
  9
$DIMSOXD
 70
     0
  9
$DIMSAH
 70
     0
  9
$DIMBLK1
  1

  9
$DIMBLK2
  1

  9
$DIMSTYLE
  2
STANDARD
  9
$DIMCLRD
 70
     0
  9
$DIMCLRE
 70
     0
  9
$DIMCLRT
 70
     0
  9
$DIMTFAC
 40
1.0
  9
$DIMGAP
 40
0.09
  9
$LUNITS
 70
     2
  9
$LUPREC
 70
     4
  9
$SKETCHINC
 40
0.1
  9
$FILLETRAD
 40
0.0
  9
$AUNITS
 70
     0
  9
$AUPREC
 70
     0
  9
$MENU
  1
.
  9
$ELEVATION
 40
0.0
  9
$PELEVATION
 40
0.0
  9
$THICKNESS
 40
0.0
  9
$LIMCHECK
 70
     0
  9
$BLIPMODE
 70
     0
  9
$CHAMFERA
 40
0.0
  9
$CHAMFERB
 40
0.0
  9
$SKPOLY
 70
     0
  9
$TDCREATE
 40
2457997.6628764239
  9
$TDUPDATE
 40
2458219.6854506829
  9
$TDINDWG
 40
0.1135406597
  9
$TDUSRTIMER
 40
0.1135406597
  9
$USRTIMER
 70
     1
  9
$ANGBASE
 50
0.0
  9
$ANGDIR
 70
     0
  9
$PDMODE
 70
     0
  9
$PDSIZE
 40
0.3125
  9
$PLINEWID
 40
0.0
  9
$COORDS
 70
     1
  9
$SPLFRAME
 70
     0
  9
$SPLINETYPE
 70
     6
  9
$SPLINESEGS
 70
     8
  9
$ATTDIA
 70
     1
  9
$ATTREQ
 70
     1
  9
$HANDLING
 70
     1
  9
$HANDSEED
  5
3639
  9
$SURFTAB1
 70
     6
  9
$SURFTAB2
 70
     6
  9
$SURFTYPE
 70
     6
  9
$SURFU
 70
     6
  9
$SURFV
 70
     6
  9
$UCSNAME
  2

  9
$UCSORG
 10
0.0
 20
0.0
 30
0.0
  9
$UCSXDIR
 10
1.0
 20
0.0
 30
0.0
  9
$UCSYDIR
 10
0.0
 20
1.0
 30
0.0
  9
$PUCSNAME
  2

  9
$PUCSORG
 10
0.0
 20
0.0
 30
0.0
  9
$PUCSXDIR
 10
1.0
 20
0.0
 30
0.0
  9
$PUCSYDIR
 10
0.0
 20
1.0
 30
0.0
  9
$USERI1
 70
     0
  9
$USERI2
 70
     0
  9
$USERI3
 70
     0
  9
$USERI4
 70
     0
  9
$USERI5
 70
     0
  9
$USERR1
 40
0.0
  9
$USERR2
 40
0.0
  9
$USERR3
 40
0.0
  9
$USERR4
 40
0.0
  9
$USERR5
 40
0.0
  9
$WORLDVIEW
 70
     1
  9
$SHADEDGE
 70
     3
  9
$SHADEDIF
 70
    70
  9
$TILEMODE
 70
     1
  9
$MAXACTVP
 70
    48
  9
$PLIMCHECK
 70
     0
  9
$PEXTMIN
 10
1.0000000000000000E+020
 20
1.0000000000000000E+020
 30
1.0000000000000000E+020
  9
$PEXTMAX
 10
-1.0000000000000000E+020
 20
-1.0000000000000000E+020
 30
-1.0000000000000000E+020
  9
$PLIMMIN
 10
0.0
 20
0.0
  9
$PLIMMAX
 10
12.0
 20
9.0
  9
$UNITMODE
 70
     0
  9
$VISRETAIN
 70
     1
  9
$PLINEGEN
 70
     0
  9
$PSLTSCALE
 70
     1
  0
ENDSEC
  0
SECTION
  2
TABLES
  0
TABLE
  2
VPORT
 70
     1
  0
VPORT
  2
*ACTIVE
 70
     0
 10
0.0
 20
0.0
 11
1.0
 21
1.0
 12
0.0
 22
0.0
 13
0.0
 23
0.0
 14
1.0
 24
1.0
 15
0.0
 25
0.0
 16
-0.0000000000000178
 26
0.0
 36
77.581968389463157
 17
8.9757218694500018
 27
20.4973712886
 37
0.0
 40
27.58974864618531
 41
2.0983240223463682
 42
50.0
 43
0.0
 44
0.0
 50
0.0
 51
0.0
 71
     0
 72
   100
 73
     1
 74
     1
 75
     0
 76
     0
 77
     0
 78
     0
  0
ENDTAB
  0
TABLE
  2
LTYPE
 70
     2
  0
LTYPE
  2
CONTINUOUS
 70
     0
  3
Solid line
 72
    65
 73
     0
 40
0.0
  0
LTYPE
  2
PHANTOM2
 70
     0
  3
___ _ _ ___ _ _ ___ _ _ ___ _ _
 72
    65
 73
     6
 40
1.25
 49
0.625
 49
-0.125
 49
0.125
 49
-0.125
 49
0.125
 49
-0.125
  0
ENDTAB
  0
TABLE
  2
LAYER
 70
     2
  0
LAYER
  2
0
 70
     0
 62
     7
  6
CONTINUOUS
  0
LAYER
  2
DEFPOINTS
 70
     0
 62
     7
  6
CONTINUOUS
  0
ENDTAB
  0
TABLE
  2
STYLE
 70
     1
  0
STYLE
  2
STANDARD
 70
     0
 40
0.0
 41
0.8
 50
0.0
 71
     0
 42
0.2
  3
txt
  4

  0
ENDTAB
  0
TABLE
  2
VIEW
 70
     0
  0
ENDTAB
  0
TABLE
  2
UCS
 70
     0
  0
ENDTAB
  0
TABLE
  2
APPID
 70
     5
  0
APPID
  2
ACAD
 70
     0
  0
APPID
  2
ACAD_MLEADERVER
 70
     0
  0
APPID
  2
ACAD_EXEMPT_FROM_CAD_STANDARDS
 70
     0
  0
APPID
  2
ACAD_NAV_VCDISPLAY
 70
     0
  0
APPID
  2
ACDBATTR
 70
     0
  0
ENDTAB
  0
TABLE
  2
DIMSTYLE
 70
     1
  0
DIMSTYLE
  2
STANDARD
 70
     0
  3

  4

  5

  6

  7

 40
1.0
 41
0.1875
 42
0.0625
 43
0.38
 44
0.125
 45
0.0
 46
0.0
 47
1.5
 48
1.5
140
0.15625
141
0.09
142
0.0
143
25.399999999999999
144
1.0
145
0.0
146
1.0
147
0.09
 71
     0
 72
     0
 73
     1
 74
     1
 75
     0
 76
     0
 77
     0
 78
     4
170
     0
171
     2
172
     0
173
     0
174
     0
175
     0
176
     0
177
     0
178
     0
  0
ENDTAB
  0
ENDSEC
  0
SECTION
  2
BLOCKS
  0
BLOCK
  8
0
  2
$MODEL_SPACE
 70
     0
 10
0.0
 20
0.0
 30
0.0
  3
$MODEL_SPACE
  1

  0
ENDBLK
  5
21
  8
0
  0
BLOCK
 67
     1
  8
0
  2
$PAPER_SPACE
 70
     0
 10
0.0
 20
0.0
 30
0.0
  3
$PAPER_SPACE
  1

  0
ENDBLK
  5
1D
 67
     1
  8
0
  0
ENDSEC
  0
SECTION
  2
ENTITIES
  0
LINE
  5
228
  8
0
 10
-0.4742781306000001
 20
29.547371288600001
 30
0.0
 11
-0.0742781306
 21
29.94737128860001
 31
0.0
  0
LINE
  5
22C
  8
0
 10
-0.0742781306
 20
11.047371288600001
 30
0.0
 11
-0.4742781306000001
 21
11.447371288599999
 31
0.0
  0
LINE
  5
2AD
  8
0
 10
-0.7165027867
 20
29.674615554399999
 30
0.0
 11
-0.7163574684729575
 21
11.317899453299971
 31
0.0
  0
LINE
  5
2B6
  8
0
 10
-0.6168963903
 20
11.1497201238
 30
0.0
 11
-0.6168963903
 21
29.845022453999999
 31
0.0
  0
LINE
  5
2B7
  8
0
 10
-0.5151508838000001
 20
29.843264058999999
 30
0.0
 11
-0.5151508838000001
 21
11.151478518199999
 31
0.0
  0
LINE
  5
2B9
  8
0
 10
-0.4742781306000001
 20
11.447371288599999
 30
0.0
 11
-0.4742781306000001
 21
29.547371288600001
 31
0.0
  0
LINE
  5
2E5
  8
0
 10
1.7681558505999999
 20
27.634465483300001
 30
0.0
 11
1.9607777063999989
 21
27.7456757637
 31
0.0
  0
LINE
  5
2EC
  8
0
 10
2.1832878838999989
 20
27.360277091299999
 30
0.0
 11
1.9906660283999991
 21
27.249066811199999
 31
0.0
  0
LINE
  5
306
  8
0
 10
-0.1939284504372061
 20
10.8073951440547
 30
0.0
 11
18.1529661352
 21
10.8051466324
 31
0.0
  0
LINE
  5
30F
  8
0
 10
18.323373353699999
 20
10.9047530289
 30
0.0
 11
-0.3719292959
 21
10.9047530289
 31
0.0
  0
LINE
  5
310
  8
0
 10
-0.370170901
 20
11.0064985354
 30
0.0
 11
18.3216147895
 21
11.0064985354
 31
0.0
  0
LINE
  5
312
  8
0
 10
18.025721869400002
 20
11.047371288600001
 30
0.0
 11
-0.0742781306
 21
11.047371288600001
 31
0.0
  0
LINE
  5
34E
  8
0
 10
-0.0942781306
 20
29.5673712886
 30
0.0
 11
-0.0942781306
 21
11.4273712886
 31
0.0
  0
LINE
  5
358
  8
0
 10
0.4116668159000001
 20
12.8723712886
 30
0.0
 11
0.4116668159000001
 21
28.1223712886
 31
0.0
  0
LINE
  5
369
  8
0
 10
-0.0942781306
 20
11.4273712886
 30
0.0
 11
18.045721869400001
 21
11.4273712886
 31
0.0
  0
LINE
  5
36F
  8
0
 10
16.600721869400001
 20
11.9333162351
 30
0.0
 11
1.3507218694000001
 21
11.9333162351
 31
0.0
  0
LINE
  5
37E
  8
0
 10
0.8308685532
 20
19.9973712886
 30
0.0
 11
0.8308685532
 21
21.4973712886
 31
0.0
  0
LINE
  5
37F
  8
0
 10
0.9757218693999998
 20
12.6223712886
 30
0.0
 11
0.9757218693999998
 21
28.3723712886
 31
0.0
  0
LINE
  5
394
  8
0
 10
16.850721869400001
 20
12.4973712886
 30
0.0
 11
15.100721869399999
 21
12.4973712886
 31
0.0
  0
LINE
  5
395
  8
0
 10
2.9227277150999988
 20
12.4973712886
 30
0.0
 11
1.1007218694000001
 21
12.4973712886
 31
0.0
  0
LINE
  5
397
  8
0
 10
9.9757218693999992
 20
12.5449408785
 30
0.0
 11
8.4757218693999992
 21
12.5449408785
 31
0.0
  0
LINE
  5
3A4
  8
0
 10
1.7532118046
 20
27.608581504699998
 30
0.0
 11
1.7532118046
 21
27.3861609408
 31
0.0
  0
LINE
  5
3B3
  8
0
 10
2.198231934199999
 20
27.386161077699999
 30
0.0
 11
2.198231934199999
 21
27.6085816314
 31
0.0
  0
LINE
  5
3CF
  8
0
 10
2.9757218694000001
 20
28.3723712886
 30
0.0
 11
2.9757218694000001
 21
16.9581514578
 31
0.0
  0
LINE
  5
427
  8
0
 10
17.237598568100001
 20
11.9020940632
 30
0.0
 11
17.4079568953
 21
11.7756517314
 31
0.0
  0
LINE
  5
439
  8
0
 10
3.5772757570999989
 20
16.714798542099999
 30
0.0
 11
14.9388753495
 21
28.459283044199999
 31
0.0
  0
LINE
  5
445
  8
0
 10
17.726181626399999
 20
12.036396063
 30
0.0
 11
17.896539953600001
 21
11.9099537312
 31
0.0
  0
LINE
  5
479
  8
0
 10
17.368846650599998
 20
11.8181099448
 30
0.0
 11
17.39341845089988
 21
11.79601269750011
 31
0.0
  0
LINE
  5
47A
  8
0
 10
17.457058061199991
 20
11.732373087199999
 30
0.0
 11
17.479155308399999
 21
11.707801286900001
 31
0.0
  0
LINE
  5
4AC
  8
0
 10
17.764054594600001
 20
11.992700573
 30
0.0
 11
17.721940783200001
 21
12.037332688699999
 31
0.0
  0
LINE
  5
4AE
  8
0
 10
17.654983213200001
 20
12.104246507399999
 30
0.0
 11
17.70018087215
 21
12.06051697795
 31
0.0
  0
LINE
  5
4C4
  8
0
 10
14.374167981799999
 20
24.279944035100002
 30
0.0
 11
3.0125683893000001
 21
12.535459532999999
 31
0.0
  0
LINE
  5
4DD
  8
0
 10
17.436697095
 20
11.7469115316
 30
0.0
 11
17.563139426900001
 21
11.5765532045
 31
0.0
  0
LINE
  5
4E0
  8
0
 10
17.570999094800001
 20
12.2354945899
 30
0.0
 11
17.697441426600001
 21
12.065136262699999
 31
0.0
  0
LINE
  5
502
  8
0
 10
1.9607778236
 20
27.249066745900009
 30
0.0
 11
1.7681559632999999
 21
27.360277028799999
 31
0.0
  0
LINE
  5
509
  8
0
 10
1.990665920099999
 20
27.745675828500001
 30
0.0
 11
2.1832877709999989
 21
27.6344655511
 31
0.0
  0
LINE
  5
526
  8
0
 10
13.946222022900001
 20
27.433177387600001
 30
0.0
 11
13.946222022900001
 21
28.218023735399999
 31
0.0
  0
LINE
  5
532
  8
0
 10
14.975721869399999
 20
12.6223712886
 30
0.0
 11
14.975721869399999
 21
24.036591119400001
 31
0.0
  0
LINE
  5
58F
  8
0
 10
14.994247247700001
 20
28.492315980800001
 30
0.0
 11
7.9757218694000001
 21
28.492315980800001
 31
0.0
  0
LINE
  5
590
  8
0
 10
1.1007218694000001
 20
28.4973712886
 30
0.0
 11
2.8507218694000001
 21
28.4973712886
 31
0.0
  0
LINE
  5
5A5
  8
0
 10
17.5397769229
 20
28.1223712886
 30
0.0
 11
17.5397769229
 21
12.8723712886
 31
0.0
  0
LINE
  5
5AF
  8
0
 10
18.045721869400001
 20
11.4273712886
 30
0.0
 11
18.045721869400001
 21
29.5673712886
 31
0.0
  0
LINE
  5
5CB
  8
0
 10
1.3507218694000001
 20
29.061426342099999
 30
0.0
 11
16.600721869400001
 21
29.061426342099999
 31
0.0
  0
LINE
  5
5D1
  8
0
 10
18.045721869400001
 20
29.5673712886
 30
0.0
 11
-0.0942781306
 21
29.5673712886
 31
0.0
  0
LINE
  5
5F4
  8
0
 10
18.4257218694
 20
29.547371288600001
 30
0.0
 11
18.4257218694
 21
11.447371288599999
 31
0.0
  0
LINE
  5
5F6
  8
0
 10
18.466594622700001
 20
11.151478368499999
 30
0.0
 11
18.466594622700001
 21
29.843264208699999
 31
0.0
  0
LINE
  5
5F7
  8
0
 10
18.568340129199999
 20
29.845022772800011
 30
0.0
 11
18.568340129199999
 21
11.1497198038
 31
0.0
  0
LINE
  5
600
  8
0
 10
18.667946525600001
 20
11.320127022799999
 30
0.0
 11
18.665721869399999
 21
29.667103220128631
 31
0.0
  0
LINE
  5
63F
  8
0
 10
-0.0742781306
 20
29.94737128860001
 30
0.0
 11
18.025721869400002
 21
29.94737128860001
 31
0.0
  0
LINE
  5
641
  8
0
 10
18.3216147895
 20
29.988244041800002
 30
0.0
 11
-0.370170901
 21
29.988244041800002
 31
0.0
  0
LINE
  5
642
  8
0
 10
-0.3719292954
 20
30.0899895483
 30
0.0
 11
18.323373354200001
 21
30.0899895483
 31
0.0
  0
LINE
  5
64B
  8
0
 10
18.145404016853519
 20
30.187371288600009
 30
0.0
 11
-0.2015223962993241
 21
30.18959594470001
 31
0.0
  0
LINE
  5
655
  8
0
 10
-0.2037492043
 20
30.2473712886
 30
0.0
 11
18.155192943100001
 21
30.251820467999998
 31
0.0
  0
LINE
  5
69D
  8
0
 10
17.216403441499999
 20
11.9270010195
 30
0.0
 11
17.546092138599999
 21
12.2566897165
 31
0.0
  0
LINE
  5
6A1
  8
0
 10
17.584137483450981
 20
12.10411145574866
 30
0.0
 11
17.368981702250981
 21
11.888955674548651
 31
0.0
  0
LINE
  5
6BF
  8
0
 10
17.412773574022339
 20
11.772956006639051
 30
0.0
 11
17.496228155885639
 21
11.85639589393465
 31
0.0
  0
LINE
  5
6C0
  8
0
 10
17.61669720423129
 20
11.976865044031291
 30
0.0
 11
17.7001495787
 21
12.0603174185
 31
0.0
  0
LINE
  5
6C1
  8
0
 10
17.433988942999999
 20
11.751730375899999
 30
0.0
 11
17.517441317427512
 21
11.83518275032751
 31
0.0
  0
LINE
  5
6C2
  8
0
 10
17.637910387468288
 20
11.95565186941286
 30
0.0
 11
17.721366297199999
 21
12.0391006959
 31
0.0
  0
LINE
  5
6C8
  8
0
 10
17.765156819449011
 20
11.923092119851329
 30
0.0
 11
17.550001038249022
 21
11.70793633855134
 31
0.0
  0
LINE
  5
6CC
  8
0
 10
17.5880463831
 20
11.555358077899999
 30
0.0
 11
17.9177350802
 21
11.885046774899999
 31
0.0
  0
LINE
  5
6CD
  8
0
 10
18.4257218694
 20
11.447371288599999
 30
0.0
 11
18.025721869400002
 21
11.047371288600001
 31
0.0
  0
LINE
  5
6E8
  8
0
 10
18.025721869400002
 20
29.94737128860001
 30
0.0
 11
18.4257218694
 21
29.547371288600001
 31
0.0
  0
ARC
  5
1663
  8
0
 10
1.1007218694000001
 20
12.6223712886
 30
0.0
 40
0.125
 50
180.0
 51
270.0
  0
ARC
  5
1666
  8
0
 10
1.3507218694000001
 20
12.8723712886
 30
0.0
 40
0.9390550534999999
 50
180.0
 51
270.0
  0
ARC
  5
166D
  8
0
 10
1.9757218694000001
 20
13.4973712886
 30
0.0
 40
1.166142892699999
 50
149.0401322376419
 51
210.95986776235799
  0
ARC
  5
166E
  8
0
 10
1.9757218694000001
 20
13.4973712886
 30
0.0
 40
1.166142892699999
 50
239.0401322376421
 51
300.95986776235787
  0
ARC
  5
167A
  8
0
 10
2.9227277150999988
 20
12.6223712886
 30
0.0
 40
0.125
 50
270.0
 51
315.9493465874001
  0
ARC
  5
167E
  8
0
 10
3.3257218694000001
 20
16.9581514578
 30
0.0
 40
0.35
 50
180.0
 51
315.94934657329998
  0
ARC
  5
167F
  8
0
 10
8.4757218693999992
 20
19.9973712886
 30
0.0
 40
7.644853316199999
 50
180.0
 51
191.17134365939191
  0
ARC
  5
1682
  8
0
 10
8.4757218693999992
 20
19.9973712886
 30
0.0
 40
7.452430410099999
 50
235.69661847514271
 51
270.0
  0
ARC
  5
1684
  8
0
 10
1.1007218694000001
 20
28.3723712886
 30
0.0
 40
0.125
 50
90.0
 51
180.0
  0
CIRCLE
  5
169F
  8
0
 10
1.2257218694000001
 20
27.4973712886
 30
0.0
 40
0.1015
  0
CIRCLE
  5
16A0
  8
0
 10
1.9757218694000001
 20
26.7473712886
 30
0.0
 40
0.1015
  0
ARC
  5
16A4
  8
0
 10
1.9757218694000001
 20
27.4973712886
 30
0.0
 40
1.166142892699999
 50
329.04013223764201
 51
30.95986776235798
  0
ARC
  5
16A5
  8
0
 10
1.9757218694000001
 20
27.4973712886
 30
0.0
 40
1.166142892699999
 50
59.040132237641942
 51
120.959867762358
  0
ARC
  5
16A6
  8
0
 10
1.9757218694000001
 20
27.4973712886
 30
0.0
 40
1.166142892699999
 50
149.04013223764201
 51
210.95986776235799
  0
CIRCLE
  5
16AE
  8
0
 10
1.9757218694000001
 20
27.4973712886
 30
0.0
 40
0.21875
  0
ARC
  5
16AF
  8
0
 10
1.975721848499999
 20
27.274928304700001
 30
0.0
 40
0.0298686724
 50
239.97865808899999
 51
300.02166209649999
  0
ARC
  5
16B0
  8
0
 10
1.7830805839999999
 20
27.386149814700001
 30
0.0
 40
0.0298686723
 50
179.9786574897
 51
240.0216615825
  0
ARC
  5
16B3
  8
0
 10
1.3507218694000001
 20
28.1223712886
 30
0.0
 40
0.9390550534999999
 50
90.0
 51
180.0
  0
CIRCLE
  5
16B5
  8
0
 10
1.9757218694000001
 20
28.2473712886
 30
0.0
 40
0.1015
  0
ARC
  5
16B6
  8
0
 10
1.9757218903
 20
27.719814271499999
 30
0.0
 40
0.0298686723
 50
59.978648315800001
 51
120.02167013579999
  0
ARC
  5
16B7
  8
0
 10
1.7830806041
 20
27.608592799099998
 30
0.0
 40
0.0298686714
 50
119.97865687220001
 51
180.0216654946
  0
CIRCLE
  5
16B8
  8
0
 10
2.7257218694000001
 20
27.4973712886
 30
0.0
 40
0.1015
  0
ARC
  5
16B9
  8
0
 10
2.1683631338999989
 20
27.3861497786
 30
0.0
 40
0.0298686714
 50
299.9786481626
 51
0.0216746402
  0
ARC
  5
16BA
  8
0
 10
2.8507218694000001
 20
28.3723712886
 30
0.0
 40
0.125
 50
0.0
 51
90.0
  0
ARC
  5
16BB
  8
0
 10
2.1683631540000001
 20
27.608592762000001
 30
0.0
 40
0.0298686723
 50
359.97864880339989
 51
60.021670689899999
  0
ARC
  5
16BD
  8
0
 10
7.9757218694000001
 20
21.4973712886
 30
0.0
 40
7.144853316199999
 50
168.44309166820969
 51
180.0
  0
ARC
  5
16BE
  8
0
 10
7.9757218694000001
 20
21.4973712886
 30
0.0
 40
6.9949446921999998
 50
90.0
 51
135.62696935460701
  0
ARC
  5
16C4
  8
0
 10
9.9757218693999992
 20
19.4973712886
 30
0.0
 40
6.952430410099999
 50
270.0
 51
315.98624114112522
  0
ARC
  5
16C6
  8
0
 10
15.100721869399999
 20
12.6223712886
 30
0.0
 40
0.125
 50
180.0
 51
270.0
  0
ARC
  5
16CC
  8
0
 10
16.600721869400001
 20
12.8723712886
 30
0.0
 40
0.9390550534999999
 50
270.0
 51
360.0
  0
ARC
  5
16D4
  8
0
 10
15.975721869399999
 20
13.4973712886
 30
0.0
 40
1.166142892699999
 50
239.0401322376419
 51
300.95986776235799
  0
ARC
  5
16D5
  8
0
 10
15.975721869399999
 20
13.4973712886
 30
0.0
 40
1.166142892699999
 50
329.0401322376419
 51
30.959867762358058
  0
ARC
  5
16D6
  8
0
 10
15.975721869399999
 20
13.4973712886
 30
0.0
 40
1.166142892699999
 50
149.0401322376419
 51
210.95986776235819
  0
ARC
  5
16E3
  8
0
 10
17.5455851657
 20
11.4784951863
 30
0.0
 40
0.0996169013
 50
79.850471521356553
 51
134.99999999950001
  0
ARC
  5
16E5
  8
0
 10
17.342562857800001
 20
11.6815174942
 30
0.0
 40
0.1875
 50
134.99999999970001
 51
315.00000000030002
  0
ARC
  5
16E6
  8
0
 10
17.139540549900001
 20
11.884539802000001
 30
0.0
 40
0.0996169013
 50
315.00000000059998
 51
10.149528478644431
  0
CIRCLE
  5
16E9
  8
0
 10
17.322056761199999
 20
11.661011397499999
 30
0.0
 40
0.0587819382
  0
CIRCLE
  5
16F1
  8
0
 10
17.5670692608
 20
11.906023897200001
 30
0.0
 40
0.0864950915
  0
ARC
  5
16F2
  8
0
 10
17.791575663900002
 20
12.1305303002
 30
0.0
 40
0.1875
 50
314.99999999969998
 51
135.00000000029999
  0
ARC
  5
16F3
  8
0
 10
17.588553355999998
 20
12.3335526081
 30
0.0
 40
0.0996169013
 50
259.8504715213524
 51
314.99999999940002
  0
CIRCLE
  5
16F6
  8
0
 10
17.8120817605
 20
12.1510363969
 30
0.0
 40
0.0587819382
  0
ARC
  5
16FB
  8
0
 10
17.994597971699999
 20
11.927507992300001
 30
0.0
 40
0.0996169013
 50
135.00000000049999
 51
190.1495283612488
  0
ARC
  5
16FD
  8
0
 10
16.850721869400001
 20
12.6223712886
 30
0.0
 40
0.125
 50
270.0
 51
360.0
  0
CIRCLE
  5
16FE
  8
0
 10
8.9757218693999992
 20
20.4973712886
 30
0.0
 40
0.125
  0
ARC
  5
16FF
  8
0
 10
14.6257218694
 20
24.036591119400001
 30
0.0
 40
0.35
 50
0.0
 51
135.9493465717
  0
CIRCLE
  5
1708
  8
0
 10
15.975721869399999
 20
25.4973712886
 30
0.0
 40
0.375
  0
CIRCLE
  5
170A
  8
0
 10
15.975721869399999
 20
25.4973712886
 30
0.0
 40
0.24
  0
ARC
  5
1717
  8
0
 10
16.600721869400001
 20
28.1223712886
 30
0.0
 40
0.9390550534999999
 50
0.0
 51
90.0
  0
ARC
  5
171B
  8
0
 10
15.028716023699999
 20
28.3723712886
 30
0.0
 40
0.125
 50
90.0
 51
135.94934657330001
  0
ARC
  5
18B5
  8
0
 10
-0.2078106497566548
 20
29.676468952785129
 30
0.0
 40
0.5709167823580575
 50
89.592400060067533
 51
179.96252555290249
  0
LINE
  5
18B6
  8
0
 10
-0.7787273100000001
 20
29.676842362295272
 30
0.0
 11
-0.77872731
 21
11.3179002149
 31
0.0
  0
ARC
  5
18B7
  8
0
 10
-0.2001929945429167
 20
11.321456424657081
 30
0.0
 40
0.5785452452394992
 50
180.35218869213369
 51
269.6478113078665
  0
LINE
  5
18B8
  8
0
 10
-0.2037491880315691
 20
10.7429221091
 30
0.0
 11
18.155192943100001
 21
10.7429221092
 31
0.0
  0
ARC
  5
18B9
  8
0
 10
18.15163673309787
 20
11.321456424902131
 30
0.0
 40
0.5785452455860463
 50
270.35218871619122
 51
359.64781128380889
  0
LINE
  5
18BA
  8
0
 10
18.730171048900001
 20
11.317900214899749
 30
0.0
 11
18.730171048900001
 21
29.676842362300011
 31
0.0
  0
ARC
  5
18BB
  8
0
 10
18.155199783727159
 20
29.676849202927169
 30
0.0
 40
0.5749712652135272
 50
359.99931833277668
 51
90.000681667223233
  0
ARC
  5
18CD
  8
0
 10
18.165026043917191
 20
29.686677338352869
 30
0.0
 40
0.501078293044281
 50
357.76122851220077
 51
92.244253817188138
  0
ARC
  5
18CE
  8
0
 10
18.145236249035349
 20
11.327856908964639
 30
0.0
 40
0.5227674285630297
 50
270.84723333862888
 51
359.15276666137157
  0
ARC
  5
18CF
  8
0
 10
-0.1978405061843674
 20
11.325959998621309
 30
0.0
 40
0.5185796106403188
 50
180.89061316072031
 51
270.43223143554081
  0
ARC
  5
18D0
  8
0
 10
-0.1930942976664629
 20
29.666187455664819
 30
0.0
 40
0.5234763406694329
 50
90.922516087977897
 51
179.07748390089591
  0
ARC
  5
18DA
  8
0
 10
17.805333642757681
 20
11.81086798956394
 30
0.0
 40
0.1346721030244622
 50
33.422622680746372
 51
47.371094188513311
  0
ARC
  5
18DB
  8
0
 10
17.65649185188267
 20
11.661022142318821
 30
0.0
 40
0.1258954991506266
 50
222.1400313522048
 51
237.06625155146509
  0
ARC
  5
18DC
  8
0
 10
17.328804878942378
 20
12.00117980483609
 30
0.0
 40
0.1346721030245362
 50
213.42262268074191
 51
227.37109418850079
  0
ARC
  5
18DD
  8
0
 10
17.467527833208312
 20
12.13913473843048
 30
0.0
 40
0.1413913821652606
 50
42.961869374451616
 51
56.244413529228659
  0
ARC
  5
18DE
  8
0
 10
17.687046113594491
 20
12.05553469648024
 30
0.0
 40
0.0141510637888119
 50
21.464938847418541
 51
42.726921386155659
  0
LINE
  5
18DF
  8
0
 10
17.7002156832
 20
12.0607130208
 30
0.0
 11
17.7001495787
 21
12.0603174185
 31
0.0
  0
ARC
  5
18E1
  8
0
 10
17.717785298427572
 20
12.027086161443901
 30
0.0
 40
0.0125368493013535
 50
47.953623481520481
 51
73.403019849473154
  0
ARC
  5
18E2
  8
0
 10
17.723988748307232
 20
12.03897548127139
 30
0.0
 40
0.0026254387277299
 50
177.26636457421759
 51
218.7351384204849
  0
ARC
  5
18E3
  8
0
 10
17.34516838138649
 20
11.626945360493149
 30
0.0
 40
0.1537345309530178
 50
43.296806572689029
 51
53.894378094746983
  0
ARC
  5
18E4
  8
0
 10
17.443726846208659
 20
11.754032597664869
 30
0.0
 40
0.0100063471834616
 50
193.3015546400764
 51
225.3697230447452
  0
ARC
  5
18E5
  8
0
 10
17.43410393378824
 20
11.74907907970413
 30
0.0
 40
0.002653788687824
 50
51.37744420349253
 51
92.483449543116535
  0
ARC
  5
18E6
  8
0
 10
17.247971981611069
 20
11.647566515612089
 30
0.0
 40
0.2078243112480181
 50
38.17063425193755
 51
45.584788026821229
  0
ARC
  5
18E7
  8
0
 10
17.40637103854618
 20
11.771833955370569
 30
0.0
 40
0.0065001122738461
 50
9.9402033613468621
 51
39.895878225522949
  0
ARC
  5
18E8
  8
0
 10
17.416234011585519
 20
11.784790107580349
 30
0.0
 40
0.0123296623318559
 50
227.83117963408361
 51
253.70042695839561
  0
ARC
  5
18E9
  8
0
 10
17.61962787498895
 20
12.06875567721131
 30
0.0
 40
0.050095897711293
 50
45.109576977542851
 51
135.1088661181501
  0
ARC
  5
18EA
  8
0
 10
17.729771681957221
 20
11.9573447621535
 30
0.0
 40
0.0492478574152553
 50
315.9316993657693
 51
45.88266525442932
  0
ARC
  5
18EB
  8
0
 10
17.514510646660931
 20
11.74329211720914
 30
0.0
 40
0.0500958978318301
 50
225.10957703446749
 51
315.10886607409782
  0
ARC
  5
18EC
  8
0
 10
17.404337480788669
 20
11.853465283011049
 30
0.0
 40
0.0500958977112827
 50
134.891133882433
 51
224.89042302293839
  0
LINE
  5
1951
  8
0
 10
0.0549037853000023
 20
29.084788845999999
 30
0.0
 11
0.2252621125000012
 21
28.958346514199999
 31
0.0
  0
LINE
  5
1952
  8
0
 10
0.5434868436000038
 20
29.2190908458
 30
0.0
 11
0.7138451707999991
 21
29.092648514
 31
0.0
  0
LINE
  5
1953
  8
0
 10
0.1861518677999996
 20
29.000804727599999
 30
0.0
 11
0.2107236680998845
 21
28.97870748030012
 31
0.0
  0
LINE
  5
1954
  8
0
 10
0.2743632783999921
 20
28.915067870000009
 30
0.0
 11
0.2964605256000006
 21
28.890496069699999
 31
0.0
  0
LINE
  5
1955
  8
0
 10
0.5813598118000023
 20
29.175395355799999
 30
0.0
 11
0.5392460003999986
 21
29.2200274715
 31
0.0
  0
LINE
  5
1956
  8
0
 10
0.4722884303999991
 20
29.286941290200001
 30
0.0
 11
0.5174860893500011
 21
29.24321176075
 31
0.0
  0
LINE
  5
1957
  8
0
 10
0.2540023122000008
 20
28.929606314400001
 30
0.0
 11
0.3804446441000024
 21
28.7592479873
 31
0.0
  0
LINE
  5
1958
  8
0
 10
0.3883043120000025
 20
29.418189372699999
 30
0.0
 11
0.5147466438000024
 21
29.2478310455
 31
0.0
  0
LINE
  5
1959
  8
0
 10
0.0337086587000037
 20
29.109695802299999
 30
0.0
 11
0.3633973558000001
 21
29.439384499300001
 31
0.0
  0
LINE
  5
195A
  8
0
 10
0.401442700650982
 20
29.28680623854866
 30
0.0
 11
0.186286919450982
 21
29.07165045734866
 31
0.0
  0
LINE
  5
195B
  8
0
 10
0.2300787912223434
 20
28.955650789439051
 30
0.0
 11
0.3135333730856402
 21
29.039090676734649
 31
0.0
  0
LINE
  5
195C
  8
0
 10
0.4340024214312983
 20
29.159559826831298
 30
0.0
 11
0.5174547959000009
 21
29.243012201300001
 31
0.0
  0
LINE
  5
195D
  8
0
 10
0.2512941602000005
 20
28.934425158700002
 30
0.0
 11
0.3347465346275094
 21
29.017877533127511
 31
0.0
  0
LINE
  5
195E
  8
0
 10
0.4552156046682932
 20
29.13834665221286
 30
0.0
 11
0.5386715144000008
 21
29.221795478699999
 31
0.0
  0
LINE
  5
195F
  8
0
 10
0.5824620366490123
 20
29.105786902651339
 30
0.0
 11
0.3673062554490194
 21
28.89063112135134
 31
0.0
  0
LINE
  5
1960
  8
0
 10
0.4053516003000013
 20
28.738052860700002
 30
0.0
 11
0.7350402974000012
 21
29.0677415577
 31
0.0
  0
ARC
  5
1961
  8
0
 10
0.3628903829000016
 20
28.6611899691
 30
0.0
 40
0.0996169013
 50
79.850471521356553
 51
134.99999999950009
  0
ARC
  5
1962
  8
0
 10
0.1598680750000021
 20
28.864212277
 30
0.0
 40
0.1875
 50
134.9999999996999
 51
315.00000000029979
  0
ARC
  5
1963
  8
0
 10
-0.0431542328999974
 20
29.067234584800001
 30
0.0
 40
0.0996169013
 50
315.0000000006001
 51
10.149528478644481
  0
CIRCLE
  5
1964
  8
0
 10
0.1393619784000002
 20
28.8437061803
 30
0.0
 40
0.0587819382
  0
CIRCLE
  5
1965
  8
0
 10
0.3843744780000016
 20
29.088718679999999
 30
0.0
 40
0.0864950915
  0
ARC
  5
1966
  8
0
 10
0.6088808811000029
 20
29.313225082999999
 30
0.0
 40
0.1875
 50
314.99999999969992
 51
135.0000000003001
  0
ARC
  5
1967
  8
0
 10
0.4058585731999998
 20
29.516247390899998
 30
0.0
 40
0.0996169013
 50
259.8504715213524
 51
314.9999999993999
  0
CIRCLE
  5
1968
  8
0
 10
0.6293869777000012
 20
29.333731179699999
 30
0.0
 40
0.0587819382
  0
ARC
  5
1969
  8
0
 10
0.8119031889000005
 20
29.110202775099999
 30
0.0
 40
0.0996169013
 50
135.0000000004998
 51
190.1495283612488
  0
ARC
  5
196A
  8
0
 10
0.6226388599576858
 20
28.993562772363951
 30
0.0
 40
0.1346721030244622
 50
33.422622680746201
 51
47.371094188513439
  0
ARC
  5
196B
  8
0
 10
0.4737970690826714
 20
28.84371692511883
 30
0.0
 40
0.1258954991506266
 50
222.1400313522048
 51
237.0662515514652
  0
ARC
  5
196C
  8
0
 10
0.1461100961423867
 20
29.18387458763609
 30
0.0
 40
0.1346721030245362
 50
213.4226226807418
 51
227.37109418850079
  0
ARC
  5
196D
  8
0
 10
0.2848330504083165
 20
29.32182952123048
 30
0.0
 40
0.1413913821652606
 50
42.961869374451673
 51
56.244413529228581
  0
ARC
  5
196E
  8
0
 10
0.5043513307944885
 20
29.238229479280239
 30
0.0
 40
0.0141510637888119
 50
21.46493884741859
 51
42.726921386155489
  0
LINE
  5
196F
  8
0
 10
0.517520900400001
 20
29.2434078036
 30
0.0
 11
0.5174547959000009
 21
29.243012201300001
 31
0.0
  0
ARC
  5
1970
  8
0
 10
0.535090515627573
 20
29.209780944243899
 30
0.0
 40
0.0125368493013535
 50
47.953623481520538
 51
73.403019849473068
  0
ARC
  5
1971
  8
0
 10
0.5412939655072364
 20
29.221670264071388
 30
0.0
 40
0.0026254387277299
 50
177.26636457421759
 51
218.7351384204847
  0
ARC
  5
1972
  8
0
 10
0.1624735985864909
 20
28.809640143293151
 30
0.0
 40
0.1537345309530178
 50
43.296806572689107
 51
53.894378094747132
  0
ARC
  5
1973
  8
0
 10
0.2610320634086669
 20
28.936727380464859
 30
0.0
 40
0.0100063471834616
 50
193.30155464007649
 51
225.36972304474509
  0
ARC
  5
1974
  8
0
 10
0.2514091509882412
 20
28.93177386250413
 30
0.0
 40
0.002653788687824
 50
51.377444203492587
 51
92.483449543116535
  0
ARC
  5
1975
  8
0
 10
0.0652771988110743
 20
28.83026129841209
 30
0.0
 40
0.2078243112480181
 50
38.170634251937571
 51
45.584788026821407
  0
ARC
  5
1976
  8
0
 10
0.2236762557461809
 20
28.95452873817058
 30
0.0
 40
0.0065001122738461
 50
9.9402033613469012
 51
39.895878225522772
  0
ARC
  5
1977
  8
0
 10
0.2335392287855207
 20
28.967484890380351
 30
0.0
 40
0.0123296623318559
 50
227.8311796340835
 51
253.7004269583955
  0
ARC
  5
1978
  8
0
 10
0.436933092188955
 20
29.251450460011309
 30
0.0
 40
0.050095897711293
 50
45.109576977542993
 51
135.10886611815019
  0
ARC
  5
1979
  8
0
 10
0.5470768991572222
 20
29.140039544953499
 30
0.0
 40
0.0492478574152553
 50
315.9316993657693
 51
45.882665254429398
  0
ARC
  5
197A
  8
0
 10
0.3318158638609319
 20
28.925986900009139
 30
0.0
 40
0.0500958978318301
 50
225.10957703446741
 51
315.10886607409788
  0
ARC
  5
197B
  8
0
 10
0.2216426979886776
 20
29.03616006581105
 30
0.0
 40
0.0500958977112827
 50
134.89113388243291
 51
224.89042302293839
  0
LINE
  5
197C
  8
0
 10
0.388304312000006
 20
11.5765532045
 30
0.0
 11
0.5147466438000024
 21
11.7469115317
 31
0.0
  0
LINE
  5
197D
  8
0
 10
0.2540023122000043
 20
12.065136262799999
 30
0.0
 11
0.3804446440000042
 21
12.23549459
 31
0.0
  0
LINE
  5
197E
  8
0
 10
0.4722884304000026
 20
11.707801287000001
 30
0.0
 11
0.4943856776998885
 21
11.73237308729988
 31
0.0
  0
LINE
  5
197F
  8
0
 10
0.5580252879999961
 20
11.796012697599989
 30
0.0
 11
0.5825970883000018
 21
11.8181099448
 31
0.0
  0
LINE
  5
1980
  8
0
 10
0.2976978022000054
 20
12.103009231
 30
0.0
 11
0.2530656865000047
 21
12.0608954196
 31
0.0
  0
LINE
  5
1981
  8
0
 10
0.1861518678000031
 20
11.9939378496
 30
0.0
 11
0.2298813972500042
 21
12.03913550855
 31
0.0
  0
LINE
  5
1982
  8
0
 10
0.5434868436000038
 20
11.7756517314
 30
0.0
 11
0.7138451707000045
 21
11.9020940633
 31
0.0
  0
LINE
  5
1983
  8
0
 10
0.0549037853000023
 20
11.9099537312
 30
0.0
 11
0.2252621125000047
 21
12.036396063
 31
0.0
  0
LINE
  5
1984
  8
0
 10
0.3633973557000054
 20
11.555358077899999
 30
0.0
 11
0.0337086587000037
 21
11.885046774999999
 31
0.0
  0
LINE
  5
1985
  8
0
 10
0.1862869194513443
 20
11.923092119850979
 30
0.0
 11
0.4014427006513479
 21
11.707936338650979
 31
0.0
  0
LINE
  5
1986
  8
0
 10
0.5174423685609533
 20
11.751728210422341
 30
0.0
 11
0.434002481265356
 21
11.835182792285639
 31
0.0
  0
LINE
  5
1987
  8
0
 10
0.3135333311687098
 20
11.955651840631299
 30
0.0
 11
0.2300809567000037
 21
12.0391042151
 31
0.0
  0
LINE
  5
1988
  8
0
 10
0.5386679993000066
 20
11.7729435794
 30
0.0
 11
0.4552156248724977
 21
11.85639595382751
 31
0.0
  0
LINE
  5
1989
  8
0
 10
0.3347465057871446
 20
11.976865023868291
 30
0.0
 11
0.2512976793000057
 21
12.0603209336
 31
0.0
  0
LINE
  5
198A
  8
0
 10
0.3673062553486694
 20
12.10411145584901
 30
0.0
 11
0.5824620366486606
 21
11.88895567464902
 31
0.0
  0
LINE
  5
198B
  8
0
 10
0.7350402973000066
 20
11.9270010195
 30
0.0
 11
0.4053516003000049
 21
12.2566897166
 31
0.0
  0
ARC
  5
198C
  8
0
 10
0.8119031889000005
 20
11.884539802100001
 30
0.0
 40
0.0996169013
 50
169.8504715213565
 51
224.99999999950009
  0
ARC
  5
198D
  8
0
 10
0.6088808810000012
 20
11.6815174942
 30
0.0
 40
0.1875
 50
224.9999999996999
 51
45.000000000300012
  0
ARC
  5
198E
  8
0
 10
0.4058585732000033
 20
11.4784951863
 30
0.0
 40
0.0996169013
 50
45.000000000600039
 51
100.1495284786444
  0
CIRCLE
  5
198F
  8
0
 10
0.6293869777000049
 20
11.661011397599999
 30
0.0
 40
0.0587819382
  0
CIRCLE
  5
1990
  8
0
 10
0.3843744780000016
 20
11.906023897200001
 30
0.0
 40
0.0864950915
  0
ARC
  5
1991
  8
0
 10
0.1598680750000021
 20
12.1305303003
 30
0.0
 40
0.1875
 50
44.999999999700087
 51
225.0000000003001
  0
ARC
  5
1992
  8
0
 10
-0.0431542328999974
 20
11.927507992400001
 30
0.0
 40
0.0996169013
 50
349.8504715213524
 51
44.99999999939984
  0
CIRCLE
  5
1993
  8
0
 10
0.1393619783000055
 20
12.1510363969
 30
0.0
 40
0.0587819382
  0
ARC
  5
1994
  8
0
 10
0.3628903829000016
 20
12.3335526081
 30
0.0
 40
0.0996169013
 50
225.00000000049991
 51
280.14952836124871
  0
ARC
  5
1995
  8
0
 10
0.4795303856360605
 20
12.14428827915768
 30
0.0
 40
0.1346721030244622
 50
123.4226226807461
 51
137.37109418851341
  0
ARC
  5
1996
  8
0
 10
0.6293762328811781
 20
11.995446488282671
 30
0.0
 40
0.1258954991506266
 50
312.14003135220457
 51
327.06625155146497
  0
ARC
  5
1997
  8
0
 10
0.2892185703639178
 20
11.667759515342381
 30
0.0
 40
0.1346721030245362
 50
303.42262268074182
 51
317.37109418850082
  0
ARC
  5
1998
  8
0
 10
0.1512636367695244
 20
11.80648246960831
 30
0.0
 40
0.1413913821652606
 50
132.96186937445171
 51
146.24441352922861
  0
ARC
  5
1999
  8
0
 10
0.2348636787197655
 20
12.026000749994481
 30
0.0
 40
0.0141510637888119
 50
111.46493884741849
 51
132.72692138615551
  0
LINE
  5
199A
  8
0
 10
0.2296853544000044
 20
12.0391703196
 30
0.0
 11
0.2300809567000037
 21
12.0391042151
 31
0.0
  0
ARC
  5
199B
  8
0
 10
0.2633122137561017
 20
12.05673993482757
 30
0.0
 40
0.0125368493013535
 50
137.95362348152051
 51
163.403019849473
  0
ARC
  5
199C
  8
0
 10
0.2514228939286163
 20
12.06294338470723
 30
0.0
 40
0.0026254387277299
 50
267.26636457421762
 51
308.7351384204847
  0
ARC
  5
199D
  8
0
 10
0.6634530147068567
 20
11.68412301778649
 30
0.0
 40
0.1537345309530178
 50
133.29680657268901
 51
143.89437809474711
  0
ARC
  5
199E
  8
0
 10
0.536365777535135
 20
11.782681482608661
 30
0.0
 40
0.0100063471834616
 50
283.3015546400764
 51
315.36972304474511
  0
ARC
  5
199F
  8
0
 10
0.5413192954958747
 20
11.77305857018824
 30
0.0
 40
0.002653788687824
 50
141.37744420349259
 51
182.48344954311651
  0
ARC
  5
19A0
  8
0
 10
0.6428318595879113
 20
11.58692661801107
 30
0.0
 40
0.2078243112480181
 50
128.17063425193751
 51
135.5847880268214
  0
ARC
  5
19A1
  8
0
 10
0.5185644198294277
 20
11.74532567494618
 30
0.0
 40
0.0065001122738461
 50
99.940203361346903
 51
129.89587822552269
  0
ARC
  5
19A2
  8
0
 10
0.5056082676196532
 20
11.75518864798552
 30
0.0
 40
0.0123296623318559
 50
317.83117963408341
 51
343.70042695839538
  0
ARC
  5
19A3
  8
0
 10
0.2216426979886883
 20
11.958582511388951
 30
0.0
 40
0.050095897711293
 50
135.10957697754301
 51
225.1088661181503
  0
ARC
  5
19A4
  8
0
 10
0.3330536130464985
 20
12.06872631835722
 30
0.0
 40
0.0492478574152553
 50
45.931699365769468
 51
135.88266525442941
  0
ARC
  5
19A5
  8
0
 10
0.5471062579908619
 20
11.853465283060929
 30
0.0
 40
0.0500958978318301
 50
315.10957703446741
 51
45.108866074097612
  0
ARC
  5
19A6
  8
0
 10
0.4369330921889514
 20
11.74329211718867
 30
0.0
 40
0.0500958977112827
 50
224.891133882433
 51
314.89042302293842
  0
LINE
  5
19A7
  8
0
 10
17.570999094800001
 20
28.7592479873
 30
0.0
 11
17.697441426600001
 21
28.929606314499999
 31
0.0
  0
LINE
  5
19A8
  8
0
 10
17.436697095
 20
29.247831045600002
 30
0.0
 11
17.563139426799999
 21
29.41818937279999
 31
0.0
  0
LINE
  5
19A9
  8
0
 10
17.654983213200001
 20
28.890496069800001
 30
0.0
 11
17.67708046049988
 21
28.915067870099879
 31
0.0
  0
LINE
  5
19AA
  8
0
 10
17.740720070799991
 20
28.97870748039999
 30
0.0
 11
17.765291871100001
 21
29.000804727599999
 31
0.0
  0
LINE
  5
19AB
  8
0
 10
17.480392585000001
 20
29.2857040138
 30
0.0
 11
17.4357604693
 21
29.243590202399989
 31
0.0
  0
LINE
  5
19AC
  8
0
 10
17.368846650599998
 20
29.1766326324
 30
0.0
 11
17.412576180049999
 21
29.221830291349999
 31
0.0
  0
LINE
  5
19AD
  8
0
 10
17.726181626399999
 20
28.958346514199992
 30
0.0
 11
17.8965399535
 21
29.0847888461
 31
0.0
  0
LINE
  5
19AE
  8
0
 10
17.237598568100001
 20
29.092648514
 30
0.0
 11
17.4079568953
 21
29.2190908458
 31
0.0
  0
LINE
  5
19AF
  8
0
 10
17.546092138500001
 20
28.738052860700002
 30
0.0
 11
17.216403441499999
 21
29.067741557800002
 31
0.0
  0
LINE
  5
19B0
  8
0
 10
17.36898170225134
 20
29.105786902650969
 30
0.0
 11
17.58413748345135
 21
28.89063112145098
 31
0.0
  0
LINE
  5
19B1
  8
0
 10
17.700137151360948
 20
28.934422993222341
 30
0.0
 11
17.616697264065351
 21
29.017877575085631
 31
0.0
  0
LINE
  5
19B2
  8
0
 10
17.496228113968709
 20
29.1383466234313
 30
0.0
 11
17.412775739499999
 21
29.221798997899999
 31
0.0
  0
LINE
  5
19B3
  8
0
 10
17.721362782100002
 20
28.955638362199998
 30
0.0
 11
17.637910407672489
 21
29.039090736627511
 31
0.0
  0
LINE
  5
19B4
  8
0
 10
17.51744128858714
 20
29.159559806668291
 30
0.0
 11
17.433992462100001
 21
29.243015716399999
 31
0.0
  0
LINE
  5
19B5
  8
0
 10
17.550001038148661
 20
29.28680623864901
 30
0.0
 11
17.765156819448659
 21
29.071650457449021
 31
0.0
  0
LINE
  5
19B6
  8
0
 10
17.917735080100002
 20
29.109695802299999
 30
0.0
 11
17.5880463831
 21
29.439384499399999
 31
0.0
  0
ARC
  5
19B7
  8
0
 10
17.994597971699999
 20
29.0672345849
 30
0.0
 40
0.0996169013
 50
169.85047152135661
 51
224.99999999950009
  0
ARC
  5
19B8
  8
0
 10
17.7915756638
 20
28.864212277
 30
0.0
 40
0.1875
 50
224.9999999996999
 51
45.000000000299913
  0
ARC
  5
19B9
  8
0
 10
17.588553355999998
 20
28.6611899691
 30
0.0
 40
0.0996169013
 50
45.000000000600082
 51
100.1495284786444
  0
CIRCLE
  5
19BA
  8
0
 10
17.8120817605
 20
28.843706180400002
 30
0.0
 40
0.0587819382
  0
CIRCLE
  5
19BB
  8
0
 10
17.5670692608
 20
29.088718679999999
 30
0.0
 40
0.0864950915
  0
ARC
  5
19BC
  8
0
 10
17.342562857800001
 20
29.313225083100001
 30
0.0
 40
0.1875
 50
44.999999999699988
 51
225.0000000003001
  0
ARC
  5
19BD
  8
0
 10
17.139540549900001
 20
29.110202775200001
 30
0.0
 40
0.0996169013
 50
349.8504715213524
 51
44.999999999399733
  0
CIRCLE
  5
19BE
  8
0
 10
17.322056761100001
 20
29.333731179699988
 30
0.0
 40
0.0587819382
  0
ARC
  5
19BF
  8
0
 10
17.5455851657
 20
29.516247390899998
 30
0.0
 40
0.0996169013
 50
225.00000000049991
 51
280.14952836124871
  0
ARC
  5
19C0
  8
0
 10
17.662225168436059
 20
29.326983061957691
 30
0.0
 40
0.1346721030244622
 50
123.4226226807461
 51
137.37109418851341
  0
ARC
  5
19C1
  8
0
 10
17.81207101568117
 20
29.178141271082669
 30
0.0
 40
0.1258954991506266
 50
312.14003135220457
 51
327.06625155146509
  0
ARC
  5
19C2
  8
0
 10
17.471913353163909
 20
28.850454298142381
 30
0.0
 40
0.1346721030245362
 50
303.42262268074182
 51
317.37109418850082
  0
ARC
  5
19C3
  8
0
 10
17.33395841956952
 20
28.989177252408311
 30
0.0
 40
0.1413913821652606
 50
132.96186937445171
 51
146.2444135292285
  0
ARC
  5
19C4
  8
0
 10
17.417558461519761
 20
29.208695532794479
 30
0.0
 40
0.0141510637888119
 50
111.46493884741859
 51
132.72692138615551
  0
LINE
  5
19C5
  8
0
 10
17.4123801372
 20
29.221865102399988
 30
0.0
 11
17.412775739499999
 21
29.221798997899999
 31
0.0
  0
ARC
  5
19C6
  8
0
 10
17.4460069965561
 20
29.239434717627571
 30
0.0
 40
0.0125368493013535
 50
137.95362348152051
 51
163.40301984947311
  0
ARC
  5
19C7
  8
0
 10
17.434117676728611
 20
29.245638167507231
 30
0.0
 40
0.0026254387277299
 50
267.26636457421762
 51
308.7351384204847
  0
ARC
  5
19C8
  8
0
 10
17.846147797506848
 20
28.866817800586489
 30
0.0
 40
0.1537345309530178
 50
133.29680657268909
 51
143.89437809474711
  0
ARC
  5
19C9
  8
0
 10
17.71906056033513
 20
28.965376265408668
 30
0.0
 40
0.0100063471834616
 50
283.3015546400764
 51
315.369723044745
  0
ARC
  5
19CA
  8
0
 10
17.72401407829587
 20
28.955753352988239
 30
0.0
 40
0.002653788687824
 50
141.3774442034925
 51
182.48344954311651
  0
ARC
  5
19CB
  8
0
 10
17.82552664238791
 20
28.769621400811069
 30
0.0
 40
0.2078243112480181
 50
128.17063425193751
 51
135.58478802682129
  0
ARC
  5
19CC
  8
0
 10
17.701259202629419
 20
28.928020457746179
 30
0.0
 40
0.0065001122738461
 50
99.940203361346875
 51
129.89587822552281
  0
ARC
  5
19CD
  8
0
 10
17.688303050419648
 20
28.937883430785519
 30
0.0
 40
0.0123296623318559
 50
317.83117963408353
 51
343.7004269583955
  0
ARC
  5
19CE
  8
0
 10
17.40433748078868
 20
29.141277294188949
 30
0.0
 40
0.050095897711293
 50
135.1095769775429
 51
225.1088661181503
  0
ARC
  5
19CF
  8
0
 10
17.51574839584649
 20
29.25142110115722
 30
0.0
 40
0.0492478574152553
 50
45.931699365769397
 51
135.88266525442941
  0
ARC
  5
19D0
  8
0
 10
17.729801040790861
 20
29.03616006586093
 30
0.0
 40
0.0500958978318301
 50
315.10957703446741
 51
45.108866074097641
  0
ARC
  5
19D1
  8
0
 10
17.61962787498895
 20
28.925986899988668
 30
0.0
 40
0.0500958977112827
 50
224.891133882433
 51
314.89042302293842
  0
ARC
  5
19D3
  8
0
 10
13.63903228366943
 20
28.189149375399211
 30
0.0
 40
0.3085437806114314
 50
5.3697510688179397
 51
79.287543377693709
  0
LINE
  5
19DD
  8
0
 10
1.7681558505999999
 20
13.6344654833
 30
0.0
 11
1.9607777063999989
 21
13.7456757637
 31
0.0
  0
LINE
  5
19DE
  8
0
 10
2.1832878838999989
 20
13.3602770913
 30
0.0
 11
1.9906660283999991
 21
13.249066811200001
 31
0.0
  0
LINE
  5
19DF
  8
0
 10
1.7532118046
 20
13.608581504699989
 30
0.0
 11
1.7532118046
 21
13.3861609408
 31
0.0
  0
LINE
  5
19E0
  8
0
 10
2.198231934199999
 20
13.386161077700001
 30
0.0
 11
2.198231934199999
 21
13.6085816314
 31
0.0
  0
LINE
  5
19E1
  8
0
 10
1.9607778236
 20
13.2490667459
 30
0.0
 11
1.7681559632999999
 21
13.360277028800001
 31
0.0
  0
LINE
  5
19E2
  8
0
 10
1.990665920099999
 20
13.745675828499991
 30
0.0
 11
2.1832877709999989
 21
13.6344655511
 31
0.0
  0
CIRCLE
  5
19E3
  8
0
 10
1.2257218694000001
 20
13.4973712886
 30
0.0
 40
0.1015
  0
CIRCLE
  5
19E4
  8
0
 10
1.9757218694000001
 20
12.7473712886
 30
0.0
 40
0.1015
  0
CIRCLE
  5
19E5
  8
0
 10
1.9757218694000001
 20
13.4973712886
 30
0.0
 40
0.21875
  0
ARC
  5
19E6
  8
0
 10
1.975721848499999
 20
13.274928304699991
 30
0.0
 40
0.0298686724
 50
239.97865808899999
 51
300.02166209649988
  0
ARC
  5
19E7
  8
0
 10
1.7830805839999999
 20
13.386149814699991
 30
0.0
 40
0.0298686723
 50
179.9786574897
 51
240.0216615825
  0
CIRCLE
  5
19E8
  8
0
 10
1.9757218694000001
 20
14.2473712886
 30
0.0
 40
0.1015
  0
ARC
  5
19E9
  8
0
 10
1.9757218903
 20
13.719814271500001
 30
0.0
 40
0.0298686723
 50
59.978648315800022
 51
120.02167013579999
  0
ARC
  5
19EA
  8
0
 10
1.7830806041
 20
13.60859279909999
 30
0.0
 40
0.0298686714
 50
119.97865687219991
 51
180.0216654946
  0
CIRCLE
  5
19EB
  8
0
 10
2.7257218694000001
 20
13.4973712886
 30
0.0
 40
0.1015
  0
ARC
  5
19EC
  8
0
 10
2.1683631338999989
 20
13.3861497786
 30
0.0
 40
0.0298686714
 50
299.97864816259988
 51
0.0216746402000457
  0
ARC
  5
19ED
  8
0
 10
2.1683631540000001
 20
13.60859276199999
 30
0.0
 40
0.0298686723
 50
359.97864880339989
 51
60.021670689899999
  0
LINE
  5
19EE
  8
0
 10
15.768155850599999
 20
13.6344654833
 30
0.0
 11
15.9607777064
 21
13.7456757637
 31
0.0
  0
LINE
  5
19EF
  8
0
 10
16.1832878839
 20
13.3602770913
 30
0.0
 11
15.9906660284
 21
13.249066811200001
 31
0.0
  0
LINE
  5
19F0
  8
0
 10
15.753211804599999
 20
13.608581504699989
 30
0.0
 11
15.753211804599999
 21
13.3861609408
 31
0.0
  0
LINE
  5
19F1
  8
0
 10
16.198231934199999
 20
13.386161077700001
 30
0.0
 11
16.198231934199999
 21
13.6085816314
 31
0.0
  0
LINE
  5
19F2
  8
0
 10
15.960777823600001
 20
13.2490667459
 30
0.0
 11
15.7681559633
 21
13.360277028800001
 31
0.0
  0
LINE
  5
19F3
  8
0
 10
15.9906659201
 20
13.745675828499991
 30
0.0
 11
16.183287771
 21
13.6344655511
 31
0.0
  0
CIRCLE
  5
19F4
  8
0
 10
15.225721869399999
 20
13.4973712886
 30
0.0
 40
0.1015
  0
CIRCLE
  5
19F5
  8
0
 10
15.975721869399999
 20
12.7473712886
 30
0.0
 40
0.1015
  0
CIRCLE
  5
19F6
  8
0
 10
15.975721869399999
 20
13.4973712886
 30
0.0
 40
0.21875
  0
ARC
  5
19F7
  8
0
 10
15.975721848499999
 20
13.274928304699991
 30
0.0
 40
0.0298686724
 50
239.97865808899999
 51
300.02166209649988
  0
ARC
  5
19F8
  8
0
 10
15.783080584
 20
13.386149814699991
 30
0.0
 40
0.0298686723
 50
179.9786574897
 51
240.0216615825
  0
CIRCLE
  5
19F9
  8
0
 10
15.975721869399999
 20
14.2473712886
 30
0.0
 40
0.1015
  0
ARC
  5
19FA
  8
0
 10
15.975721890299999
 20
13.719814271500001
 30
0.0
 40
0.0298686723
 50
59.978648315800001
 51
120.02167013579999
  0
ARC
  5
19FB
  8
0
 10
15.7830806041
 20
13.60859279909999
 30
0.0
 40
0.0298686714
 50
119.97865687219991
 51
180.0216654946
  0
CIRCLE
  5
19FC
  8
0
 10
16.725721869400001
 20
13.4973712886
 30
0.0
 40
0.1015
  0
ARC
  5
19FD
  8
0
 10
16.168363133900002
 20
13.3861497786
 30
0.0
 40
0.0298686714
 50
299.9786481626
 51
0.0216746402000457
  0
ARC
  5
19FE
  8
0
 10
16.168363154000001
 20
13.60859276199999
 30
0.0
 40
0.0298686723
 50
359.97864880339989
 51
60.021670689899999
  0
LINE
  5
19FF
  8
0
 10
15.768155850599999
 20
27.634465483300001
 30
0.0
 11
15.9607777064
 21
27.7456757637
 31
0.0
  0
LINE
  5
1A00
  8
0
 10
16.1832878839
 20
27.360277091299999
 30
0.0
 11
15.9906660284
 21
27.249066811199999
 31
0.0
  0
LINE
  5
1A01
  8
0
 10
15.753211804599999
 20
27.608581504699998
 30
0.0
 11
15.753211804599999
 21
27.3861609408
 31
0.0
  0
LINE
  5
1A02
  8
0
 10
16.198231934199999
 20
27.386161077699999
 30
0.0
 11
16.198231934199999
 21
27.6085816314
 31
0.0
  0
LINE
  5
1A03
  8
0
 10
15.960777823600001
 20
27.249066745900009
 30
0.0
 11
15.7681559633
 21
27.360277028799999
 31
0.0
  0
LINE
  5
1A04
  8
0
 10
15.9906659201
 20
27.745675828500001
 30
0.0
 11
16.183287771
 21
27.6344655511
 31
0.0
  0
CIRCLE
  5
1A05
  8
0
 10
15.225721869399999
 20
27.4973712886
 30
0.0
 40
0.1015
  0
CIRCLE
  5
1A06
  8
0
 10
15.975721869399999
 20
26.7473712886
 30
0.0
 40
0.1015
  0
CIRCLE
  5
1A07
  8
0
 10
15.975721869399999
 20
27.4973712886
 30
0.0
 40
0.21875
  0
ARC
  5
1A08
  8
0
 10
15.975721848499999
 20
27.274928304700001
 30
0.0
 40
0.0298686724
 50
239.97865808899999
 51
300.02166209649999
  0
ARC
  5
1A09
  8
0
 10
15.783080584
 20
27.386149814700001
 30
0.0
 40
0.0298686723
 50
179.9786574897
 51
240.0216615825
  0
CIRCLE
  5
1A0A
  8
0
 10
15.975721869399999
 20
28.2473712886
 30
0.0
 40
0.1015
  0
ARC
  5
1A0B
  8
0
 10
15.975721890299999
 20
27.719814271499999
 30
0.0
 40
0.0298686723
 50
59.978648315799987
 51
120.02167013579989
  0
ARC
  5
1A0C
  8
0
 10
15.7830806041
 20
27.608592799099998
 30
0.0
 40
0.0298686714
 50
119.97865687220001
 51
180.0216654946
  0
CIRCLE
  5
1A0D
  8
0
 10
16.725721869400001
 20
27.4973712886
 30
0.0
 40
0.1015
  0
ARC
  5
1A0E
  8
0
 10
16.168363133900002
 20
27.3861497786
 30
0.0
 40
0.0298686714
 50
299.9786481626
 51
0.0216746402
  0
ARC
  5
1A0F
  8
0
 10
16.168363154000001
 20
27.608592762000001
 30
0.0
 40
0.0298686723
 50
359.97864880339989
 51
60.021670689899992
  0
ARC
  5
1A10
  8
0
 10
-0.3701821112679617
 20
29.84327526926797
 30
0.0
 40
0.1449687729765862
 50
89.995569384402643
 51
180.0044306155996
  0
ARC
  5
1A11
  8
0
 10
18.322234771955738
 20
29.844745495349031
 30
0.0
 40
0.143499885768313
 50
359.23506964722679
 51
90.247543656571139
  0
ARC
  5
1A12
  8
0
 10
18.321625850090768
 20
11.151467307909231
 30
0.0
 40
0.1449687729443353
 50
269.99562855503422
 51
0.0043714449651322
  0
ARC
  5
1A13
  8
0
 10
-0.3701809494901425
 20
11.15146778908783
 30
0.0
 40
0.1449699347068852
 50
179.99575958389551
 51
270.1756218148019
  0
ARC
  5
1A14
  8
0
 10
-0.3719491536718438
 20
11.149700265428191
 30
0.0
 40
0.2449472373006135
 50
179.9953549253585
 51
270.00464494738259
  0
ARC
  5
1A15
  8
0
 10
18.32339289262044
 20
11.149700265379529
 30
0.0
 40
0.2449472372318385
 50
269.99542963280987
 51
0.004570246830502
  0
ARC
  5
1A16
  8
0
 10
18.323392892530698
 20
29.845042311603699
 30
0.0
 40
0.2449472374485717
 50
359.99542966476571
 51
90.004570225829141
  0
ARC
  5
1A20
  8
0
 10
-0.3719491535781343
 20
29.845042311545669
 30
0.0
 40
0.2449472375267795
 50
89.995354942712495
 51
180.00464489238939
  0
LINE
  5
1A21
  8
0
 10
16.975721869400001
 20
12.6223712886
 30
0.0
 11
16.975721869400001
 21
28.4973712886
 31
0.0
  0
LINE
  5
1A22
  8
0
 10
15.028716023699999
 20
28.4973712886
 30
0.0
 11
16.975721869400001
 21
28.4973712886
 31
0.0
  0
ATTDEF
  5
2067
  8
DEFPOINTS
 10
8.9731886546019695
 20
20.48542738500689
 30
0.0
 40
0.001
  1
K-76728
  3

  2
MODELNUMBER
 70
     0
1001
ACDBATTR
1070
     0
1070
     1
  0
ATTDEF
  5
2068
  8
DEFPOINTS
 10
8.9731886546019695
 20
20.483760718340228
 30
0.0
 40
0.001
  1
REAL RAIN
  3

  2
TRADENAME
 70
     0
1001
ACDBATTR
1070
     0
1070
     1
  0
ATTDEF
  5
2069
  8
DEFPOINTS
 10
8.9731886546019695
 20
20.48209405167356
 30
0.0
 40
0.001
  1
SHOWER PANEL
  3

  2
PRODUCT
 70
     0
1001
ACDBATTR
1070
     0
1070
     1
  0
ATTDEF
  5
206A
  8
DEFPOINTS
 10
8.9731886546019695
 20
20.480427385006902
 30
0.0
 40
0.001
  1
SILICONE
  3

  2
MATERIAL
 70
     0
1001
ACDBATTR
1070
     0
1070
     1
  0
LINE
  5
345A
  8
0
 10
17.950721869399992
 20
30.0899895483
 30
0.0
 11
17.950721869399992
 21
30.2518204681
 31
0.0
  0
LINE
  5
345B
  8
0
 10
18.568340129199989
 20
29.472371288600002
 30
0.0
 11
18.730171048900001
 21
29.472371288600002
 31
0.0
  0
LINE
  5
345C
  8
0
 10
18.568340129199999
 20
11.5223712886
 30
0.0
 11
18.730171048900001
 21
11.5223712886
 31
0.0
  0
LINE
  5
345D
  8
0
 10
17.950721869399992
 20
10.9047530289
 30
0.0
 11
17.950721869399992
 21
10.742922109198879
 31
0.0
  0
LINE
  5
345E
  8
0
 10
0.000721869399996
 20
10.9047530289
 30
0.0
 11
0.000721869399996
 21
10.74292210910111
 31
0.0
  0
LINE
  5
345F
  8
0
 10
-0.6168963903000027
 20
11.5223712886
 30
0.0
 11
-0.77872731
 21
11.52237128859999
 31
0.0
  0
ARC
  5
3460
  8
0
 10
-0.6242781306094634
 20
11.95237128861117
 30
0.0
 40
0.067499999989926
 50
83.721627272369034
 51
276.27837272763099
  0
ARC
  5
3461
  8
0
 10
-0.6242819976344342
 20
29.042375608919212
 30
0.0
 40
0.0674961286262166
 50
83.71796327570452
 51
276.28203672429669
  0
ARC
  5
3462
  8
0
 10
0.4307278227009105
 20
30.09737631403209
 30
0.0
 40
0.0674946482844705
 50
353.71683564064739
 51
186.2831643593556
  0
ARC
  5
3463
  8
0
 10
17.520721869399988
 20
30.097371288600002
 30
0.0
 40
0.0674999999999951
 50
353.7216272813879
 51
186.28033464660069
  0
ARC
  5
3464
  8
0
 10
18.575726902496982
 20
29.042365343375302
 30
0.0
 40
0.0674946410846952
 50
263.71682850711352
 51
96.283171492892919
  0
ARC
  5
3465
  8
0
 10
18.575721869399999
 20
11.95237128859999
 30
0.0
 40
0.0675000000000013
 50
263.72162736678121
 51
96.27837263321382
  0
ARC
  5
3466
  8
0
 10
17.52072186943391
 20
10.89737128862871
 30
0.0
 40
0.067500000030576
 50
173.72162730876121
 51
6.2783726912579603
  0
ARC
  5
3467
  8
0
 10
0.4307218693999955
 20
10.89737128859999
 30
0.0
 40
0.0675000000000005
 50
173.7216272813846
 51
6.2803346466016841
  0
ENDSEC
  0
EOF
