  0
SECTION
  2
HEADER
  9
$ACADVER
  1
AC1009
  9
$INSBASE
 10
3790.7773417092657837
 20
134.0246506361189063
 30
0.0
  9
$EXTMIN
 10
3768.3451730670258257
 20
124.6732765267935008
 30
-0.0015258207003583
  9
$EXTMAX
 10
3790.9038751998941734
 20
183.870497737710906
 30
0.0000000349246037
  9
$LIMMIN
 10
0.0
 20
0.0
  9
$LIMMAX
 10
11.6929133858000007
 20
8.2677165353999982
  9
$ORTHOMODE
 70
     0
  9
$REGENMODE
 70
     1
  9
$FILLMODE
 70
     1
  9
$QTEXTMODE
 70
     0
  9
$MIRRTEXT
 70
     0
  9
$DRAGMODE
 70
     2
  9
$LTSCALE
 40
0.6431102362
  9
$OSMODE
 70
  2039
  9
$ATTMODE
 70
     1
  9
$TEXTSIZE
 40
0.2
  9
$TRACEWID
 40
0.05
  9
$TEXTSTYLE
  7
STANDARD
  9
$CLAYER
  8
0
  9
$CELTYPE
  6
BYLAYER
  9
$CECOLOR
 62
   256
  9
$DIMSCALE
 40
1.0
  9
$DIMASZ
 40
0.1875
  9
$DIMEXO
 40
0.0625
  9
$DIMDLI
 40
0.4443307087
  9
$DIMRND
 40
0.0
  9
$DIMDLE
 40
0.0
  9
$DIMEXE
 40
0.125
  9
$DIMTP
 40
0.01
  9
$DIMTM
 40
0.01
  9
$DIMTXT
 40
2.0
  9
$DIMCEN
 40
0.1052362205
  9
$DIMTSZ
 40
0.0
  9
$DIMTOL
 70
     1
  9
$DIMLIM
 70
     0
  9
$DIMTIH
 70
     1
  9
$DIMTOH
 70
     1
  9
$DIMSE1
 70
     0
  9
$DIMSE2
 70
     0
  9
$DIMTAD
 70
     0
  9
$DIMZIN
 70
     0
  9
$DIMBLK
  1

  9
$DIMASO
 70
     1
  9
$DIMSHO
 70
     1
  9
$DIMPOST
  1
\X
  9
$DIMAPOST
  1

  9
$DIMALT
 70
     1
  9
$DIMALTD
 70
     2
  9
$DIMALTF
 40
25.3999999999999986
  9
$DIMLFAC
 40
1.0
  9
$DIMTOFL
 70
     0
  9
$DIMTVP
 40
0.0
  9
$DIMTIX
 70
     0
  9
$DIMSOXD
 70
     0
  9
$DIMSAH
 70
     0
  9
$DIMBLK1
  1

  9
$DIMBLK2
  1

  9
$DIMSTYLE
  2
STANDARD
  9
$DIMCLRD
 70
     0
  9
$DIMCLRE
 70
     0
  9
$DIMCLRT
 70
     0
  9
$DIMTFAC
 40
1.0
  9
$DIMGAP
 40
0.09
  9
$LUNITS
 70
     2
  9
$LUPREC
 70
     4
  9
$SKETCHINC
 40
0.1
  9
$FILLETRAD
 40
0.0
  9
$AUNITS
 70
     0
  9
$AUPREC
 70
     0
  9
$MENU
  1
.
  9
$ELEVATION
 40
0.0
  9
$PELEVATION
 40
0.0
  9
$THICKNESS
 40
0.0
  9
$LIMCHECK
 70
     0
  9
$BLIPMODE
 70
     0
  9
$CHAMFERA
 40
0.0
  9
$CHAMFERB
 40
0.0
  9
$SKPOLY
 70
     0
  9
$TDCREATE
 40
2458060.468368056230247
  9
$TDUPDATE
 40
2459233.7067824071273208
  9
$TDINDWG
 40
0.3202501157
  9
$TDUSRTIMER
 40
0.3202501157
  9
$USRTIMER
 70
     1
  9
$ANGBASE
 50
0.0
  9
$ANGDIR
 70
     0
  9
$PDMODE
 70
     0
  9
$PDSIZE
 40
0.3125
  9
$PLINEWID
 40
0.0
  9
$COORDS
 70
     1
  9
$SPLFRAME
 70
     0
  9
$SPLINETYPE
 70
     6
  9
$SPLINESEGS
 70
     8
  9
$ATTDIA
 70
     1
  9
$ATTREQ
 70
     1
  9
$HANDLING
 70
     1
  9
$HANDSEED
  5
11E85
  9
$SURFTAB1
 70
     6
  9
$SURFTAB2
 70
     6
  9
$SURFTYPE
 70
     6
  9
$SURFU
 70
     6
  9
$SURFV
 70
     6
  9
$UCSNAME
  2

  9
$UCSORG
 10
0.0
 20
0.0
 30
0.0
  9
$UCSXDIR
 10
1.0
 20
0.0
 30
0.0
  9
$UCSYDIR
 10
0.0
 20
1.0
 30
0.0
  9
$PUCSNAME
  2

  9
$PUCSORG
 10
0.0
 20
0.0
 30
0.0
  9
$PUCSXDIR
 10
1.0
 20
0.0
 30
0.0
  9
$PUCSYDIR
 10
0.0
 20
1.0
 30
0.0
  9
$USERI1
 70
     0
  9
$USERI2
 70
     0
  9
$USERI3
 70
     0
  9
$USERI4
 70
     0
  9
$USERI5
 70
     0
  9
$USERR1
 40
0.0
  9
$USERR2
 40
0.0
  9
$USERR3
 40
0.0
  9
$USERR4
 40
0.0
  9
$USERR5
 40
0.0
  9
$WORLDVIEW
 70
     1
  9
$SHADEDGE
 70
     3
  9
$SHADEDIF
 70
    70
  9
$TILEMODE
 70
     1
  9
$MAXACTVP
 70
    64
  9
$PLIMCHECK
 70
     0
  9
$PEXTMIN
 10
1.0000000000000000E+20
 20
1.0000000000000000E+20
 30
1.0000000000000000E+20
  9
$PEXTMAX
 10
-1.0000000000000000E+20
 20
-1.0000000000000000E+20
 30
-1.0000000000000000E+20
  9
$PLIMMIN
 10
0.0
 20
0.0
  9
$PLIMMAX
 10
12.0
 20
9.0
  9
$UNITMODE
 70
     0
  9
$VISRETAIN
 70
     1
  9
$PLINEGEN
 70
     0
  9
$PSLTSCALE
 70
     1
  0
ENDSEC
  0
SECTION
  2
TABLES
  0
TABLE
  2
VPORT
 70
     1
  0
VPORT
  2
*ACTIVE
 70
     0
 10
0.0
 20
0.0
 11
1.0
 21
1.0
 12
-23.9195432493524898
 22
28.2766249355022801
 13
0.0
 23
0.0
 14
1.0
 24
1.0
 15
0.0
 25
0.0
 16
0.0
 26
0.0
 36
17.1152628219792007
 17
3803.5440673828129547
 27
125.9952621967499056
 37
0.0
 40
59.6898471849332992
 41
2.6486111111111108
 42
50.0
 43
0.0
 44
0.0
 50
0.0
 51
0.0
 71
     0
 72
   100
 73
     1
 74
     1
 75
     0
 76
     0
 77
     0
 78
     0
  0
ENDTAB
  0
TABLE
  2
LTYPE
 70
     2
  0
LTYPE
  2
CONTINUOUS
 70
     0
  3
Solid line
 72
    65
 73
     0
 40
0.0
  0
LTYPE
  2
PHANTOM2
 70
     0
  3
___ _ _ ___ _ _ ___ _ _ ___ _ _
 72
    65
 73
     6
 40
1.25
 49
0.625
 49
-0.125
 49
0.125
 49
-0.125
 49
0.125
 49
-0.125
  0
ENDTAB
  0
TABLE
  2
LAYER
 70
     2
  0
LAYER
  2
0
 70
     0
 62
   255
  6
CONTINUOUS
  0
LAYER
  2
DEFPOINTS
 70
     0
 62
     7
  6
CONTINUOUS
  0
ENDTAB
  0
TABLE
  2
STYLE
 70
     1
  0
STYLE
  2
STANDARD
 70
     0
 40
0.0
 41
0.8
 50
0.0
 71
     0
 42
0.2
  3
txt
  4

  0
ENDTAB
  0
TABLE
  2
VIEW
 70
     0
  0
ENDTAB
  0
TABLE
  2
UCS
 70
     0
  0
ENDTAB
  0
TABLE
  2
APPID
 70
     9
  0
APPID
  2
ACAD
 70
     0
  0
APPID
  2
ACAD_MLEADERVER
 70
     0
  0
APPID
  2
ACAD_EXEMPT_FROM_CAD_STANDARDS
 70
     0
  0
APPID
  2
ACAD_NAV_VCDISPLAY
 70
     0
  0
APPID
  2
ACAECLAYERSTANDARD
 70
     0
  0
APPID
  2
ACCMTRANSPARENCY
 70
     0
  0
APPID
  2
ACAD_DSTYLE_DIMJAG
 70
     0
  0
APPID
  2
ACAD_DSTYLE_DIMTALN
 70
     0
  0
APPID
  2
ACDBATTR
 70
     0
  0
ENDTAB
  0
TABLE
  2
DIMSTYLE
 70
     1
  0
DIMSTYLE
  2
STANDARD
 70
     0
  3

  4

  5

  6

  7

 40
1.0
 41
0.1875
 42
0.0625
 43
0.38
 44
0.125
 45
0.0
 46
0.0
 47
0.01
 48
0.01
140
0.15625
141
0.09
142
0.0
143
25.3999999999999986
144
1.0
145
0.0
146
1.0
147
0.09
 71
     1
 72
     0
 73
     1
 74
     1
 75
     0
 76
     0
 77
     0
 78
     4
170
     0
171
     2
172
     0
173
     0
174
     0
175
     0
176
     0
177
     0
178
     0
  0
ENDTAB
  0
ENDSEC
  0
SECTION
  2
BLOCKS
  0
BLOCK
  8
0
  2
$MODEL_SPACE
 70
     0
 10
0.0
 20
0.0
 30
0.0
  3
$MODEL_SPACE
  1

  0
ENDBLK
  5
21
  8
0
  0
BLOCK
 67
     1
  8
0
  2
$PAPER_SPACE
 70
     0
 10
0.0
 20
0.0
 30
0.0
  3
$PAPER_SPACE
  1

  0
ENDBLK
  5
1D
 67
     1
  8
0
  0
BLOCK
  8
0
  2
_FILLED
 70
     0
 10
0.0
 20
0.0
 30
0.0
  3
_FILLED
  1

  0
SOLID
  5
D1BB
  8
0
  6
BYBLOCK
 62
     0
 10
0.0
 20
0.0
 30
0.0
 11
-1.0
 21
0.1666666667
 31
0.0
 12
-1.0
 22
-0.1666666667
 32
0.0
 13
-1.0
 23
-0.1666666667
 33
0.0
  0
ENDBLK
  5
D1BC
  8
0
  6
BYBLOCK
 62
     0
  0
ENDSEC
  0
SECTION
  2
ENTITIES
  0
ATTDEF
  5
C749
  8
DEFPOINTS
 10
3790.7775140325147731
 20
134.0284709359690112
 30
0.0
 40
0.001
  1
K-76795T-4
  3

  2
MODELNUMBER
 70
     0
1001
ACDBATTR
1070
     0
1070
     1
  0
ATTDEF
  5
C74A
  8
DEFPOINTS
 10
3790.7775140325147731
 20
134.0268042693022892
 30
0.0
 40
0.001
  1
KUMIN
  3

  2
TRADENAME
 70
     0
1001
ACDBATTR
1070
     0
1070
     1
  0
ATTDEF
  5
C74B
  8
DEFPOINTS
 10
3790.7775140325147731
 20
134.0251376026355956
 30
0.0
 40
0.001
  1
BATH AND SHOWER FAUCET
  3

  2
PRODUCT
 70
     0
1001
ACDBATTR
1070
     0
1070
     1
  0
LINE
  5
115A8
  8
0
 10
3790.7773417092162163
 20
135.3041727946188928
 30
0.0
 11
3790.7773417093158059
 21
132.7451284776188913
 31
0.0
  0
ARC
  5
115A9
  8
0
 10
3790.7576426430368883
 20
132.7451342878455876
 30
0.0
 40
0.0196990671355955
 50
270.040797922702609
 51
359.9831006478602262
  0
LINE
  5
115AA
  8
0
 10
3790.757656669915832
 20
132.7254352257039898
 30
0.0
 11
3790.6356094258158009
 21
132.7254352257039898
 31
0.0
  0
ARC
  5
115AB
  8
0
 10
3790.6356356359528945
 20
132.922326198785413
 30
0.0
 40
0.1968909748259609
 50
218.0027263643316076
 51
269.9923727825981246
  0
ARC
  5
115AC
  8
0
 10
-260395.3553796772903297
 20
-206271.7952283993072342
 30
0.0
 40
335256.6379051808035001
 50
38.0000000051230913
 51
38.0001315430332696
  0
ARC
  5
115AD
  8
0
 10
3790.0686744780400659
 20
133.456083771762593
 30
0.0
 40
0.0787343436991881
 50
179.9974989648275141
 51
218.0001315430332909
  0
LINE
  5
115AE
  8
0
 10
3789.9899401344159742
 20
133.4560872086188965
 30
0.0
 11
3789.9899897719519686
 21
134.5932248636354984
 31
0.0
  0
ARC
  5
115AF
  8
0
 10
3790.0689251070130013
 20
134.5932214180056974
 30
0.0
 40
0.0789353351366763
 50
142.1074321309382924
 51
179.9974989648258088
  0
ARC
  5
115B0
  8
0
 10
3952.0744409395911134
 20
8.5091149043005316
 30
0.0
 40
205.3665118602133077
 50
141.8926994283694114
 51
142.1074321309382924
  0
ARC
  5
115B1
  8
0
 10
3790.6359601587578254
 20
135.126282019148988
 30
0.0
 40
0.1975812567486815
 50
90.1017076628039888
 51
141.8945819580094962
  0
LINE
  5
115B2
  8
0
 10
3790.6356094258158009
 20
135.3238629645987032
 30
0.0
 11
3790.7576564571950257
 21
135.3238629645987032
 31
0.0
  0
ARC
  5
115B3
  8
0
 10
3790.7576663467461913
 20
135.3041876041056071
 30
0.0
 40
0.0196753629785466
 50
359.9883273491524278
 51
90.0287989377017936
  0
LINE
  5
115B4
  8
0
 10
3789.9308847220167991
 20
134.5955222961189008
 30
0.0
 11
3789.9308853106158494
 21
133.4537900126188958
 31
0.0
  0
LINE
  5
115B5
  8
0
 10
3789.9308853106158494
 20
133.4537900126188958
 30
0.0
 11
3789.871830223015877
 21
133.3947348641189024
 31
0.0
  0
LINE
  5
115B6
  8
0
 10
3789.871830223015877
 20
133.3947348641189024
 30
0.0
 11
3789.3993892781159047
 21
133.3947346195865862
 31
0.0
  0
LINE
  5
115B7
  8
0
 10
3789.3993892781159047
 20
133.3947346195865862
 30
0.0
 11
3789.3403341295161226
 21
133.453789708218892
 31
0.0
  0
LINE
  5
115B8
  8
0
 10
3789.3403341295161226
 20
133.453789708218892
 30
0.0
 11
3789.3403324196160611
 21
134.5955219916189094
 31
0.0
  0
LINE
  5
115B9
  8
0
 10
3789.3403324196160611
 20
134.5955219916189094
 30
0.0
 11
3789.399387507316078
 21
134.6545771402188905
 31
0.0
  0
LINE
  5
115BA
  8
0
 10
3789.399387507316078
 20
134.6545771402188905
 30
0.0
 11
3789.8718295734161075
 21
134.6545773838188893
 31
0.0
  0
LINE
  5
115BB
  8
0
 10
3789.8718295734161075
 20
134.6545773838188893
 30
0.0
 11
3789.9308847220167991
 21
134.5955222961189008
 31
0.0
  0
LINE
  5
115BC
  8
0
 10
3789.9308847514457739
 20
134.5384355642189007
 30
0.0
 11
3789.9899873803269656
 21
134.5384355642189007
 31
0.0
  0
LINE
  5
115BD
  8
0
 10
3789.9308852812159785
 20
133.5108765091189014
 30
0.0
 11
3789.9899425260400676
 21
133.5108765091189014
 31
0.0
  0
LINE
  5
115BE
  8
0
 10
3789.3993892781159047
 20
133.3947346195865862
 30
0.0
 11
3789.3993892735338704
 21
133.4036218946189081
 31
0.0
  0
ARC
  5
115BF
  8
0
 10
3789.5322747846780658
 20
133.5132236238324879
 30
0.0
 40
0.1722530061244843
 50
140.4848217589955084
 51
219.5152373224831877
  0
LINE
  5
115C0
  8
0
 10
3789.3993891605168756
 20
133.6228252160188958
 30
0.0
 11
3789.3993890663500679
 21
133.805452559018903
 31
0.0
  0
ARC
  5
115C1
  8
0
 10
3789.9899843087227964
 20
134.0246561848196052
 30
0.0
 40
0.6299626734341635
 50
159.6372928319119922
 51
200.3627662491988985
  0
LINE
  5
115C2
  8
0
 10
3789.3993888403160781
 20
134.243859201718891
 30
0.0
 11
3789.3993887461488157
 21
134.4264865447188981
 31
0.0
  0
ARC
  5
115C3
  8
0
 10
3789.5322743304800497
 20
134.5360882739180965
 30
0.0
 40
0.1722530626053895
 50
140.4848372479659986
 51
219.5152218419578958
  0
LINE
  5
115C4
  8
0
 10
3789.3993886331159047
 20
134.6456898661188859
 30
0.0
 11
3789.399387507316078
 21
134.6545771402188905
 31
0.0
  0
LINE
  5
115C5
  8
0
 10
3789.8718278026158259
 20
133.3947346195865862
 30
0.0
 11
3789.8718278071992245
 21
133.4036218946189081
 31
0.0
  0
ARC
  5
115C6
  8
0
 10
3789.7389422960541197
 20
133.5132236238324879
 30
0.0
 40
0.1722530061244843
 50
320.4847626775168123
 51
39.5151782410044703
  0
LINE
  5
115C7
  8
0
 10
3789.8718279202162194
 20
133.6228252160188958
 30
0.0
 11
3789.871828014383027
 21
133.805452559018903
 31
0.0
  0
ARC
  5
115C8
  8
0
 10
3789.2812327720089343
 20
134.0246561848196052
 30
0.0
 40
0.6299626734341635
 50
339.6372337508012151
 51
20.362707168087919
  0
LINE
  5
115C9
  8
0
 10
3789.8718282404161073
 20
134.243859201718891
 30
0.0
 11
3789.8718283345820055
 21
134.4264865447188981
 31
0.0
  0
ARC
  5
115CA
  8
0
 10
3789.7389427502521357
 20
134.5360882739180965
 30
0.0
 40
0.1722530626053895
 50
320.4847781580421042
 51
39.5151627520339304
  0
LINE
  5
115CB
  8
0
 10
3789.871828447615826
 20
134.6456898661188859
 30
0.0
 11
3789.8718295734161075
 21
134.6545771402188905
 31
0.0
  0
LINE
  5
115CC
  8
0
 10
3789.3993886456519249
 20
134.4264866665187128
 30
0.0
 11
3789.87182843508117
 21
134.4264866665187128
 31
0.0
  0
LINE
  5
115CD
  8
0
 10
3789.399388885522967
 20
134.2438593235189046
 30
0.0
 11
3789.8718281952092184
 21
134.2438593235189046
 31
0.0
  0
LINE
  5
115CE
  8
0
 10
3789.3993890211067992
 20
133.8054526808188882
 30
0.0
 11
3789.8718280596249315
 21
133.8054526808188882
 31
0.0
  0
LINE
  5
115CF
  8
0
 10
3789.3993892609328213
 20
133.6228253377688873
 30
0.0
 11
3789.8718278197979998
 21
133.6228253377688873
 31
0.0
  0
LINE
  5
115D0
  8
0
 10
3788.9781301057028031
 20
134.6149027994337075
 30
0.0
 11
3789.2537193077209849
 21
134.6149035638188991
 31
0.0
  0
ARC
  5
115D1
  8
0
 10
3789.2537181665511525
 20
134.5952174497193994
 30
0.0
 40
0.0196861141325694
 50
0.0047349796085381
 51
89.9966786613957055
  0
LINE
  5
115D2
  8
0
 10
3789.2734042806159778
 20
134.5952190765993066
 30
0.0
 11
3789.2734091616280239
 21
134.5361562321205895
 31
0.0
  0
LINE
  5
115D3
  8
0
 10
3789.2734091616280239
 20
134.5361562321205895
 30
0.0
 11
3789.2537192609161139
 21
134.5361562217188975
 31
0.0
  0
LINE
  5
115D4
  8
0
 10
3789.2537191831161181
 20
134.6149042267188918
 30
0.0
 11
3789.2537175338429734
 21
133.0187511140188974
 31
0.0
  0
LINE
  5
115D5
  8
0
 10
3789.2734047736162211
 20
133.0187511140188974
 30
0.0
 11
3789.2734058266159991
 21
133.6033959728785021
 31
0.0
  0
LINE
  5
115D6
  8
0
 10
3789.3403339054598291
 20
133.6033960074188087
 30
0.0
 11
3789.253719879216078
 21
133.6033959627189063
 31
0.0
  0
ARC
  5
115D7
  8
0
 10
3789.2535131694771735
 20
133.4566143934517868
 30
0.0
 40
0.019892070889335
 50
270.5954890571218243
 51
359.6274948217497922
  0
LINE
  5
115D8
  8
0
 10
3789.2537197868159637
 20
133.5155547498189037
 30
0.0
 11
3789.2734058381288378
 21
133.515554752399197
 31
0.0
  0
LINE
  5
115D9
  8
0
 10
3789.25371986568598
 20
133.5214437575459954
 30
0.0
 11
3789.2615947124158993
 21
133.5214437615582881
 31
0.0
  0
ARC
  5
115DA
  8
0
 10
3789.2615947063977728
 20
133.533254766876496
 30
0.0
 40
0.0118110053181566
 50
270.0000291930243179
 51
0.0796070308671036
  0
LINE
  5
115DB
  8
0
 10
3789.2537194419160187
 20
134.5297734371189051
 30
0.0
 11
3789.2615958270162082
 21
134.529773428018899
 31
0.0
  0
ARC
  5
115DC
  8
0
 10
3789.2615958133701497
 20
134.517962418861913
 30
0.0
 40
0.0118110091570637
 50
359.9974825759733221
 51
89.9999338031782941
  0
LINE
  5
115DD
  8
0
 10
3789.2734068225149713
 20
134.5179618999175091
 30
0.0
 11
3789.2734036569950149
 21
134.4459156580259958
 31
0.0
  0
LINE
  5
115DE
  8
0
 10
3789.2537194448159426
 20
134.4459156478189072
 30
0.0
 11
3789.3403326436718999
 21
134.4459156924183958
 31
0.0
  0
LINE
  5
115DF
  8
0
 10
3785.2356328380010382
 20
132.3770000220461895
 30
0.0
 11
3786.1567321287011509
 21
132.3770000217689073
 31
0.0
  0
LINE
  5
115E0
  8
0
 10
3786.1567321287011509
 20
132.3770000217689073
 30
0.0
 11
3786.1567321096658816
 21
132.0817242618427088
 31
0.0
  0
LINE
  5
115E1
  8
0
 10
3786.1567321096658816
 20
132.0817242618427088
 30
0.0
 11
3785.2356328189639498
 21
132.0817242621199057
 31
0.0
  0
LINE
  5
115E2
  8
0
 10
3785.2356328189639498
 20
132.0817242621199057
 30
0.0
 11
3785.2356328380010382
 21
132.3770000220461895
 31
0.0
  0
LINE
  5
115E3
  8
0
 10
3785.4209341793148269
 20
132.0817242618427088
 30
0.0
 11
3785.4209341983510058
 21
132.3770000217689073
 31
0.0
  0
LINE
  5
115E4
  8
0
 10
3785.9721152817160146
 20
132.0817242618427088
 30
0.0
 11
3785.9721153007508292
 21
132.3770000217689073
 31
0.0
  0
LINE
  5
115E5
  8
0
 10
3785.695539703950999
 20
132.3770000217689073
 30
0.0
 11
3785.6955396849161843
 21
132.0817242618427088
 31
0.0
  0
LINE
  5
115E6
  8
0
 10
3785.6826910820159355
 20
132.0817242618427088
 30
0.0
 11
3785.6826911010512049
 21
132.3770000217689073
 31
0.0
  0
LINE
  5
115E7
  8
0
 10
3785.6787564725159427
 20
132.0817242618427088
 30
0.0
 11
3785.6787564915512121
 21
132.3770000217689073
 31
0.0
  0
LINE
  5
115E8
  8
0
 10
3785.6671633883161121
 20
132.0817242618427088
 30
0.0
 11
3785.6671634073509267
 21
132.3770000217689073
 31
0.0
  0
LINE
  5
115E9
  8
0
 10
3785.6651980961150912
 20
132.0817242618427088
 30
0.0
 11
3785.6651981151508153
 21
132.3770000217689073
 31
0.0
  0
LINE
  5
115EA
  8
0
 10
3785.6511565717160011
 20
132.0817242618427088
 30
0.0
 11
3785.6511565907508157
 21
132.3770000217689073
 31
0.0
  0
LINE
  5
115EB
  8
0
 10
3785.6472411312151962
 20
132.0817242618427088
 30
0.0
 11
3785.6472411502509203
 21
132.3770000217689073
 31
0.0
  0
LINE
  5
115EC
  8
0
 10
3785.6369600460161564
 20
132.0817242618427088
 30
0.0
 11
3785.636960065050971
 21
132.3770000217689073
 31
0.0
  0
LINE
  5
115ED
  8
0
 10
3785.6350091276158309
 20
132.0817242618427088
 30
0.0
 11
3785.6350091466511003
 21
132.3770000217689073
 31
0.0
  0
LINE
  5
115EE
  8
0
 10
3785.6198430905160421
 20
132.0817242618427088
 30
0.0
 11
3785.6198431095508568
 21
132.3770000217689073
 31
0.0
  0
LINE
  5
115EF
  8
0
 10
3785.6159658946157833
 20
132.0817242618427088
 30
0.0
 11
3785.6159659136510527
 21
132.3770000217689073
 31
0.0
  0
LINE
  5
115F0
  8
0
 10
3785.607046896815973
 20
132.0817242618427088
 30
0.0
 11
3785.6070469158507876
 21
132.3770000217689073
 31
0.0
  0
LINE
  5
115F1
  8
0
 10
3785.6051198569161897
 20
132.0817242618427088
 30
0.0
 11
3785.6051198759510044
 21
132.3770000217689073
 31
0.0
  0
LINE
  5
115F2
  8
0
 10
3785.5889031945148417
 20
132.0817242618427088
 30
0.0
 11
3785.5889032135510206
 21
132.3770000217689073
 31
0.0
  0
LINE
  5
115F3
  8
0
 10
3785.5850831326160915
 20
132.0817242618427088
 30
0.0
 11
3785.5850831516509061
 21
132.3770000217689073
 31
0.0
  0
LINE
  5
115F4
  8
0
 10
3785.57756967471596
 20
132.0817242618427088
 30
0.0
 11
3785.5775696937507746
 21
132.3770000217689073
 31
0.0
  0
LINE
  5
115F5
  8
0
 10
3785.5756759015148418
 20
132.0817242618427088
 30
0.0
 11
3785.5756759205510207
 21
132.3770000217689073
 31
0.0
  0
LINE
  5
115F6
  8
0
 10
3785.5584876199150131
 20
132.0817242618427088
 30
0.0
 11
3785.5584876389511919
 21
132.3770000217689073
 31
0.0
  0
LINE
  5
115F7
  8
0
 10
3785.5547433029159947
 20
132.0817242618427088
 30
0.0
 11
3785.5547433219508093
 21
132.3770000217689073
 31
0.0
  0
LINE
  5
115F8
  8
0
 10
3785.548671989714876
 20
132.0817242618427088
 30
0.0
 11
3785.5486720087510548
 21
132.3770000217689073
 31
0.0
  0
LINE
  5
115F9
  8
0
 10
3785.5468207095159414
 20
132.0817242618427088
 30
0.0
 11
3785.5468207285512108
 21
132.3770000217689073
 31
0.0
  0
LINE
  5
115FA
  8
0
 10
3785.5287445481149007
 20
132.0817242618427088
 30
0.0
 11
3785.5287445671510795
 21
132.3770000217689073
 31
0.0
  0
LINE
  5
115FB
  8
0
 10
3785.5250942180159655
 20
132.0817242618427088
 30
0.0
 11
3785.5250942370507801
 21
132.3770000217689073
 31
0.0
  0
LINE
  5
115FC
  8
0
 10
3785.5204946283161007
 20
132.0817242618427088
 30
0.0
 11
3785.5204946473509153
 21
132.3770000217689073
 31
0.0
  0
LINE
  5
115FD
  8
0
 10
3785.5186948605160069
 20
132.0817242618427088
 30
0.0
 11
3785.5186948795508215
 21
132.3770000217689073
 31
0.0
  0
LINE
  5
115FE
  8
0
 10
3785.4998188846161611
 20
132.0817242618427088
 30
0.0
 11
3785.4998189036509757
 21
132.3770000217689073
 31
0.0
  0
LINE
  5
115FF
  8
0
 10
3785.4962803253160928
 20
132.0817242618427088
 30
0.0
 11
3785.4962803443509074
 21
132.3770000217689073
 31
0.0
  0
LINE
  5
11600
  8
0
 10
3785.4931748679159682
 20
132.0817242618427088
 30
0.0
 11
3785.4931748869507828
 21
132.3770000217689073
 31
0.0
  0
LINE
  5
11601
  8
0
 10
3785.4914353806161671
 20
132.0817242618427088
 30
0.0
 11
3785.4914353996509817
 21
132.3770000217689073
 31
0.0
  0
LINE
  5
11602
  8
0
 10
3785.4718515521158224
 20
132.0817242618427088
 30
0.0
 11
3785.4718515711510918
 21
132.3770000217689073
 31
0.0
  0
LINE
  5
11603
  8
0
 10
3785.4684420033158858
 20
132.0817242618427088
 30
0.0
 11
3785.4684420223511552
 21
132.3770000217689073
 31
0.0
  0
LINE
  5
11604
  8
0
 10
3785.4668458076148454
 20
132.0817242618427088
 30
0.0
 11
3785.4668458266510243
 21
132.3770000217689073
 31
0.0
  0
LINE
  5
11605
  8
0
 10
3785.465175075516072
 20
132.0817242618427088
 30
0.0
 11
3785.4651750945508866
 21
132.3770000217689073
 31
0.0
  0
LINE
  5
11606
  8
0
 10
3785.4449788048159462
 20
132.0817242618427088
 30
0.0
 11
3785.4449788238512156
 21
132.3770000217689073
 31
0.0
  0
LINE
  5
11607
  8
0
 10
3785.4417148774150519
 20
132.0817242618427088
 30
0.0
 11
3785.441714896450776
 21
132.3770000217689073
 31
0.0
  0
LINE
  5
11608
  8
0
 10
3785.4400418827149224
 20
132.0817242618427088
 30
0.0
 11
3785.4400419017511012
 21
132.3770000217689073
 31
0.0
  0
LINE
  5
11609
  8
0
 10
3785.4193315640150104
 20
132.0817242618427088
 30
0.0
 11
3785.4193315830511892
 21
132.3770000217689073
 31
0.0
  0
LINE
  5
1160A
  8
0
 10
3785.4162291595148417
 20
132.0817242618427088
 30
0.0
 11
3785.4162291785510206
 21
132.3770000217689073
 31
0.0
  0
LINE
  5
1160B
  8
0
 10
3785.3950347804161538
 20
132.0817242618427088
 30
0.0
 11
3785.3950347994518779
 21
132.3770000217689073
 31
0.0
  0
LINE
  5
1160C
  8
0
 10
3785.3921090134158476
 20
132.0817242618427088
 30
0.0
 11
3785.3921090324502075
 21
132.3770000217689073
 31
0.0
  0
LINE
  5
1160D
  8
0
 10
3785.3722068255160593
 20
132.0817242618427088
 30
0.0
 11
3785.3722068445508739
 21
132.3770000217689073
 31
0.0
  0
LINE
  5
1160E
  8
0
 10
3785.3694719501158943
 20
132.0817242618427088
 30
0.0
 11
3785.3694719691511636
 21
132.3770000217689073
 31
0.0
  0
LINE
  5
1160F
  8
0
 10
3785.3509589149161911
 20
132.0817242618427088
 30
0.0
 11
3785.3509589339510057
 21
132.3770000217689073
 31
0.0
  0
LINE
  5
11610
  8
0
 10
3785.3484282550161879
 20
132.0817242618427088
 30
0.0
 11
3785.348428274050093
 21
132.3770000217689073
 31
0.0
  0
LINE
  5
11611
  8
0
 10
3785.3313945662148399
 20
132.0817242618427088
 30
0.0
 11
3785.3313945852510187
 21
132.3770000217689073
 31
0.0
  0
LINE
  5
11612
  8
0
 10
3785.3290804510161252
 20
132.0817242618427088
 30
0.0
 11
3785.3290804700509398
 21
132.3770000217689073
 31
0.0
  0
LINE
  5
11613
  8
0
 10
3785.3136090949160462
 20
132.0817242618427088
 30
0.0
 11
3785.3136091139508608
 21
132.3770000217689073
 31
0.0
  0
LINE
  5
11614
  8
0
 10
3785.311522798615897
 20
132.0817242618427088
 30
0.0
 11
3785.3115228176511664
 21
132.3770000217689073
 31
0.0
  0
LINE
  5
11615
  8
0
 10
3785.2898220922647852
 20
132.0817242618427088
 30
0.0
 11
3785.289822111300964
 21
132.3770000217689073
 31
0.0
  0
LINE
  5
11616
  8
0
 10
3785.2879737789658066
 20
132.0817242618427088
 30
0.0
 11
3785.2879737980010759
 21
132.3770000217689073
 31
0.0
  0
LINE
  5
11617
  8
0
 10
3785.2758452343659883
 20
132.0817242618427088
 30
0.0
 11
3785.2758452534008029
 21
132.3770000217689073
 31
0.0
  0
LINE
  5
11618
  8
0
 10
3785.274243908965218
 20
132.0817242618427088
 30
0.0
 11
3785.2742439280009421
 21
132.3770000217689073
 31
0.0
  0
LINE
  5
11619
  8
0
 10
3785.2638795571660921
 20
132.0817242618427088
 30
0.0
 11
3785.2638795762009067
 21
132.3770000217689073
 31
0.0
  0
LINE
  5
1161A
  8
0
 10
3785.262533021164927
 20
132.0817242618427088
 30
0.0
 11
3785.2625330402011059
 21
132.3770000217689073
 31
0.0
  0
LINE
  5
1161B
  8
0
 10
3785.2539833561659179
 20
132.0817242618427088
 30
0.0
 11
3785.2539833752011873
 21
132.3770000217689073
 31
0.0
  0
LINE
  5
1161C
  8
0
 10
3785.2528981697660129
 20
132.0817242618427088
 30
0.0
 11
3785.2528981888008275
 21
132.3770000217689073
 31
0.0
  0
LINE
  5
1161D
  8
0
 10
3785.2462048448660425
 20
132.0817242618427088
 30
0.0
 11
3785.2462048639008572
 21
132.3770000217689073
 31
0.0
  0
LINE
  5
1161E
  8
0
 10
3785.2453862948659662
 20
132.0817242618427088
 30
0.0
 11
3785.2453863139007808
 21
132.3770000217689073
 31
0.0
  0
LINE
  5
1161F
  8
0
 10
3785.2405819191649243
 20
132.0817242618427088
 30
0.0
 11
3785.2405819382011032
 21
132.3770000217689073
 31
0.0
  0
LINE
  5
11620
  8
0
 10
3785.2400339935661577
 20
132.0817242618427088
 30
0.0
 11
3785.2400340126009723
 21
132.3770000217689073
 31
0.0
  0
LINE
  5
11621
  8
0
 10
3785.2371419735659401
 20
132.0817242618427088
 30
0.0
 11
3785.2371419926012095
 21
132.3770000217689073
 31
0.0
  0
LINE
  5
11622
  8
0
 10
3785.2368673417659011
 20
132.0817242618427088
 30
0.0
 11
3785.2368673608011704
 21
132.3770000217689073
 31
0.0
  0
LINE
  5
11623
  8
0
 10
3785.697509795150836
 20
132.3770000217689073
 30
0.0
 11
3785.6975097761160214
 21
132.0817242618427088
 31
0.0
  0
LINE
  5
11624
  8
0
 10
3785.7103583790158154
 20
132.0817242618427088
 30
0.0
 11
3785.7103583980510848
 21
132.3770000217689073
 31
0.0
  0
LINE
  5
11625
  8
0
 10
3785.7142929885158082
 20
132.0817242618427088
 30
0.0
 11
3785.7142930075510776
 21
132.3770000217689073
 31
0.0
  0
LINE
  5
11626
  8
0
 10
3785.7258860727160936
 20
132.0817242618427088
 30
0.0
 11
3785.7258860917509082
 21
132.3770000217689073
 31
0.0
  0
LINE
  5
11627
  8
0
 10
3785.7278513649162051
 20
132.0817242618427088
 30
0.0
 11
3785.7278513839501102
 21
132.3770000217689073
 31
0.0
  0
LINE
  5
11628
  8
0
 10
3785.7418928893162047
 20
132.0817242618427088
 30
0.0
 11
3785.7418929083510193
 21
132.3770000217689073
 31
0.0
  0
LINE
  5
11629
  8
0
 10
3785.7458083298161
 20
132.0817242618427088
 30
0.0
 11
3785.7458083488509146
 21
132.3770000217689073
 31
0.0
  0
LINE
  5
1162A
  8
0
 10
3785.7560894150151398
 20
132.0817242618427088
 30
0.0
 11
3785.7560894340508639
 21
132.3770000217689073
 31
0.0
  0
LINE
  5
1162B
  8
0
 10
3785.75804033341592
 20
132.0817242618427088
 30
0.0
 11
3785.7580403524511894
 21
132.3770000217689073
 31
0.0
  0
LINE
  5
1162C
  8
0
 10
3785.7732063705161636
 20
132.0817242618427088
 30
0.0
 11
3785.7732063895509782
 21
132.3770000217689073
 31
0.0
  0
LINE
  5
1162D
  8
0
 10
3785.7770835664150582
 20
132.0817242618427088
 30
0.0
 11
3785.7770835854507823
 21
132.3770000217689073
 31
0.0
  0
LINE
  5
1162E
  8
0
 10
3785.7860025642148685
 20
132.0817242618427088
 30
0.0
 11
3785.7860025832510473
 21
132.3770000217689073
 31
0.0
  0
LINE
  5
1162F
  8
0
 10
3785.7879296041151065
 20
132.0817242618427088
 30
0.0
 11
3785.7879296231508306
 21
132.3770000217689073
 31
0.0
  0
LINE
  5
11630
  8
0
 10
3785.8041462665159997
 20
132.0817242618427088
 30
0.0
 11
3785.8041462855508144
 21
132.3770000217689073
 31
0.0
  0
LINE
  5
11631
  8
0
 10
3785.8079663284161143
 20
132.0817242618427088
 30
0.0
 11
3785.8079663474509289
 21
132.3770000217689073
 31
0.0
  0
LINE
  5
11632
  8
0
 10
3785.815479786315791
 20
132.0817242618427088
 30
0.0
 11
3785.8154798053501509
 21
132.3770000217689073
 31
0.0
  0
LINE
  5
11633
  8
0
 10
3785.8173735595159997
 20
132.0817242618427088
 30
0.0
 11
3785.8173735785508143
 21
132.3770000217689073
 31
0.0
  0
LINE
  5
11634
  8
0
 10
3785.8345618411158284
 20
132.0817242618427088
 30
0.0
 11
3785.8345618601510978
 21
132.3770000217689073
 31
0.0
  0
LINE
  5
11635
  8
0
 10
3785.8383061581148468
 20
132.0817242618427088
 30
0.0
 11
3785.8383061771510256
 21
132.3770000217689073
 31
0.0
  0
LINE
  5
11636
  8
0
 10
3785.8443774713159655
 20
132.0817242618427088
 30
0.0
 11
3785.8443774903507801
 21
132.3770000217689073
 31
0.0
  0
LINE
  5
11637
  8
0
 10
3785.8462287515149001
 20
132.0817242618427088
 30
0.0
 11
3785.8462287705510789
 21
132.3770000217689073
 31
0.0
  0
LINE
  5
11638
  8
0
 10
3785.8643049129159408
 20
132.0817242618427088
 30
0.0
 11
3785.8643049319512102
 21
132.3770000217689073
 31
0.0
  0
LINE
  5
11639
  8
0
 10
3785.867955243014876
 20
132.0817242618427088
 30
0.0
 11
3785.8679552620510549
 21
132.3770000217689073
 31
0.0
  0
LINE
  5
1163A
  8
0
 10
3785.872554832716105
 20
132.0817242618427088
 30
0.0
 11
3785.8725548517518291
 21
132.3770000217689073
 31
0.0
  0
LINE
  5
1163B
  8
0
 10
3785.8743546005148346
 20
132.0817242618427088
 30
0.0
 11
3785.8743546195510135
 21
132.3770000217689073
 31
0.0
  0
LINE
  5
1163C
  8
0
 10
3785.8932305764160446
 20
132.0817242618427088
 30
0.0
 11
3785.8932305954508593
 21
132.3770000217689073
 31
0.0
  0
LINE
  5
1163D
  8
0
 10
3785.8967691357161129
 20
132.0817242618427088
 30
0.0
 11
3785.896769154751837
 21
132.3770000217689073
 31
0.0
  0
LINE
  5
1163E
  8
0
 10
3785.8998745931148733
 20
132.0817242618427088
 30
0.0
 11
3785.8998746121510521
 21
132.3770000217689073
 31
0.0
  0
LINE
  5
1163F
  8
0
 10
3785.9016140804160386
 20
132.0817242618427088
 30
0.0
 11
3785.9016140994508532
 21
132.3770000217689073
 31
0.0
  0
LINE
  5
11640
  8
0
 10
3785.9211979089159286
 20
132.0817242618427088
 30
0.0
 11
3785.9211979279511979
 21
132.3770000217689073
 31
0.0
  0
LINE
  5
11641
  8
0
 10
3785.9246074577158652
 20
132.0817242618427088
 30
0.0
 11
3785.9246074767511345
 21
132.3770000217689073
 31
0.0
  0
LINE
  5
11642
  8
0
 10
3785.9262036534159961
 20
132.0817242618427088
 30
0.0
 11
3785.9262036724508107
 21
132.3770000217689073
 31
0.0
  0
LINE
  5
11643
  8
0
 10
3785.9278743855161338
 20
132.0817242618427088
 30
0.0
 11
3785.9278744045509484
 21
132.3770000217689073
 31
0.0
  0
LINE
  5
11644
  8
0
 10
3785.9480706562148953
 20
132.0817242618427088
 30
0.0
 11
3785.9480706752510741
 21
132.3770000217689073
 31
0.0
  0
LINE
  5
11645
  8
0
 10
3785.9513345836157896
 20
132.0817242618427088
 30
0.0
 11
3785.951334602651059
 21
132.3770000217689073
 31
0.0
  0
LINE
  5
11646
  8
0
 10
3785.9530075783159191
 20
132.0817242618427088
 30
0.0
 11
3785.9530075973511885
 21
132.3770000217689073
 31
0.0
  0
LINE
  5
11647
  8
0
 10
3785.9737178970158311
 20
132.0817242618427088
 30
0.0
 11
3785.973717916050191
 21
132.3770000217689073
 31
0.0
  0
LINE
  5
11648
  8
0
 10
3785.9768203015159997
 20
132.0817242618427088
 30
0.0
 11
3785.9768203205508144
 21
132.3770000217689073
 31
0.0
  0
LINE
  5
11649
  8
0
 10
3785.9980146806160519
 20
132.0817242618427088
 30
0.0
 11
3785.9980146996508665
 21
132.3770000217689073
 31
0.0
  0
LINE
  5
1164A
  8
0
 10
3786.0009404476149939
 20
132.0817242618427088
 30
0.0
 11
3786.0009404666511728
 21
132.3770000217689073
 31
0.0
  0
LINE
  5
1164B
  8
0
 10
3786.0208426355161464
 20
132.0817242618427088
 30
0.0
 11
3786.020842654550961
 21
132.3770000217689073
 31
0.0
  0
LINE
  5
1164C
  8
0
 10
3786.0235775109158567
 20
132.0817242618427088
 30
0.0
 11
3786.0235775299511261
 21
132.3770000217689073
 31
0.0
  0
LINE
  5
1164D
  8
0
 10
3786.0420905461160146
 20
132.0817242618427088
 30
0.0
 11
3786.0420905651508292
 21
132.3770000217689073
 31
0.0
  0
LINE
  5
1164E
  8
0
 10
3786.0446212060151083
 20
132.0817242618427088
 30
0.0
 11
3786.0446212250508324
 21
132.3770000217689073
 31
0.0
  0
LINE
  5
1164F
  8
0
 10
3786.0616548948160016
 20
132.0817242618427088
 30
0.0
 11
3786.0616549138508162
 21
132.3770000217689073
 31
0.0
  0
LINE
  5
11650
  8
0
 10
3786.0639690100160806
 20
132.0817242618427088
 30
0.0
 11
3786.0639690290508952
 21
132.3770000217689073
 31
0.0
  0
LINE
  5
11651
  8
0
 10
3786.0794403661161596
 20
132.0817242618427088
 30
0.0
 11
3786.0794403851509742
 21
132.3770000217689073
 31
0.0
  0
LINE
  5
11652
  8
0
 10
3786.0815266624158539
 20
132.0817242618427088
 30
0.0
 11
3786.0815266814511233
 21
132.3770000217689073
 31
0.0
  0
LINE
  5
11653
  8
0
 10
3786.1028117844648477
 20
132.0817242618427088
 30
0.0
 11
3786.1028118035010266
 21
132.3770000217689073
 31
0.0
  0
LINE
  5
11654
  8
0
 10
3786.1046600977651906
 20
132.0817242618427088
 30
0.0
 11
3786.1046601168018242
 21
132.3770000217689073
 31
0.0
  0
LINE
  5
11655
  8
0
 10
3786.1167886423659183
 20
132.0817242618427088
 30
0.0
 11
3786.1167886614011877
 21
132.3770000217689073
 31
0.0
  0
LINE
  5
11656
  8
0
 10
3786.1183899677657791
 20
132.0817242618427088
 30
0.0
 11
3786.1183899868010485
 21
132.3770000217689073
 31
0.0
  0
LINE
  5
11657
  8
0
 10
3786.128754319564905
 20
132.0817242618427088
 30
0.0
 11
3786.1287543386010839
 21
132.3770000217689073
 31
0.0
  0
LINE
  5
11658
  8
0
 10
3786.1301008555651606
 20
132.0817242618427088
 30
0.0
 11
3786.1301008746008847
 21
132.3770000217689073
 31
0.0
  0
LINE
  5
11659
  8
0
 10
3786.1386505205650792
 20
132.0817242618427088
 30
0.0
 11
3786.1386505396008033
 21
132.3770000217689073
 31
0.0
  0
LINE
  5
1165A
  8
0
 10
3786.1397357069658938
 20
132.0817242618427088
 30
0.0
 11
3786.1397357260011631
 21
132.3770000217689073
 31
0.0
  0
LINE
  5
1165B
  8
0
 10
3786.1464290318658641
 20
132.0817242618427088
 30
0.0
 11
3786.1464290509011335
 21
132.3770000217689073
 31
0.0
  0
LINE
  5
1165C
  8
0
 10
3786.1472475818659404
 20
132.0817242618427088
 30
0.0
 11
3786.1472476009012098
 21
132.3770000217689073
 31
0.0
  0
LINE
  5
1165D
  8
0
 10
3786.1520519575660728
 20
132.0817242618427088
 30
0.0
 11
3786.1520519766008874
 21
132.3770000217689073
 31
0.0
  0
LINE
  5
1165E
  8
0
 10
3786.1525998831648394
 20
132.0817242618427088
 30
0.0
 11
3786.1525999022019278
 21
132.3770000217689073
 31
0.0
  0
LINE
  5
1165F
  8
0
 10
3786.1554919031659665
 20
132.0817242618427088
 30
0.0
 11
3786.1554919222021454
 21
132.3770000217689073
 31
0.0
  0
LINE
  5
11660
  8
0
 10
3786.1557665349650961
 20
132.0817242618427088
 30
0.0
 11
3786.1557665540008202
 21
132.3770000217689073
 31
0.0
  0
ARC
  5
11661
  8
0
 10
3785.2596618964707886
 20
132.6014271688192991
 30
0.0
 40
0.0118121274511905
 50
90.0053542859073445
 51
179.9977821821661905
  0
LINE
  5
11662
  8
0
 10
3785.2478497690281074
 20
132.6014276260457905
 30
0.0
 11
3785.2473635856999863
 21
132.3770000221219902
 31
0.0
  0
LINE
  5
11663
  8
0
 10
3785.2478139282661687
 20
132.0817253688726112
 30
0.0
 11
3785.2478138816850333
 21
132.0010155851082914
 31
0.0
  0
ARC
  5
11664
  8
0
 10
3785.2773578074829857
 20
132.0010308136905905
 30
0.0
 40
0.0295439297232217
 50
180.0295334282282056
 51
270.6327542697399053
  0
LINE
  5
11665
  8
0
 10
3785.2776840735327823
 20
131.971488685568886
 30
0.0
 11
3786.1041130688190606
 21
131.971488685568886
 31
0.0
  0
ARC
  5
11666
  8
0
 10
3786.1041138372379464
 20
132.0010155066867128
 30
0.0
 40
0.0295268211278079
 50
269.9985089074115194
 51
0.0001773763163731
  0
LINE
  5
11667
  8
0
 10
3786.1336406583659482
 20
132.0010155980959041
 30
0.0
 11
3786.1336406999657811
 21
132.0817242618462046
 31
0.0
  0
ARC
  5
11668
  8
0
 10
3786.1336754990070403
 20
132.6014271888736005
 30
0.0
 40
0.0118121073950169
 50
0.0021775257097078
 51
89.9947429878794338
  0
LINE
  5
11669
  8
0
 10
3786.1454876063939992
 20
132.6014276377927104
 30
0.0
 11
3786.1450013810008386
 21
132.3770000338689101
 31
0.0
  0
LINE
  5
1166A
  8
0
 10
3785.2084485036161823
 20
132.6132392962188931
 30
0.0
 11
3786.1730032138161732
 21
132.6132392962188931
 31
0.0
  0
ARC
  5
1166B
  8
0
 10
3786.1730040832489976
 20
132.6329295967142912
 30
0.0
 40
0.0196903005145524
 50
269.9974700810365107
 51
359.9831848722640757
  0
LINE
  5
1166C
  8
0
 10
3786.1926943829162155
 20
132.6329238180179004
 30
0.0
 11
3786.1926946157159364
 21
133.0187511140188974
 31
0.0
  0
LINE
  5
1166D
  8
0
 10
3785.1887576078429447
 20
133.0187511140188974
 30
0.0
 11
3785.188757375015939
 21
132.6329248329188886
 31
0.0
  0
ARC
  5
1166E
  8
0
 10
3785.208443243785041
 20
132.6329251642879115
 30
0.0
 40
0.0196858687716955
 50
180.0009644504989126
 51
270.0153087542046251
  0
LINE
  5
1166F
  8
0
 10
3789.2734058108558202
 20
133.0187511140188974
 30
0.0
 11
3785.024935650415955
 21
133.0187511140188974
 31
0.0
  0
ARC
  5
11670
  8
0
 10
3784.3355849226109058
 20
132.7153433846193025
 30
0.0
 40
0.753167097120484
 50
23.7559986553282982
 51
77.0574774962355775
  0
ARC
  5
11671
  8
0
 10
3779.1005360908720832
 20
120.0882297691752996
 30
0.0
 40
14.4643589211941102
 50
70.8913450664628613
 51
72.2861479774471434
  0
ARC
  5
11672
  8
0
 10
3761.9941106084361309
 20
68.2238064978346586
 30
0.0
 40
69.0757966783057782
 50
71.2961932934817639
 51
71.5669726311930532
  0
ARC
  5
11673
  8
0
 10
3783.1757400816441077
 20
130.9730361323715044
 30
0.0
 40
2.8485940737783619
 50
68.1089870580936605
 51
70.1061572194138733
  0
ARC
  5
11674
  8
0
 10
3783.8102150868598983
 20
132.614731468632101
 30
0.0
 40
1.0889652514336781
 50
60.7257711571540568
 51
66.8794224163559221
  0
ARC
  5
11675
  8
0
 10
3783.8806619377050993
 20
132.7460069193203083
 30
0.0
 40
0.9400112637880464
 50
48.4395748682875222
 51
60.5586174730268283
  0
ARC
  5
11676
  8
0
 10
3785.1336548801259596
 20
135.3726715415257047
 30
0.0
 40
2.2207053812117969
 50
215.0212122417514138
 51
222.6956096911652878
  0
ARC
  5
11677
  8
0
 10
3783.3393833919199096
 20
134.1177736309875002
 30
0.0
 40
0.0314453381313072
 50
140.7404462153905058
 51
179.4733842349619124
  0
ARC
  5
11678
  8
0
 10
3783.3492126390628982
 20
134.1216650678589133
 30
0.0
 40
0.0414301724290034
 50
184.9882608914664957
 51
214.402130934860395
  0
ARC
  5
11679
  8
0
 10
3784.3231145094018757
 20
133.3114522706727882
 30
0.0
 40
1.3033986943557521
 50
111.9361714225219941
 51
140.6877539704200046
  0
ARC
  5
1167A
  8
0
 10
3784.4037258500738972
 20
132.8376874574794044
 30
0.0
 40
1.7759212213358799
 50
90.6140752868167993
 51
108.6367642283460953
  0
ARC
  5
1167B
  8
0
 10
3784.5109534187859026
 20
129.4660789085569945
 30
0.0
 40
5.1489760623497229
 50
89.7407955306790228
 51
91.4051222408736663
  0
LINE
  5
1167C
  8
0
 10
3784.5342471599060445
 20
134.6150022807073015
 30
0.0
 11
3785.4564764764231768
 21
134.6149169567187869
 31
0.0
  0
LINE
  5
1167D
  8
0
 10
3785.4564763374160066
 20
134.6149169761189057
 30
0.0
 11
3785.4682894841162124
 21
134.6132683038188986
 31
0.0
  0
ARC
  5
1167E
  8
0
 10
3785.6907346765719922
 20
136.2071433820798916
 30
0.0
 40
1.6093227236164029
 50
262.0549760528627985
 51
277.9447185657135719
  0
ARC
  5
1167F
  8
0
 10
3778.5089585638611425
 20
187.6683573831429896
 30
0.0
 40
53.5692539648749673
 50
277.9447185657135719
 51
277.9574715491132793
  0
LINE
  5
11680
  8
0
 10
3785.9249802745162015
 20
134.614916473618905
 30
0.0
 11
3786.7479655724159784
 21
134.6149062121189104
 31
0.0
  0
ARC
  5
11681
  8
0
 10
3786.8170625679358636
 20
135.213798163343597
 30
0.0
 40
0.6161681049539124
 50
328.1451281776471092
 51
351.7480542656148259
  0
ARC
  5
11682
  8
0
 10
3786.3221906685221256
 20
135.2769697963082933
 30
0.0
 40
1.115015612739114
 50
352.1853251298038003
 51
1.3830508117133491
  0
LINE
  5
11683
  8
0
 10
3787.4368814477161322
 20
135.3038823107189046
 30
0.0
 11
3787.4368651366180529
 21
135.5699318574332892
 31
0.0
  0
ARC
  5
11684
  8
0
 10
3787.4566285354180764
 20
135.5699001044137049
 30
0.0
 40
0.01976342430869
 50
90.2350269695704981
 51
179.9079453658762873
  0
LINE
  5
11685
  8
0
 10
3787.4565474661881126
 20
135.5896633624493859
 30
0.0
 11
3789.0350942287927865
 21
135.5896077540103022
 31
0.0
  0
ARC
  5
11686
  8
0
 10
3788.3524108013170917
 20
135.469874057418707
 30
0.0
 40
0.8668549322012487
 50
165.9604096296646958
 51
172.0569691067128133
  0
LINE
  5
11687
  8
0
 10
3789.041801315615885
 20
136.0450037611188918
 30
0.0
 11
3788.401936043384012
 21
135.7465616908710047
 31
0.0
  0
ARC
  5
11688
  8
0
 10
3788.1024464613478813
 20
136.3888184870316138
 30
0.0
 40
0.7086521022072424
 50
269.9996782704561156
 51
295.0000234107325809
  0
LINE
  5
11689
  8
0
 10
3788.102442482096194
 20
135.680166384835502
 30
0.0
 11
3787.4552485153171801
 21
135.680166384835502
 31
0.0
  0
ARC
  5
1168A
  8
0
 10
3787.455249296096099
 20
135.6998521847071117
 30
0.0
 40
0.019685799887014
 50
180.0015562168730128
 51
269.9977275321181196
  0
LINE
  5
1168B
  8
0
 10
3787.4355634962162185
 20
135.6998516500188998
 30
0.0
 11
3787.435561779433101
 21
135.8518078710266082
 31
0.0
  0
ARC
  5
1168C
  8
0
 10
3784.6761692304221469
 20
135.8517766957440074
 30
0.0
 40
2.7593925491869151
 50
0.0006473207734959
 51
2.8110713878650411
  0
ARC
  5
1168D
  8
0
 10
3787.0973574080639992
 20
136.0545859294153104
 30
0.0
 40
0.3416151841805734
 50
348.6071466126622909
 51
44.0131668254249888
  0
ARC
  5
1168E
  8
0
 10
3796.1554970118882011
 20
137.2063223010158879
 30
0.0
 40
8.7967134110616367
 50
186.798344624853712
 51
187.6941293725375886
  0
LINE
  5
1168F
  8
0
 10
3785.2650774148160053
 20
136.3159257995540088
 30
0.0
 11
3786.1007864280140893
 21
136.3159257995540088
 31
0.0
  0
LINE
  5
11690
  8
0
 10
3786.1007864280140893
 20
136.3159257995540088
 30
0.0
 11
3787.0739324632659191
 21
136.3159257995540088
 31
0.0
  0
ARC
  5
11691
  8
0
 10
3787.0523892702949524
 20
134.5520093799080996
 30
0.0
 40
1.764047971190104
 50
80.5164948688206579
 51
89.3002657872769277
  0
ARC
  5
11692
  8
0
 10
3785.2855223339852273
 20
136.6174647636761108
 30
0.0
 40
0.302231271716994
 50
246.7482972449195984
 51
266.1211729520176164
  0
LINE
  5
11693
  8
0
 10
3785.166210143815988
 20
136.3397808734688965
 30
0.0
 11
3785.0868616249540537
 21
136.3741842136288085
 31
0.0
  0
ARC
  5
11694
  8
0
 10
3785.1171354064731531
 20
136.4253215446227046
 30
0.0
 40
0.0594266646267264
 50
120.6854996832979054
 51
239.3740677416085134
  0
ARC
  5
11695
  8
0
 10
3785.7137474250771447
 20
135.1291782268980057
 30
0.0
 40
1.4859787042119319
 50
98.0649598965987934
 51
114.9547934567497975
  0
ARC
  5
11696
  8
0
 10
3786.446906431788193
 20
124.658641969883206
 30
0.0
 40
11.9788854639594895
 50
91.824022991977472
 51
94.5085544796848467
  0
LINE
  5
11697
  8
0
 10
3786.0656205472159854
 20
136.631457763708994
 30
0.0
 11
3787.9874148612161662
 21
136.631457763708994
 31
0.0
  0
ARC
  5
11698
  8
0
 10
3788.0058402074259902
 20
131.0621398527331962
 30
0.0
 40
5.5693483897938032
 50
86.0306995030826442
 51
90.1895547604109566
  0
ARC
  5
11699
  8
0
 10
3788.2733143044401913
 20
134.9149643918071035
 30
0.0
 40
1.7072506095385831
 50
63.6567240989216074
 51
86.0351438980758871
  0
LINE
  5
1169A
  8
0
 10
3785.4052938704157896
 20
134.672294634318888
 30
0.0
 11
3785.9761606544161623
 21
134.6722941200189041
 31
0.0
  0
ARC
  5
1169B
  8
0
 10
3785.9761647455870843
 20
134.6821200460533987
 30
0.0
 40
0.0098259268861859
 50
269.9761440491815847
 51
0.0967002332266318
  0
LINE
  5
1169C
  8
0
 10
3785.9859906581659743
 20
134.6817856114689107
 30
0.0
 11
3785.9860017617820631
 21
135.1638053846189109
 31
0.0
  0
ARC
  5
1169D
  8
0
 10
3786.0253719753300174
 20
135.1638031091125924
 30
0.0
 40
0.0393702136137444
 50
110.7329837352053943
 51
179.9966884378308976
  0
ARC
  5
1169E
  8
0
 10
3785.8551943960937933
 20
135.6133821132399078
 30
0.0
 40
0.4413393550725305
 50
290.7329837438982736
 51
296.2798169715143217
  0
ARC
  5
1169F
  8
0
 10
3786.0331999202608131
 20
135.2528956652182899
 30
0.0
 40
0.0392990015744036
 50
296.2798169715143217
 51
63.7200648178934728
  0
ARC
  5
116A0
  8
0
 10
3785.6907278915400639
 20
134.2974664046377029
 30
0.0
 40
1.0540055450818031
 50
70.0358148464532917
 51
109.9641950453010963
  0
ARC
  5
116A1
  8
0
 10
3785.3482553220519549
 20
135.2528963671705071
 30
0.0
 40
0.0392981527648136
 50
116.2799450738684044
 51
243.7229776755604007
  0
ARC
  5
116A2
  8
0
 10
3785.5272264062341492
 20
135.6153827463496953
 30
0.0
 40
0.4435592367974607
 50
243.7229776755604007
 51
249.357249724315011
  0
ARC
  5
116A3
  8
0
 10
3785.3559843952689334
 20
135.1637443808035925
 30
0.0
 40
0.0394655027976899
 50
0.0916137784252743
 51
67.8658858997409311
  0
LINE
  5
116A4
  8
0
 10
3785.3954498476159642
 20
135.1638074846188999
 30
0.0
 11
3785.3954513619160025
 21
134.6821371180755023
 31
0.0
  0
ARC
  5
116A5
  8
0
 10
3785.4052936859088732
 20
134.6821366886219096
 30
0.0
 40
0.0098420543047323
 50
179.997281364642987
 51
270.0010741085546897
  0
LINE
  5
116A6
  8
0
 10
3785.4682896414160496
 20
134.6722945775653102
 30
0.0
 11
3785.4682896414160496
 21
134.6132680691904113
 31
0.0
  0
LINE
  5
116A7
  8
0
 10
3785.9131715311159496
 20
134.6722941767665134
 30
0.0
 11
3785.9131715311159496
 21
134.6132671401813923
 31
0.0
  0
LINE
  5
116A8
  8
0
 10
3785.3308581891192262
 20
135.2176588193188991
 30
0.0
 11
3786.0506003862251418
 21
135.2176588193188991
 31
0.0
  0
LINE
  5
116A9
  8
0
 10
3785.9860017617820631
 20
135.1638053846189109
 30
0.0
 11
3785.3954498476227855
 21
135.1638053846189109
 31
0.0
  0
LINE
  5
116AA
  8
0
 10
3789.0308888604217827
 20
136.4449268526579999
 30
0.0
 11
3787.9874147237160287
 21
136.4449277296189109
 31
0.0
  0
LINE
  5
116AB
  8
0
 10
3787.9874147237160287
 20
136.4449277296189109
 30
0.0
 11
3786.0654515077371798
 21
136.4764261009188999
 31
0.0
  0
ARC
  5
116AC
  8
0
 10
3784.7947570719961732
 20
35019.7120447846682509
 30
0.0
 40
34883.2356418275885517
 50
270.0011670899451133
 51
270.0020871179692108
  0
LINE
  5
116AD
  8
0
 10
3785.5053133143751438
 20
136.4764101939344982
 30
0.0
 11
3785.0868063314060237
 21
136.4764261009188999
 31
0.0
  0
LINE
  5
116AE
  8
0
 10
3785.0870969625889302
 20
136.374082177688706
 30
0.0
 11
3786.0656202502300403
 21
136.374082177688706
 31
0.0
  0
ARC
  5
116AF
  8
0
 10
3786.0674864380448525
 20
172.0866156190569995
 30
0.0
 40
35.7125334901278819
 50
269.9970059619121798
 51
271.7532002930898898
  0
LINE
  5
116B0
  8
0
 10
3787.1600879285479095
 20
136.3907997540783867
 30
0.0
 11
3789.0521190688577917
 21
136.4090397886317874
 31
0.0
  0
LINE
  5
116B1
  8
0
 10
3783.3150029153439391
 20
134.1376435973274113
 30
0.0
 11
3789.253719434786035
 21
134.1376435973274113
 31
0.0
  0
LINE
  5
116B2
  8
0
 10
3790.4804891987159863
 20
135.2482128748771117
 30
0.0
 11
3790.4804891987159863
 21
132.8011006281313939
 31
0.0
  0
LINE
  5
116B3
  8
0
 10
3784.3184520538161451
 20
133.547452162546989
 30
0.0
 11
3783.6819269215161512
 21
133.7542736429188892
 31
0.0
  0
ARC
  5
116B4
  8
0
 10
3793.3959285946798445
 20
138.7134819295795012
 30
0.0
 40
10.9066757234606104
 50
206.9847034309204901
 51
207.0452961900506068
  0
ARC
  5
116B5
  8
0
 10
3783.7117939483491682
 20
133.7824250733112876
 30
0.0
 40
0.039395218751559
 50
162.0149915177246953
 51
206.9847034309204901
  0
LINE
  5
116B6
  8
0
 10
3783.6743236848378729
 20
133.7945890616744009
 30
0.0
 11
3783.6789570203050062
 21
133.8088617077582967
 31
0.0
  0
LINE
  5
116B7
  8
0
 10
3783.9515134089101593
 20
133.6666788891816111
 30
0.0
 11
3783.936748657915814
 21
133.6212380700189044
 31
0.0
  0
ARC
  5
116B8
  8
0
 10
3784.1681301506291675
 20
134.1651529481763134
 30
0.0
 40
0.5910844185486805
 50
228.2472099836020902
 51
246.9550895346548032
  0
LINE
  5
116B9
  8
0
 10
3783.9032564177150562
 20
133.6779665401141131
 30
0.0
 11
3783.9197504033159021
 21
133.6735621412188948
 31
0.0
  0
LINE
  5
116BA
  8
0
 10
3783.9197504033159021
 20
133.6735621412188948
 30
0.0
 11
3783.9204500801160975
 21
133.6729992254188915
 31
0.0
  0
LINE
  5
116BB
  8
0
 10
3783.9204500801160975
 20
133.6729992254188915
 30
0.0
 11
3783.9162526694158259
 21
133.6600810407188931
 31
0.0
  0
LINE
  5
116BC
  8
0
 10
3783.9162526694158259
 20
133.6600810407188931
 30
0.0
 11
3783.9154543688978265
 21
133.6603404266311088
 31
0.0
  0
LINE
  5
116BD
  8
0
 10
3783.9154543688978265
 20
133.6603404266311088
 30
0.0
 11
3783.9010941289161565
 21
133.6713117599188934
 31
0.0
  0
LINE
  5
116BE
  8
0
 10
3783.9010941289161565
 20
133.6713117599188934
 30
0.0
 11
3783.9032564177150562
 21
133.6779665401141131
 31
0.0
  0
LINE
  5
116BF
  8
0
 10
3783.9152923120168452
 20
133.6604273537795109
 30
0.0
 11
3783.9197503988830249
 21
133.6735621447853077
 31
0.0
  0
LINE
  5
116C0
  8
0
 10
3783.8977823710160919
 20
133.661040611854304
 30
0.0
 11
3783.9139433702807764
 21
133.6556897668889974
 31
0.0
  0
LINE
  5
116C1
  8
0
 10
3783.9139433702807764
 20
133.6556897668889974
 30
0.0
 11
3783.9146610560160298
 21
133.6551826026189076
 31
0.0
  0
LINE
  5
116C2
  8
0
 10
3783.9146610560160298
 20
133.6551826026189076
 30
0.0
 11
3783.9117508509148138
 21
133.6462259937189003
 31
0.0
  0
LINE
  5
116C3
  8
0
 10
3783.9117508509148138
 20
133.6462259937189003
 30
0.0
 11
3783.9109593474518078
 21
133.646504683836497
 31
0.0
  0
LINE
  5
116C4
  8
0
 10
3783.9109593474518078
 20
133.646504683836497
 30
0.0
 11
3783.8962606359309575
 21
133.6564359329659055
 31
0.0
  0
LINE
  5
116C5
  8
0
 10
3783.8962606359309575
 20
133.6564359329659055
 30
0.0
 11
3783.8977823710160919
 21
133.661040611854304
 31
0.0
  0
LINE
  5
116C6
  8
0
 10
3783.9109593474518078
 20
133.646504683836497
 30
0.0
 11
3783.9139433702807764
 21
133.6556897668889974
 31
0.0
  0
LINE
  5
116C7
  8
0
 10
3783.9107150397157966
 20
133.6430381233188882
 30
0.0
 11
3783.9099809802760319
 21
133.6434952209197036
 31
0.0
  0
LINE
  5
116C8
  8
0
 10
3783.9099809802760319
 20
133.6434952209197036
 30
0.0
 11
3783.894091067215868
 21
133.6497587474189004
 31
0.0
  0
LINE
  5
116C9
  8
0
 10
3783.894091067215868
 20
133.6497587474189004
 30
0.0
 11
3783.8932087626390057
 21
133.6470433180529085
 31
0.0
  0
LINE
  5
116CA
  8
0
 10
3783.8932087626390057
 20
133.6470433180529085
 30
0.0
 11
3783.9082238841201615
 21
133.6380874844186906
 31
0.0
  0
LINE
  5
116CB
  8
0
 10
3783.9082238841201615
 20
133.6380874844186906
 30
0.0
 11
3783.9090016075151652
 21
133.6377647693188919
 31
0.0
  0
LINE
  5
116CC
  8
0
 10
3783.9090016075151652
 20
133.6377647693188919
 30
0.0
 11
3783.9107150397157966
 21
133.6430381233188882
 31
0.0
  0
LINE
  5
116CD
  8
0
 10
3783.9099809802760319
 20
133.6434952209195899
 30
0.0
 11
3783.9082238835771932
 21
133.6380874847426981
 31
0.0
  0
LINE
  5
116CE
  8
0
 10
3783.9084908560162148
 20
133.63619285211891
 30
0.0
 11
3783.907924918416029
 21
133.6344510908189136
 31
0.0
  0
LINE
  5
116CF
  8
0
 10
3783.907924918416029
 20
133.6344510908189136
 30
0.0
 11
3783.9071613356159105
 21
133.6348173262188936
 31
0.0
  0
LINE
  5
116D0
  8
0
 10
3783.9071613356159105
 20
133.6348173262188936
 30
0.0
 11
3783.8918477353158778
 21
133.6428545445189116
 31
0.0
  0
LINE
  5
116D1
  8
0
 10
3783.8918477353158778
 20
133.6428545445189116
 30
0.0
 11
3783.8921391340159062
 21
133.6437513693188919
 31
0.0
  0
LINE
  5
116D2
  8
0
 10
3783.8921391340159062
 20
133.6437513693188919
 30
0.0
 11
3783.9077416925069883
 21
133.6366034646962078
 31
0.0
  0
LINE
  5
116D3
  8
0
 10
3783.9077416925069883
 20
133.6366034646962078
 30
0.0
 11
3783.9084908560162148
 21
133.63619285211891
 31
0.0
  0
LINE
  5
116D4
  8
0
 10
3783.9077416925160833
 20
133.6366034647188883
 30
0.0
 11
3783.9071613356159105
 21
133.6348173262188936
 31
0.0
  0
LINE
  5
116D5
  8
0
 10
3783.8681403920018056
 20
133.6599791770755985
 30
0.0
 11
3783.8675499558439697
 21
133.6581620177020113
 31
0.0
  0
LINE
  5
116D6
  8
0
 10
3783.8675499558439697
 20
133.6581620177020113
 30
0.0
 11
3783.8824524808660499
 21
133.6488596518088059
 31
0.0
  0
LINE
  5
116D7
  8
0
 10
3783.8824524808660499
 20
133.6488596518088059
 30
0.0
 11
3783.8979463911159655
 21
133.6413773648197036
 31
0.0
  0
LINE
  5
116D8
  8
0
 10
3783.8979463911159655
 20
133.6413773648197036
 30
0.0
 11
3783.8985301307720874
 21
133.6431739144937865
 31
0.0
  0
LINE
  5
116D9
  8
0
 10
3783.8985301307720874
 20
133.6431739144937865
 30
0.0
 11
3783.8836266041657836
 21
133.6524731991605108
 31
0.0
  0
LINE
  5
116DA
  8
0
 10
3783.8836266041657836
 20
133.6524731991605108
 30
0.0
 11
3783.8681403920159028
 21
133.6599791771189132
 31
0.0
  0
LINE
  5
116DB
  8
0
 10
3783.882452481015207
 20
133.6488596517156964
 30
0.0
 11
3783.8836266041657836
 21
133.6524731991605108
 31
0.0
  0
LINE
  5
116DC
  8
0
 10
3783.8709678484019605
 20
133.6686811139755946
 30
0.0
 11
3783.8697445280440661
 21
133.6649161552012117
 31
0.0
  0
LINE
  5
116DD
  8
0
 10
3783.8697445280440661
 20
133.6649161552012117
 30
0.0
 11
3783.8843600283930755
 21
133.6547304261949023
 31
0.0
  0
LINE
  5
116DE
  8
0
 10
3783.8843600283930755
 20
133.6547304261949023
 30
0.0
 11
3783.900140963316062
 21
133.648131502318904
 31
0.0
  0
LINE
  5
116DF
  8
0
 10
3783.900140963316062
 20
133.648131502318904
 30
0.0
 11
3783.9013249002041448
 21
133.651775252181892
 31
0.0
  0
LINE
  5
116E0
  8
0
 10
3783.9013249002041448
 20
133.651775252181892
 30
0.0
 11
3783.8867417951200878
 21
133.662060684074504
 31
0.0
  0
LINE
  5
116E1
  8
0
 10
3783.8867417951200878
 20
133.662060684074504
 30
0.0
 11
3783.8709678484160577
 21
133.6686811140189093
 31
0.0
  0
LINE
  5
116E2
  8
0
 10
3783.8843600285431421
 20
133.6547304261017928
 30
0.0
 11
3783.8867417951200878
 21
133.662060684074504
 31
0.0
  0
LINE
  5
116E3
  8
0
 10
3783.8755792210631625
 20
133.6828733311294002
 30
0.0
 11
3783.8737371452320986
 21
133.6772040558444985
 31
0.0
  0
LINE
  5
116E4
  8
0
 10
3783.8737371452320986
 20
133.6772040558444985
 30
0.0
 11
3783.8879878506668319
 21
133.6658956140119869
 31
0.0
  0
LINE
  5
116E5
  8
0
 10
3783.8879878506668319
 20
133.6658956140119869
 30
0.0
 11
3783.904061155331874
 21
133.6601965032145074
 31
0.0
  0
LINE
  5
116E6
  8
0
 10
3783.904061155331874
 20
133.6601965032145074
 30
0.0
 11
3783.905880665667155
 21
133.6657963294669003
 31
0.0
  0
LINE
  5
116E7
  8
0
 10
3783.905880665667155
 20
133.6657963294669003
 30
0.0
 11
3783.8916493852470921
 21
133.6771645547921139
 31
0.0
  0
LINE
  5
116E8
  8
0
 10
3783.8916493852470921
 20
133.6771645547921139
 30
0.0
 11
3783.8755792210758955
 21
133.6828733311726864
 31
0.0
  0
LINE
  5
116E9
  8
0
 10
3783.8879878508159891
 20
133.6658956139189058
 30
0.0
 11
3783.8916493852470921
 21
133.6771645547921139
 31
0.0
  0
LINE
  5
116EA
  8
0
 10
3783.848779659480897
 20
133.6904811804255928
 30
0.0
 11
3783.8472461140590895
 21
133.6857614557845011
 31
0.0
  0
LINE
  5
116EB
  8
0
 10
3783.8472461140590895
 20
133.6857614557845011
 30
0.0
 11
3783.861386526717979
 21
133.6741135699271865
 31
0.0
  0
LINE
  5
116EC
  8
0
 10
3783.861386526717979
 20
133.6741135699271865
 30
0.0
 11
3783.8770486418179644
 21
133.6671489601262977
 31
0.0
  0
LINE
  5
116ED
  8
0
 10
3783.8770486418179644
 20
133.6671489601262977
 30
0.0
 11
3783.8785588571108747
 21
133.6717968825028038
 31
0.0
  0
LINE
  5
116EE
  8
0
 10
3783.8785588571108747
 20
133.6717968825028038
 30
0.0
 11
3783.8644301084991639
 21
133.6834806665673057
 31
0.0
  0
LINE
  5
116EF
  8
0
 10
3783.8644301084991639
 20
133.6834806665673057
 30
0.0
 11
3783.8487796594949941
 21
133.6904811804689075
 31
0.0
  0
LINE
  5
116F0
  8
0
 10
3783.8613865268680456
 20
133.6741135698341054
 30
0.0
 11
3783.8644301084991639
 21
133.6834806665673057
 31
0.0
  0
LINE
  5
116F1
  8
0
 10
3783.8450273252019542
 20
133.678932787675592
 30
0.0
 11
3783.8441253583200705
 21
133.676156844289892
 31
0.0
  0
LINE
  5
116F2
  8
0
 10
3783.8441253583200705
 20
133.676156844289892
 30
0.0
 11
3783.8586589089140944
 21
133.6655027079314095
 31
0.0
  0
LINE
  5
116F3
  8
0
 10
3783.8586589089140944
 20
133.6655027079314095
 30
0.0
 11
3783.8739741243161916
 21
133.657686654018903
 31
0.0
  0
LINE
  5
116F4
  8
0
 10
3783.8739741243161916
 20
133.657686654018903
 30
0.0
 11
3783.8748628944231314
 21
133.6604219823005053
 31
0.0
  0
LINE
  5
116F5
  8
0
 10
3783.8748628944231314
 20
133.6604219823005053
 30
0.0
 11
3783.8603896821678063
 21
133.6710456256016073
 31
0.0
  0
LINE
  5
116F6
  8
0
 10
3783.8603896821678063
 20
133.6710456256016073
 30
0.0
 11
3783.8450273252160514
 21
133.6789327877189066
 31
0.0
  0
LINE
  5
116F7
  8
0
 10
3783.8586589090627967
 20
133.6655027078383
 30
0.0
 11
3783.8603896821678063
 21
133.6710456256016073
 31
0.0
  0
LINE
  5
116F8
  8
0
 10
3783.8228527059941371
 20
133.700774617025786
 30
0.0
 11
3783.8216208114258734
 21
133.6969832699498966
 31
0.0
  0
LINE
  5
116F9
  8
0
 10
3783.8216208114258734
 20
133.6969832699498966
 30
0.0
 11
3783.8357784614609045
 21
133.6848841553234024
 31
0.0
  0
LINE
  5
116FA
  8
0
 10
3783.8357784614609045
 20
133.6848841553234024
 30
0.0
 11
3783.850887831916225
 21
133.6767226673188986
 31
0.0
  0
LINE
  5
116FB
  8
0
 10
3783.850887831916225
 20
133.6767226673188986
 30
0.0
 11
3783.852097159116056
 21
133.6804445600189126
 31
0.0
  0
LINE
  5
116FC
  8
0
 10
3783.852097159116056
 20
133.6804445600189126
 30
0.0
 11
3783.8380810328230837
 21
133.6924749564410035
 31
0.0
  0
LINE
  5
116FD
  8
0
 10
3783.8380810328230837
 20
133.6924749564410035
 30
0.0
 11
3783.8228527060077795
 21
133.7007746170691007
 31
0.0
  0
LINE
  5
116FE
  8
0
 10
3783.8357784616100616
 20
133.6848841552302929
 30
0.0
 11
3783.8380810328230837
 21
133.6924749564410035
 31
0.0
  0
LINE
  5
116FF
  8
0
 10
3783.8199458096019043
 20
133.6918281910755866
 30
0.0
 11
3783.8193391174158933
 21
133.6899610014189079
 31
0.0
  0
LINE
  5
11700
  8
0
 10
3783.8193391174158933
 20
133.6899610014189079
 30
0.0
 11
3783.8336863047661609
 21
133.6789494986346938
 31
0.0
  0
LINE
  5
11701
  8
0
 10
3783.8336863047661609
 20
133.6789494986346938
 30
0.0
 11
3783.8486471094129229
 21
133.6698264948090014
 31
0.0
  0
LINE
  5
11702
  8
0
 10
3783.8486471094129229
 20
133.6698264948090014
 30
0.0
 11
3783.8492308490681353
 21
133.6716230444831126
 31
0.0
  0
LINE
  5
11703
  8
0
 10
3783.8492308490681353
 20
133.6716230444831126
 30
0.0
 11
3783.8348887588949765
 21
133.6826502364521048
 31
0.0
  0
LINE
  5
11704
  8
0
 10
3783.8348887588949765
 20
133.6826502364521048
 30
0.0
 11
3783.819945809616911
 21
133.6918281911189013
 31
0.0
  0
LINE
  5
11705
  8
0
 10
3783.8336863049148633
 20
133.6789494985416127
 30
0.0
 11
3783.8348887588949765
 21
133.6826502364521048
 31
0.0
  0
LINE
  5
11706
  8
0
 10
3783.7978069270011474
 20
133.7137800052755949
 30
0.0
 11
3783.7968743299470589
 21
133.7109097927558992
 31
0.0
  0
LINE
  5
11707
  8
0
 10
3783.7968743299470589
 20
133.7109097927558992
 30
0.0
 11
3783.8107594408670593
 21
133.6984761768119938
 31
0.0
  0
LINE
  5
11708
  8
0
 10
3783.8107594408670593
 20
133.6984761768119938
 30
0.0
 11
3783.825583398217077
 21
133.6889320054272901
 31
0.0
  0
LINE
  5
11709
  8
0
 10
3783.825583398217077
 20
133.6889320054272901
 30
0.0
 11
3783.8264957917058382
 21
133.6917400383898098
 31
0.0
  0
LINE
  5
1170A
  8
0
 10
3783.8264957917058382
 20
133.6917400383898098
 30
0.0
 11
3783.8126041202222041
 21
133.7041534633351034
 31
0.0
  0
LINE
  5
1170B
  8
0
 10
3783.8126041202222041
 20
133.7041534633351034
 30
0.0
 11
3783.7978069270161541
 21
133.7137800053189096
 31
0.0
  0
LINE
  5
1170C
  8
0
 10
3783.8107594410162164
 20
133.6984761767189127
 30
0.0
 11
3783.8126041202222041
 21
133.7041534633351034
 31
0.0
  0
LINE
  5
1170D
  8
0
 10
3783.7776574147260362
 20
133.7231686381427949
 30
0.0
 11
3783.786769190585801
 21
133.7147301182648107
 31
0.0
  0
LINE
  5
1170E
  8
0
 10
3783.786769190585801
 20
133.7147301182648107
 30
0.0
 11
3783.8011529999521372
 21
133.7038313237740965
 31
0.0
  0
LINE
  5
1170F
  8
0
 10
3783.8011529999521372
 20
133.7038313237740965
 30
0.0
 11
3783.8017680485158962
 21
133.7057242313188965
 31
0.0
  0
LINE
  5
11710
  8
0
 10
3783.8017680485158962
 20
133.7057242313188965
 30
0.0
 11
3783.7880149897810043
 21
133.7185642592108934
 31
0.0
  0
LINE
  5
11711
  8
0
 10
3783.7880149897810043
 20
133.7185642592108934
 30
0.0
 11
3783.785038623545006
 21
133.7207703260093865
 31
0.0
  0
LINE
  5
11712
  8
0
 10
3783.7880149811981028
 20
133.718564265572212
 30
0.0
 11
3783.7867691904070853
 21
133.7147301184263881
 31
0.0
  0
LINE
  5
11713
  8
0
 10
3783.7954367746160642
 20
133.7064854926188957
 30
0.0
 11
3783.7957444517160184
 21
133.7074324168189037
 31
0.0
  0
LINE
  5
11714
  8
0
 10
3783.7957444517160184
 20
133.7074324168189037
 30
0.0
 11
3783.8102535365119365
 21
133.6969191748451919
 31
0.0
  0
LINE
  5
11715
  8
0
 10
3783.8102535365119365
 20
133.6969191748451919
 30
0.0
 11
3783.8244777096151665
 21
133.6855290767157953
 31
0.0
  0
LINE
  5
11716
  8
0
 10
3783.8244777096151665
 20
133.6855290767157953
 30
0.0
 11
3783.8241765656161988
 21
133.6846022590189023
 31
0.0
  0
LINE
  5
11717
  8
0
 10
3783.8241765656161988
 20
133.6846022590189023
 30
0.0
 11
3783.819727701426018
 21
133.6876631333732917
 31
0.0
  0
LINE
  5
11718
  8
0
 10
3783.7954367746160642
 20
133.7064854926188957
 30
0.0
 11
3783.797505945760804
 21
133.7046982939301927
 31
0.0
  0
LINE
  5
11719
  8
0
 10
3783.7925077748009244
 20
133.7183430844972065
 30
0.0
 11
3783.8034664365159188
 21
133.7109512846188863
 31
0.0
  0
LINE
  5
1171A
  8
0
 10
3783.8034664365159188
 20
133.7109512846188863
 30
0.0
 11
3783.8045924702660159
 21
133.7144168287341017
 31
0.0
  0
LINE
  5
1171B
  8
0
 10
3783.8072643729028641
 20
133.7135486019984967
 30
0.0
 11
3783.8136315722431391
 21
133.7073156075090878
 31
0.0
  0
LINE
  5
1171C
  8
0
 10
3783.8136315722431391
 20
133.7073156075090878
 30
0.0
 11
3783.8287407048678688
 21
133.6986491080917006
 31
0.0
  0
LINE
  5
1171D
  8
0
 10
3783.8287407048678688
 20
133.6986491080917006
 30
0.0
 11
3783.8302927126319446
 21
133.7034256534163035
 31
0.0
  0
LINE
  5
1171E
  8
0
 10
3783.8302927126319446
 20
133.7034256534163035
 30
0.0
 11
3783.8262273828868274
 21
133.7073868277259976
 31
0.0
  0
LINE
  5
1171F
  8
0
 10
3783.8136315722717882
 20
133.707315607481604
 30
0.0
 11
3783.8149045618788477
 21
133.7110661966821965
 31
0.0
  0
LINE
  5
11720
  8
0
 10
3783.8286792466251427
 20
133.7065911449228111
 30
0.0
 11
3783.8393587267992189
 21
133.6964072579887954
 31
0.0
  0
LINE
  5
11721
  8
0
 10
3783.8393587267992189
 20
133.6964072579887954
 30
0.0
 11
3783.854893465531859
 21
133.689050627928907
 31
0.0
  0
LINE
  5
11722
  8
0
 10
3783.854893465531859
 20
133.689050627928907
 30
0.0
 11
3783.8567540036028731
 21
133.6947767235772915
 31
0.0
  0
LINE
  5
11723
  8
0
 10
3783.8567540036028731
 20
133.6947767235772915
 30
0.0
 11
3783.85238652572707
 21
133.6988874579606943
 31
0.0
  0
LINE
  5
11724
  8
0
 10
3783.8393587266159557
 20
133.696407258018894
 30
0.0
 11
3783.8414109437708248
 21
133.7024536730475859
 31
0.0
  0
LINE
  5
11725
  8
0
 10
3783.8554165622931578
 20
133.6979029304744131
 30
0.0
 11
3783.8659633434549505
 21
133.6881994357561894
 31
0.0
  0
LINE
  5
11726
  8
0
 10
3783.8659633434549505
 20
133.6881994357561894
 30
0.0
 11
3783.8819196767049107
 21
133.6821403278422906
 31
0.0
  0
LINE
  5
11727
  8
0
 10
3783.8819196767049107
 20
133.6821403278422906
 30
0.0
 11
3783.8841057630529576
 21
133.6885811595655866
 31
0.0
  0
LINE
  5
11728
  8
0
 10
3783.8882886843957749
 20
133.6872218156397025
 30
0.0
 11
3783.8934474346488059
 21
133.6826983323101103
 31
0.0
  0
LINE
  5
11729
  8
0
 10
3783.8934474346488059
 20
133.6826983323101103
 30
0.0
 11
3783.9098279298927991
 21
133.6779446494610113
 31
0.0
  0
LINE
  5
1172A
  8
0
 10
3783.9098279298927991
 20
133.6779446494610113
 30
0.0
 11
3783.9105245522068799
 21
133.679997096795006
 31
0.0
  0
LINE
  5
1172B
  8
0
 10
3783.8427343916109749
 20
133.6718759279038977
 30
0.0
 11
3783.8430321607720543
 21
133.6727923588505007
 31
0.0
  0
LINE
  5
1172C
  8
0
 10
3783.8430321607720543
 20
133.6727923588505007
 30
0.0
 11
3783.8581078029510536
 21
133.6640227873074878
 31
0.0
  0
LINE
  5
1172D
  8
0
 10
3783.8581078029510536
 20
133.6640227873074878
 30
0.0
 11
3783.872896743615911
 21
133.654370847118912
 31
0.0
  0
LINE
  5
1172E
  8
0
 10
3783.872896743615911
 20
133.654370847118912
 30
0.0
 11
3783.872603249263193
 21
133.6534675726049102
 31
0.0
  0
LINE
  5
1172F
  8
0
 10
3783.872603249263193
 20
133.6534675726049102
 30
0.0
 11
3783.8655729197989785
 21
133.6573735552078972
 31
0.0
  0
LINE
  5
11730
  8
0
 10
3783.8427343916109749
 20
133.6718759279038977
 30
0.0
 11
3783.8479324504860415
 21
133.6683086841719899
 31
0.0
  0
LINE
  5
11731
  8
0
 10
3783.8575323036920963
 20
133.6622515986763915
 30
0.0
 11
3783.8581078036718282
 21
133.6640227868375916
 31
0.0
  0
LINE
  5
11732
  8
0
 10
3783.8659633435831893
 20
133.6881994357046892
 30
0.0
 11
3783.8678820870259187
 21
133.6938525992435984
 31
0.0
  0
LINE
  5
11733
  8
0
 10
3783.9989939321690144
 20
133.6471834210798022
 30
0.0
 11
3783.9812928995820585
 21
133.647872944822808
 31
0.0
  0
LINE
  5
11734
  8
0
 10
3783.9924057117168559
 20
133.6533918669717025
 30
0.0
 11
3783.9833533559171883
 21
133.6542143197451082
 31
0.0
  0
LINE
  5
11735
  8
0
 10
3783.9833533559171883
 20
133.6542143197451082
 30
0.0
 11
3783.981056300416185
 21
133.6471447741189138
 31
0.0
  0
LINE
  5
11736
  8
0
 10
3783.981056300416185
 20
133.6471447741189138
 30
0.0
 11
3783.9718623584158195
 21
133.6503629925188932
 31
0.0
  0
LINE
  5
11737
  8
0
 10
3783.9718623584158195
 20
133.6503629925188932
 30
0.0
 11
3783.9709505921168784
 21
133.6509633487189035
 31
0.0
  0
LINE
  5
11738
  8
0
 10
3783.9709505921168784
 20
133.6509633487189035
 30
0.0
 11
3783.9700189507661889
 21
133.6510888405688888
 31
0.0
  0
LINE
  5
11739
  8
0
 10
3783.9700189507661889
 20
133.6510888405688888
 30
0.0
 11
3783.9607211551160617
 21
133.6544011286189004
 31
0.0
  0
LINE
  5
1173A
  8
0
 10
3783.9607211551160617
 20
133.6544011286189004
 30
0.0
 11
3783.9631700209170049
 21
133.6619378944226071
 31
0.0
  0
LINE
  5
1173B
  8
0
 10
3783.9631700209170049
 20
133.6619378944226071
 30
0.0
 11
3783.96078130754222
 21
133.6636672043530041
 31
0.0
  0
LINE
  5
1173C
  8
0
 10
3783.9666091393592069
 20
133.6617744868786986
 30
0.0
 11
3783.9730055131158224
 21
133.6572876878188936
 31
0.0
  0
LINE
  5
1173D
  8
0
 10
3783.9730055131158224
 20
133.6572876878188936
 30
0.0
 11
3783.9841739474018141
 21
133.6560667407246115
 31
0.0
  0
LINE
  5
1173E
  8
0
 10
3783.9730055031109259
 20
133.6572876948370947
 30
0.0
 11
3783.9737416003408725
 21
133.6594564464942891
 31
0.0
  0
LINE
  5
1173F
  8
0
 10
3783.9607670149948717
 20
133.6545422695355967
 30
0.0
 11
3783.9499339059120757
 21
133.6618177228554032
 31
0.0
  0
LINE
  5
11740
  8
0
 10
3784.048865400926843
 20
133.6350464596710026
 30
0.0
 11
3784.0341001744509413
 21
133.5896057950062072
 31
0.0
  0
ARC
  5
11741
  8
0
 10
3784.1666228552321627
 20
134.1656427112968117
 30
0.0
 40
0.5910844185486805
 50
257.0440056608418899
 51
275.7518852119006851
  0
LINE
  5
11742
  8
0
 10
3784.0945405379247859
 20
133.6158128920615127
 30
0.0
 11
3784.0786078793848901
 21
133.6219448315997909
 31
0.0
  0
LINE
  5
11743
  8
0
 10
3784.0786078793848901
 20
133.6219448315997909
 30
0.0
 11
3784.0777109546620522
 21
133.6219006970196972
 31
0.0
  0
LINE
  5
11744
  8
0
 10
3784.0777109546620522
 20
133.6219006970196972
 30
0.0
 11
3784.0735134087958613
 21
133.6089825562389137
 31
0.0
  0
LINE
  5
11745
  8
0
 10
3784.0735134087958613
 20
133.6089825562389137
 30
0.0
 11
3784.0743117065990191
 21
133.6087231619721933
 31
0.0
  0
LINE
  5
11746
  8
0
 10
3784.0743117065990191
 20
133.6087231619721933
 30
0.0
 11
3784.0923781795631839
 21
133.6091581344695953
 31
0.0
  0
LINE
  5
11747
  8
0
 10
3784.0923781795631839
 20
133.6091581344695953
 30
0.0
 11
3784.0945405379247859
 21
133.6158128920615127
 31
0.0
  0
LINE
  5
11748
  8
0
 10
3784.0744939074720605
 20
133.6086982299900967
 30
0.0
 11
3784.0786078850678678
 21
133.6219448318794036
 31
0.0
  0
LINE
  5
11749
  8
0
 10
3784.0890200566659587
 20
133.5989020517104109
 30
0.0
 11
3784.0728004675070224
 21
133.6040725803671023
 31
0.0
  0
LINE
  5
1174A
  8
0
 10
3784.0728004675070224
 20
133.6040725803671023
 30
0.0
 11
3784.0719217440541797
 21
133.6040841348209085
 31
0.0
  0
LINE
  5
1174B
  8
0
 10
3784.0719217440541797
 20
133.6040841348209085
 30
0.0
 11
3784.0690114453750539
 21
133.5951275563276965
 31
0.0
  0
LINE
  5
1174C
  8
0
 10
3784.0690114453750539
 20
133.5951275563276965
 30
0.0
 11
3784.0698155912828042
 21
133.5948877746066898
 31
0.0
  0
LINE
  5
1174D
  8
0
 10
3784.0698155912828042
 20
133.5948877746066898
 30
0.0
 11
3784.0875445309147835
 21
133.5942823580959953
 31
0.0
  0
LINE
  5
1174E
  8
0
 10
3784.0875445309147835
 20
133.5942823580959953
 30
0.0
 11
3784.0890200566659587
 21
133.5989020517104109
 31
0.0
  0
LINE
  5
1174F
  8
0
 10
3784.0698155912828042
 20
133.5948877746066898
 30
0.0
 11
3784.0728004675070224
 21
133.6040725803671023
 31
0.0
  0
LINE
  5
11750
  8
0
 10
3784.0679756006888965
 20
133.5919396968081969
 30
0.0
 11
3784.0688381415061485
 21
133.5918780136007058
 31
0.0
  0
LINE
  5
11751
  8
0
 10
3784.0688381415061485
 20
133.5918780136007058
 30
0.0
 11
3784.0853748922399973
 21
133.5876051952809007
 31
0.0
  0
LINE
  5
11752
  8
0
 10
3784.0853748922399973
 20
133.5876051952809007
 30
0.0
 11
3784.0844925594210508
 21
133.5848897750917104
 31
0.0
  0
LINE
  5
11753
  8
0
 10
3784.0844925594210508
 20
133.5848897750917104
 30
0.0
 11
3784.0670809889948032
 21
133.5864702954112033
 31
0.0
  0
LINE
  5
11754
  8
0
 10
3784.0670809889948032
 20
133.5864702954112033
 30
0.0
 11
3784.0662621134711117
 21
133.5866663606853137
 31
0.0
  0
LINE
  5
11755
  8
0
 10
3784.0662621134711117
 20
133.5866663606853137
 30
0.0
 11
3784.0679756006888965
 21
133.5919396968081969
 31
0.0
  0
LINE
  5
11756
  8
0
 10
3784.0688381415061485
 20
133.5918780136007058
 30
0.0
 11
3784.067080989625083
 21
133.5864702953539904
 31
0.0
  0
LINE
  5
11757
  8
0
 10
3784.065751345543049
 20
133.585094448823213
 30
0.0
 11
3784.0651853895678869
 21
133.5833526934935946
 31
0.0
  0
LINE
  5
11758
  8
0
 10
3784.0651853895678869
 20
133.5833526934935946
 30
0.0
 11
3784.0660184063881388
 21
133.5832001482924909
 31
0.0
  0
LINE
  5
11759
  8
0
 10
3784.0660184063881388
 20
133.5832001482924909
 30
0.0
 11
3784.0831314881979779
 21
133.5807010158218873
 31
0.0
  0
LINE
  5
1175A
  8
0
 10
3784.0831314881979779
 20
133.5807010158218873
 30
0.0
 11
3784.0834228962521593
 21
133.5815978375827058
 31
0.0
  0
LINE
  5
1175B
  8
0
 10
3784.0834228962521593
 20
133.5815978375827058
 30
0.0
 11
3784.0665987818620124
 21
133.5849862807320108
 31
0.0
  0
LINE
  5
1175C
  8
0
 10
3784.0665987818620124
 20
133.5849862807320108
 30
0.0
 11
3784.065751345543049
 21
133.585094448823213
 31
0.0
  0
LINE
  5
1175D
  8
0
 10
3784.0665987818679241
 20
133.5849862807552881
 30
0.0
 11
3784.0660184063881388
 21
133.5832001482924909
 31
0.0
  0
LINE
  5
1175E
  8
0
 10
3784.1123767370199857
 20
133.5806198459760026
 30
0.0
 11
3784.1117862817291098
 21
133.5788026928196075
 31
0.0
  0
LINE
  5
1175F
  8
0
 10
3784.1117862817291098
 20
133.5788026928196075
 30
0.0
 11
3784.0942621117292219
 21
133.5800366818922953
 31
0.0
  0
LINE
  5
11760
  8
0
 10
3784.0942621117292219
 20
133.5800366818922953
 30
0.0
 11
3784.0773293453080441
 21
133.5830907439064106
 31
0.0
  0
LINE
  5
11761
  8
0
 10
3784.0773293453080441
 20
133.5830907439064106
 30
0.0
 11
3784.0779131037811567
 21
133.5848872874661026
 31
0.0
  0
LINE
  5
11762
  8
0
 10
3784.0779131037811567
 20
133.5848872874661026
 30
0.0
 11
3784.0954362729307832
 21
133.5836502169283904
 31
0.0
  0
LINE
  5
11763
  8
0
 10
3784.0954362729307832
 20
133.5836502169283904
 30
0.0
 11
3784.1123767370340829
 21
133.5806198460192888
 31
0.0
  0
LINE
  5
11764
  8
0
 10
3784.09426211155278
 20
133.5800366819046872
 30
0.0
 11
3784.0954362729307832
 21
133.5836502169283904
 31
0.0
  0
LINE
  5
11765
  8
0
 10
3784.1152042843377785
 20
133.5893217533345023
 30
0.0
 11
3784.113980924597854
 21
133.585556807356312
 31
0.0
  0
LINE
  5
11766
  8
0
 10
3784.113980924597854
 20
133.585556807356312
 30
0.0
 11
3784.0961697206748795
 21
133.5859074363212926
 31
0.0
  0
LINE
  5
11767
  8
0
 10
3784.0961697206748795
 20
133.5859074363212926
 30
0.0
 11
3784.0795239881767884
 21
133.5898448584432003
 31
0.0
  0
LINE
  5
11768
  8
0
 10
3784.0795239881767884
 20
133.5898448584432003
 30
0.0
 11
3784.0807079630881162
 21
133.5934885959512997
 31
0.0
  0
LINE
  5
11769
  8
0
 10
3784.0807079630881162
 20
133.5934885959512997
 30
0.0
 11
3784.0985515641509664
 21
133.5932376692632886
 31
0.0
  0
LINE
  5
1176A
  8
0
 10
3784.0985515641509664
 20
133.5932376692632886
 30
0.0
 11
3784.1152042843518757
 21
133.5893217533777886
 31
0.0
  0
LINE
  5
1176B
  8
0
 10
3784.0961697204998018
 20
133.5859074363337129
 30
0.0
 11
3784.0985515641509664
 21
133.5932376692632886
 31
0.0
  0
LINE
  5
1176C
  8
0
 10
3784.1198158055481144
 20
133.6035139222198893
 30
0.0
 11
3784.1179736702688388
 21
133.5978446662518024
 31
0.0
  0
LINE
  5
1176D
  8
0
 10
3784.1179736702688388
 20
133.5978446662518024
 30
0.0
 11
3784.0997976598591777
 21
133.5970725861510005
 31
0.0
  0
LINE
  5
1176E
  8
0
 10
3784.0997976598591777
 20
133.5970725861510005
 30
0.0
 11
3784.0834443063390609
 21
133.6019098183504923
 31
0.0
  0
LINE
  5
1176F
  8
0
 10
3784.0834443063390609
 20
133.6019098183504923
 30
0.0
 11
3784.0852638752749044
 21
133.6075096255617893
 31
0.0
  0
LINE
  5
11770
  8
0
 10
3784.0852638752749044
 20
133.6075096255617893
 30
0.0
 11
3784.1034593113158735
 21
133.6083414889548067
 31
0.0
  0
LINE
  5
11771
  8
0
 10
3784.1034593113158735
 20
133.6083414889548067
 30
0.0
 11
3784.1198158055631211
 21
133.603513922263204
 31
0.0
  0
LINE
  5
11772
  8
0
 10
3784.0997976596840999
 20
133.5970725861633071
 30
0.0
 11
3784.1034593113158735
 21
133.6083414889548067
 31
0.0
  0
LINE
  5
11773
  8
0
 10
3784.1459687363621924
 20
133.5939160015225866
 30
0.0
 11
3784.1444351415989331
 21
133.5891962929138117
 31
0.0
  0
LINE
  5
11774
  8
0
 10
3784.1444351415989331
 20
133.5891962929138117
 30
0.0
 11
3784.1261488343670862
 21
133.5880847701031939
 31
0.0
  0
LINE
  5
11775
  8
0
 10
3784.1261488343670862
 20
133.5880847701031939
 30
0.0
 11
3784.1093842785558081
 21
133.591656507433612
 31
0.0
  0
LINE
  5
11776
  8
0
 10
3784.1093842785558081
 20
133.591656507433612
 30
0.0
 11
3784.1108945423461591
 21
133.5963044140520992
 31
0.0
  0
LINE
  5
11777
  8
0
 10
3784.1108945423461591
 20
133.5963044140520992
 30
0.0
 11
3784.1291925141681531
 21
133.5974518348936044
 31
0.0
  0
LINE
  5
11778
  8
0
 10
3784.1291925141681531
 20
133.5974518348936044
 30
0.0
 11
3784.1459687363758349
 21
133.5939160015659013
 31
0.0
  0
LINE
  5
11779
  8
0
 10
3784.1261488341920085
 20
133.5880847701155858
 30
0.0
 11
3784.1291925141681531
 21
133.5974518348936044
 31
0.0
  0
LINE
  5
1177A
  8
0
 10
3784.1422162812459646
 20
133.5823676480355005
 30
0.0
 11
3784.1413142853630234
 21
133.5795917140733877
 31
0.0
  0
LINE
  5
1177B
  8
0
 10
3784.1413142853630234
 20
133.5795917140733877
 30
0.0
 11
3784.1232940505060469
 21
133.5795152279739
 31
0.0
  0
LINE
  5
1177C
  8
0
 10
3784.1232940505060469
 20
133.5795152279739
 30
0.0
 11
3784.1063096620559918
 21
133.5821942334935954
 31
0.0
  0
LINE
  5
1177D
  8
0
 10
3784.1063096620559918
 20
133.5821942334935954
 30
0.0
 11
3784.1071984607551713
 21
133.5849295524849936
 31
0.0
  0
LINE
  5
1177E
  8
0
 10
3784.1071984607551713
 20
133.5849295524849936
 30
0.0
 11
3784.1251519576721876
 21
133.585016836222394
 31
0.0
  0
LINE
  5
1177F
  8
0
 10
3784.1251519576721876
 20
133.585016836222394
 30
0.0
 11
3784.1422162812609713
 21
133.5823676480787867
 31
0.0
  0
LINE
  5
11780
  8
0
 10
3784.1232940503300597
 20
133.5795152279862066
 30
0.0
 11
3784.1251519576721876
 21
133.585016836222394
 31
0.0
  0
LINE
  5
11781
  8
0
 10
3784.1729943034201824
 20
133.587003658982411
 30
0.0
 11
3784.1717623692911729
 21
133.5832123247606944
 31
0.0
  0
LINE
  5
11782
  8
0
 10
3784.1717623692911729
 20
133.5832123247606944
 30
0.0
 11
3784.1531968855088053
 21
133.5817458864910918
 31
0.0
  0
LINE
  5
11783
  8
0
 10
3784.1531968855088053
 20
133.5817458864910918
 30
0.0
 11
3784.1361759817309576
 21
133.5840244379122908
 31
0.0
  0
LINE
  5
11784
  8
0
 10
3784.1361759817309576
 20
133.5840244379122908
 30
0.0
 11
3784.1373853478889941
 21
133.587746317953588
 31
0.0
  0
LINE
  5
11785
  8
0
 10
3784.1373853478889941
 20
133.587746317953588
 30
0.0
 11
3784.1557959454471529
 21
133.5892403500423882
 31
0.0
  0
LINE
  5
11786
  8
0
 10
3784.1557959454471529
 20
133.5892403500423882
 30
0.0
 11
3784.1729943034338248
 21
133.587003659025612
 31
0.0
  0
LINE
  5
11787
  8
0
 10
3784.1531968853328181
 20
133.5817458865033984
 30
0.0
 11
3784.1557959454471529
 21
133.5892403500423882
 31
0.0
  0
LINE
  5
11788
  8
0
 10
3784.1700873134877838
 20
133.5780572634257908
 30
0.0
 11
3784.1694806017471819
 21
133.5761900801230979
 31
0.0
  0
LINE
  5
11789
  8
0
 10
3784.1694806017471819
 20
133.5761900801230979
 30
0.0
 11
3784.1514010769110428
 21
133.5757149378817132
 31
0.0
  0
LINE
  5
1178A
  8
0
 10
3784.1514010769110428
 20
133.5757149378817132
 30
0.0
 11
3784.1339351869141865
 21
133.5771282888991038
 31
0.0
  0
LINE
  5
1178B
  8
0
 10
3784.1339351869141865
 20
133.5771282888991038
 30
0.0
 11
3784.1345189453868443
 21
133.5789248324589096
 31
0.0
  0
LINE
  5
1178C
  8
0
 10
3784.1345189453868443
 20
133.5789248324589096
 30
0.0
 11
3784.1526035686388241
 21
133.5794156634817966
 31
0.0
  0
LINE
  5
1178D
  8
0
 10
3784.1526035686388241
 20
133.5794156634817966
 30
0.0
 11
3784.170087313501881
 21
133.5780572634691055
 31
0.0
  0
LINE
  5
1178E
  8
0
 10
3784.151401076735965
 20
133.5757149378941051
 30
0.0
 11
3784.1526035686388241
 21
133.5794156634817966
 31
0.0
  0
LINE
  5
1178F
  8
0
 10
3784.2009010733468131
 20
133.5828032588717917
 30
0.0
 11
3784.1999684462971345
 21
133.5799330560980138
 31
0.0
  0
LINE
  5
11790
  8
0
 10
3784.1999684462971345
 20
133.5799330560980138
 30
0.0
 11
3784.1814268295470356
 21
133.578035805728689
 31
0.0
  0
LINE
  5
11791
  8
0
 10
3784.1814268295470356
 20
133.578035805728689
 30
0.0
 11
3784.1638240886068161
 21
133.5790279903719977
 31
0.0
  0
LINE
  5
11792
  8
0
 10
3784.1638240886068161
 20
133.5790279903719977
 30
0.0
 11
3784.1647365114758941
 21
133.5818360137880063
 31
0.0
  0
LINE
  5
11793
  8
0
 10
3784.1647365114758941
 20
133.5818360137880063
 30
0.0
 11
3784.183271567544125
 21
133.5837130731972024
 31
0.0
  0
LINE
  5
11794
  8
0
 10
3784.183271567544125
 20
133.5837130731972024
 30
0.0
 11
3784.2009010733609102
 21
133.5828032589149927
 31
0.0
  0
LINE
  5
11795
  8
0
 10
3784.1814268293710484
 20
133.5780358057411092
 30
0.0
 11
3784.183271567544125
 21
133.5837130731972024
 31
0.0
  0
LINE
  5
11796
  8
0
 10
3784.222720804058099
 20
133.5785548916852861
 30
0.0
 11
3784.2103891617730369
 21
133.5770839479075107
 31
0.0
  0
LINE
  5
11797
  8
0
 10
3784.2103891617730369
 20
133.5770839479075107
 30
0.0
 11
3784.1923462591571479
 21
133.5767215138938866
 31
0.0
  0
LINE
  5
11798
  8
0
 10
3784.1923462591571479
 20
133.5767215138938866
 30
0.0
 11
3784.1929613274469375
 21
133.578614415028909
 31
0.0
  0
LINE
  5
11799
  8
0
 10
3784.1929613274469375
 20
133.578614415028909
 30
0.0
 11
3784.2116350011028771
 21
133.580918075812491
 31
0.0
  0
LINE
  5
1179A
  8
0
 10
3784.2116350011028771
 20
133.580918075812491
 30
0.0
 11
3784.215339626055993
 21
133.5809532986621093
 31
0.0
  0
LINE
  5
1179B
  8
0
 10
3784.2116350117858019
 20
133.5809180759140986
 30
0.0
 11
3784.2103891620131435
 21
133.5770839479328913
 31
0.0
  0
LINE
  5
1179C
  8
0
 10
3784.1985308447510761
 20
133.57550877097799
 30
0.0
 11
3784.1988385317808934
 21
133.5764556919511961
 31
0.0
  0
LINE
  5
1179D
  8
0
 10
3784.1988385317808934
 20
133.5764556919511961
 30
0.0
 11
3784.1809209073849161
 21
133.5764788095478934
 31
0.0
  0
LINE
  5
1179E
  8
0
 10
3784.1809209073849161
 20
133.5764788095478934
 30
0.0
 11
3784.1627183644268371
 21
133.575625073220607
 31
0.0
  0
LINE
  5
1179F
  8
0
 10
3784.1627183644268371
 20
133.575625073220607
 30
0.0
 11
3784.1624172106298829
 21
133.5746982587072864
 31
0.0
  0
LINE
  5
117A0
  8
0
 10
3784.1624172106298829
 20
133.5746982587072864
 30
0.0
 11
3784.167815551978947
 21
133.574559496067792
 31
0.0
  0
LINE
  5
117A1
  8
0
 10
3784.1985308447510761
 20
133.57550877097799
 30
0.0
 11
3784.1958063574720654
 21
133.5752791681744043
 31
0.0
  0
LINE
  5
117A2
  8
0
 10
3784.207870297313093
 20
133.5833799939389053
 30
0.0
 11
3784.194659770079852
 21
133.5838414505774097
 31
0.0
  0
LINE
  5
117A3
  8
0
 10
3784.194659770079852
 20
133.5838414505774097
 30
0.0
 11
3784.1957858400878649
 21
133.5873069829108033
 31
0.0
  0
LINE
  5
117A4
  8
0
 10
3784.1931139082871596
 20
133.588175119887012
 30
0.0
 11
3784.1842990530458337
 21
133.5868752064924934
 31
0.0
  0
LINE
  5
117A5
  8
0
 10
3784.1842990530458337
 20
133.5868752064924934
 30
0.0
 11
3784.1669814969632171
 21
133.5887450599894066
 31
0.0
  0
LINE
  5
117A6
  8
0
 10
3784.1669814969632171
 20
133.5887450599894066
 30
0.0
 11
3784.1685335546339957
 21
133.5935215890976906
 31
0.0
  0
LINE
  5
117A7
  8
0
 10
3784.1685335546339957
 20
133.5935215890976906
 30
0.0
 11
3784.174150808198192
 21
133.5943366168557134
 31
0.0
  0
LINE
  5
117A8
  8
0
 10
3784.1842990530071802
 20
133.5868752064866953
 30
0.0
 11
3784.1854737835328706
 21
133.5906577228562924
 31
0.0
  0
LINE
  5
117A9
  8
0
 10
3784.1716995307419893
 20
133.5951341040016018
 30
0.0
 11
3784.1570736802627835
 21
133.5931726383203113
 31
0.0
  0
LINE
  5
117AA
  8
0
 10
3784.1570736802627835
 20
133.5931726383203113
 30
0.0
 11
3784.1401817441810636
 21
133.5963523566603897
 31
0.0
  0
LINE
  5
117AB
  8
0
 10
3784.1401817441810636
 20
133.5963523566603897
 30
0.0
 11
3784.1420423422641761
 21
133.602078432809293
 31
0.0
  0
LINE
  5
117AC
  8
0
 10
3784.1420423422641761
 20
133.602078432809293
 30
0.0
 11
3784.1479919471112225
 21
133.6028368537450035
 31
0.0
  0
LINE
  5
117AD
  8
0
 10
3784.157073680429221
 20
133.5931726382370073
 30
0.0
 11
3784.1589674917540833
 21
133.5992705238224119
 31
0.0
  0
LINE
  5
117AE
  8
0
 10
3784.1449619208469812
 20
133.603821412933911
 30
0.0
 11
3784.1307257984881289
 21
133.6021705880428101
 31
0.0
  0
LINE
  5
117AF
  8
0
 10
3784.1307257984881289
 20
133.6021705880428101
 30
0.0
 11
3784.1142554701491463
 21
133.6066478242312883
 31
0.0
  0
LINE
  5
117B0
  8
0
 10
3784.1142554701491463
 20
133.6066478242312883
 30
0.0
 11
3784.1162728176200289
 21
133.6131434840127952
 31
0.0
  0
LINE
  5
117B1
  8
0
 10
3784.112089782314797
 20
133.6145024772100101
 30
0.0
 11
3784.1052574189948245
 21
133.613875247536896
 31
0.0
  0
LINE
  5
117B2
  8
0
 10
3784.1052574189948245
 20
133.613875247536896
 30
0.0
 11
3784.0892112666110734
 21
133.6196579042542965
 31
0.0
  0
LINE
  5
117B3
  8
0
 10
3784.0892112666110734
 20
133.6196579042542965
 30
0.0
 11
3784.0898541182818917
 21
133.6217278231985119
 31
0.0
  0
LINE
  5
117B4
  8
0
 10
3784.1399232739468061
 20
133.5753108122138997
 30
0.0
 11
3784.1402210527021452
 21
133.5762272400430106
 31
0.0
  0
LINE
  5
117B5
  8
0
 10
3784.1402210527021452
 20
133.5762272400430106
 30
0.0
 11
3784.1228700050551197
 21
133.5779940217780961
 31
0.0
  0
LINE
  5
117B6
  8
0
 10
3784.1228700050551197
 20
133.5779940217780961
 30
0.0
 11
3784.1052322465939142
 21
133.5788784378887044
 31
0.0
  0
LINE
  5
117B7
  8
0
 10
3784.1052322465939142
 20
133.5788784378887044
 30
0.0
 11
3784.1049387428111004
 21
133.5779751664387049
 31
0.0
  0
LINE
  5
117B8
  8
0
 10
3784.1049387428111004
 20
133.5779751664387049
 30
0.0
 11
3784.1129222624372233
 21
133.5770027226921002
 31
0.0
  0
LINE
  5
117B9
  8
0
 10
3784.1399232739468061
 20
133.5753108122138997
 30
0.0
 11
3784.133621185399079
 21
133.5754802932802079
 31
0.0
  0
LINE
  5
117BA
  8
0
 10
3784.1222944872101834
 20
133.5762228391857036
 30
0.0
 11
3784.1228700041961019
 21
133.5779940218210982
 31
0.0
  0
LINE
  5
117BB
  8
0
 10
3784.1307257983539785
 20
133.6021705880760919
 30
0.0
 11
3784.1324964384921259
 21
133.607871874589307
 31
0.0
  0
LINE
  5
117BC
  8
0
 10
3783.9989938937310399
 20
133.647183433569495
 30
0.0
 11
3784.0137194663011542
 21
133.6373366315461055
 31
0.0
  0
LINE
  5
117BD
  8
0
 10
3784.0079731271380297
 20
133.6483335711857023
 30
0.0
 11
3784.0157799889111629
 21
133.6436779849337881
 31
0.0
  0
LINE
  5
117BE
  8
0
 10
3784.0157799889111629
 20
133.6436779849337881
 30
0.0
 11
3784.0134828595478211
 21
133.6366084633075104
 31
0.0
  0
LINE
  5
117BF
  8
0
 10
3784.0134828595478211
 20
133.6366084633075104
 30
0.0
 11
3784.0228124919599395
 21
133.6338078458344114
 31
0.0
  0
LINE
  5
117C0
  8
0
 10
3784.0228124919599395
 20
133.6338078458344114
 30
0.0
 11
3784.0239030061188714
 21
133.633757604197001
 31
0.0
  0
LINE
  5
117C1
  8
0
 10
3784.0239030061188714
 20
133.633757604197001
 30
0.0
 11
3784.0247304750168951
 21
133.6333115111231109
 31
0.0
  0
LINE
  5
117C2
  8
0
 10
3784.0247304750168951
 20
133.6333115111231109
 30
0.0
 11
3784.0341994197879103
 21
133.6305259517517072
 31
0.0
  0
LINE
  5
117C3
  8
0
 10
3784.0341994197879103
 20
133.6305259517517072
 30
0.0
 11
3784.0366483645461813
 21
133.6380626918999042
 31
0.0
  0
LINE
  5
117C4
  8
0
 10
3784.0366483645461813
 20
133.6380626918999042
 30
0.0
 11
3784.0395973370559659
 21
133.6380576359588019
 31
0.0
  0
LINE
  5
117C5
  8
0
 10
3784.033770040572108
 20
133.6399520009750859
 30
0.0
 11
3784.0259579932339875
 21
133.6400819218144136
 31
0.0
  0
LINE
  5
117C6
  8
0
 10
3784.0259579932339875
 20
133.6400819218144136
 30
0.0
 11
3784.0162049734699394
 21
133.6456589498494907
 31
0.0
  0
LINE
  5
117C7
  8
0
 10
3784.0259580054530488
 20
133.6400819216111131
 30
0.0
 11
3784.0266372850651351
 21
133.6422691349278864
 31
0.0
  0
LINE
  5
117C8
  8
0
 10
3784.0342452811451039
 20
133.6306670921879913
 30
0.0
 11
3784.0472858470538995
 21
133.6301853098759125
 31
0.0
  0
LINE
  5
117C9
  8
0
 10
3784.3184520538161451
 20
133.547452162546989
 30
0.0
 11
3784.3287305708158783
 21
133.5526859232188883
 31
0.0
  0
ARC
  5
117CA
  8
0
 10
3784.3108859556991774
 20
133.5877310919279068
 30
0.0
 40
0.0393267610985004
 50
296.9846948586798021
 51
324.0158611231198051
  0
LINE
  5
117CB
  8
0
 62
     7
 10
3781.6960727838400089
 20
171.6846979995129914
 30
0.0
 11
3781.6576627990889392
 21
171.7206867068535132
 31
0.0
  0
ARC
  5
117CC
  8
0
 62
     7
 10
3781.6685602989059589
 20
171.7323009778233995
 30
0.0
 40
0.0159262924885736
 50
177.452349509527096
 51
226.8236722842576967
  0
ARC
  5
117CD
  8
0
 62
     7
 10
3782.4822085381438228
 20
171.6960983367673066
 30
0.0
 40
0.8303795375764766
 50
143.9323783488518984
 51
177.452349509527096
  0
ARC
  5
117CE
  8
0
 62
     7
 10
3781.860749677558033
 20
172.1484352644247053
 30
0.0
 40
0.0617320140038838
 50
93.6192074019261185
 51
143.7065939472782077
  0
ARC
  5
117CF
  8
0
 62
     7
 10
3781.8189500084417887
 20
169.9626974861849931
 30
0.0
 40
2.247666279426062
 50
64.9757793212612142
 51
89.0337644115187459
  0
ARC
  5
117D0
  8
0
 62
     7
 10
3780.9667256274219653
 20
168.1764529587372863
 30
0.0
 40
4.226759162504707
 50
52.7261660664034295
 51
64.7501960771673311
  0
ARC
  5
117D1
  8
0
 62
     7
 10
3777.3467601046158961
 20
163.4220517183651111
 30
0.0
 40
10.2024165272327494
 50
40.7048076197694684
 51
52.719406988745618
  0
ARC
  5
117D2
  8
0
 62
     7
 10
3775.4100175537259929
 20
161.6023772695509138
 30
0.0
 40
12.8578709123218005
 50
32.8735868923677899
 51
41.2234504636644203
  0
ARC
  5
117D3
  8
0
 62
     7
 10
3770.5453240251640636
 20
158.5156887230808991
 30
0.0
 40
18.619059431545061
 50
26.0248898855460205
 51
32.7256430197536972
  0
ARC
  5
117D4
  8
0
 62
     7
 10
3754.5034481968250475
 20
150.6677307358928886
 30
0.0
 40
36.4777304245109235
 50
21.7730178548077902
 51
26.046321254861251
  0
ARC
  5
117D5
  8
0
 62
     7
 10
3788.3422583698647941
 20
164.1837879946781129
 30
0.0
 40
0.0394418060842876
 50
290.0441890192291794
 51
21.7996135732658693
  0
LINE
  5
117D6
  8
0
 62
     7
 10
3788.355776842765863
 20
164.1467352355689115
 30
0.0
 11
3787.3367057691380069
 21
163.7758236981374012
 31
0.0
  0
ARC
  5
117D7
  8
0
 62
     7
 10
3787.3232199235389999
 20
163.8128120185714067
 30
0.0
 40
0.0393700886465299
 50
198.092957843520395
 51
290.0317242668605786
  0
ARC
  5
117D8
  8
0
 62
     7
 10
3744.5131718595321217
 20
149.8234783759027096
 30
0.0
 40
44.9984103963433597
 50
18.0961975349515107
 51
19.450355757829751
  0
ARC
  5
117D9
  8
0
 62
     7
 10
3752.9873081282989915
 20
152.959339829344799
 30
0.0
 40
35.9639332914893686
 50
19.2351267942142208
 51
22.8693743414482391
  0
ARC
  5
117DA
  8
0
 62
     7
 10
3777.7342219615388785
 20
163.6187774859284048
 30
0.0
 40
9.0220091984867548
 50
21.5730686749402416
 51
33.4522550410819974
  0
ARC
  5
117DB
  8
0
 62
     7
 10
3784.5776184747078332
 20
168.1504973981890885
 30
0.0
 40
0.8142243856835536
 50
32.8433455690050167
 51
58.0729979254784183
  0
LINE
  5
117DC
  8
0
 62
     7
 10
3785.0082115759191765
 20
168.8415479979512952
 30
0.0
 11
3784.8859351070268531
 21
168.8782176493029112
 31
0.0
  0
LINE
  5
117DD
  8
0
 62
     7
 10
3784.8859351070268531
 20
168.8782176493029112
 30
0.0
 11
3784.7275052707909708
 21
168.8655107653320044
 31
0.0
  0
ARC
  5
117DE
  8
0
 62
     7
 10
3784.7265635013791325
 20
168.8843723296351129
 30
0.0
 40
0.0188850209925478
 50
217.6776775808864102
 51
272.858426487674194
  0
LINE
  5
117DF
  8
0
 62
     7
 10
3784.7116167301128371
 20
168.8728294510252113
 30
0.0
 11
3781.6960727838400089
 21
171.6846979995129914
 31
0.0
  0
ARC
  5
117E0
  8
0
 62
     7
 10
3734.8699487545118245
 20
142.0801666426945076
 30
0.0
 40
57.4249047358554918
 50
22.4391126159975798
 51
25.0340163248722902
  0
ARC
  5
117E1
  8
0
 62
     7
 10
3775.453658953375907
 20
161.0868779669009996
 30
0.0
 40
12.6110435112796608
 50
24.8163574380045908
 51
36.6136997499515431
  0
ARC
  5
117E2
  8
0
 62
     7
 10
3780.2959615662189208
 20
164.2304983332824975
 30
0.0
 40
6.85904463263903
 50
39.6618059297182768
 51
47.0249890009781026
  0
ARC
  5
117E3
  8
0
 62
     7
 10
3728.7737598639291718
 20
108.7390447818295058
 30
0.0
 40
82.5811501099775711
 50
47.1159491468142733
 51
47.8231772902058125
  0
ARC
  5
117E4
  8
0
 62
     7
 10
3397.3981369450411876
 20
-243.6470923459503979
 30
0.0
 40
566.2897868587557468
 50
46.9150507883354067
 51
47.077375039789132
  0
ARC
  5
117E5
  8
0
 62
     7
 10
-264395.8819902357063256
 20
-287417.912517657794524
 30
0.0
 40
393226.8291845466010273
 50
47.0002238241015675
 51
47.0004701088003216
  0
ARC
  5
117E6
  8
0
 62
     7
 10
3784.9369408352990831
 20
168.605260225224896
 30
0.0
 40
0.0217981692833746
 50
318.3945095717028835
 51
20.0943349205833215
  0
ARC
  5
117E7
  8
0
 62
     7
 10
4085.7168950674617918
 20
382.4602624763123799
 30
0.0
 40
369.0352631617814723
 50
215.4125517497095927
 51
215.4137785689752036
  0
LINE
  5
117E8
  8
0
 62
     7
 10
3784.9528332697659607
 20
168.6191892751214141
 30
0.0
 11
3784.6732613401841263
 21
168.8798947581560981
 31
0.0
  0
LINE
  5
117E9
  8
0
 62
     7
 10
3784.9532400777598014
 20
168.5907862872913938
 30
0.0
 11
3784.8797559179720338
 21
168.5182167188424955
 31
0.0
  0
ARC
  5
117EA
  8
0
 62
     7
 10
3784.7996715113531536
 20
168.5992749765341898
 30
0.0
 40
0.1139471514502051
 50
283.295777807311822
 51
314.6537423700274871
  0
ARC
  5
117EB
  8
0
 62
     7
 10
3784.8065240675450696
 20
168.6739257223204049
 30
0.0
 40
0.1891731017222882
 50
229.1015835923986117
 51
266.2365021493342851
  0
ARC
  5
117EC
  8
0
 62
     7
 10
3784.7861410215350588
 20
168.7219837051341074
 30
0.0
 40
0.2369570705151769
 50
271.9265422887274894
 51
279.6536602737170938
  0
ARC
  5
117ED
  8
0
 62
     7
 10
3785.0356987310060504
 20
168.8473849040532002
 30
0.0
 40
0.4740998513670469
 50
200.0000000014439934
 51
221.8724741425899083
  0
ARC
  5
117EE
  8
0
 62
     7
 10
3754.7874995006859535
 20
157.1534187468384971
 30
0.0
 40
31.9559562743334915
 50
21.15338253628423
 51
21.7247332011702099
  0
LINE
  5
117EF
  8
0
 62
     7
 10
3784.6732613401841263
 20
168.8798947581560981
 30
0.0
 11
3784.6873097507391321
 21
168.8954970988334026
 31
0.0
  0
ARC
  5
117F0
  8
0
 62
     7
 10
3781.7133978362439848
 20
171.6753522338779874
 30
0.0
 40
0.0196850393974975
 50
151.655956622500014
 51
217.4800916520956946
  0
LINE
  5
117F1
  8
0
 62
     7
 10
3781.6977806123700248
 20
171.6633687813111067
 30
0.0
 11
3781.8114954427442171
 21
171.514492802641314
 31
0.0
  0
LINE
  5
117F2
  8
0
 62
     7
 10
3784.6732613401841263
 20
168.8798947581560981
 30
0.0
 11
3784.6574114701797953
 21
168.8788624727835952
 31
0.0
  0
ARC
  5
117F3
  8
0
 62
     7
 10
3790.1628101525479906
 20
177.2364698523714139
 30
0.0
 40
10.0079476299174104
 50
235.8105584990532009
 51
236.6259433614237935
  0
LINE
  5
117F4
  8
0
 62
     7
 10
3784.5390345990190326
 20
168.9580542861716879
 30
0.0
 11
3784.5010924616140073
 21
168.9829043490530864
 31
0.0
  0
LINE
  5
117F5
  8
0
 62
     7
 10
3784.5010924616140073
 20
168.9829043490530864
 30
0.0
 11
3784.4884068549558833
 21
168.9947951980518894
 31
0.0
  0
LINE
  5
117F6
  8
0
 10
3783.3930427574218811
 20
169.9348208050627989
 30
0.0
 11
3783.3588273313298487
 21
169.8993224581842867
 31
0.0
  0
ARC
  5
117F7
  8
0
 10
3783.3501246939281373
 20
169.907710579689109
 30
0.0
 40
0.0120870376904934
 50
248.653153784929998
 51
316.0542773296489258
  0
ARC
  5
117F8
  8
0
 10
3783.5728463228738292
 20
170.2245054505625887
 30
0.0
 40
0.399002144071122
 50
221.7205188688459998
 51
235.3038921017607947
  0
ARC
  5
117F9
  8
0
 10
3783.2850783986209535
 20
169.9662541048101048
 30
0.0
 40
0.0124096217345108
 50
138.722219252983507
 51
215.9399314723465011
  0
LINE
  5
117FA
  8
0
 10
3783.275752319383173
 20
169.974440859824
 30
0.0
 11
3783.3064490621609366
 21
170.0092429254229103
 31
0.0
  0
ARC
  5
117FB
  8
0
 10
3783.1067750453357803
 20
169.6893236476853986
 30
0.0
 40
0.3771180945842094
 50
37.2229724200593068
 51
61.2202843998683974
  0
ARC
  5
117FC
  8
0
 10
3783.4046124273590976
 20
169.9163312025793005
 30
0.0
 40
0.0026994760426153
 50
248.7360672866118989
 51
24.4691332340084102
  0
ARC
  5
117FD
  8
0
 10
3783.4522523948830894
 20
170.0118879314466938
 30
0.0
 40
0.1094623440101742
 50
231.7438712815045108
 51
243.6302880416515961
  0
ARC
  5
117FE
  8
0
 10
3783.1784372665279079
 20
169.782230850756406
 30
0.0
 40
0.1976451891590648
 50
41.2497642944426701
 51
54.9778111183501181
  0
ARC
  5
117FF
  8
0
 10
3783.441577543960193
 20
170.0756474987510956
 30
0.0
 40
0.199303207912628
 50
221.3071379410345969
 51
234.9204374717425026
  0
ARC
  5
11800
  8
0
 10
3783.2872247194691226
 20
170.0183355433030101
 30
0.0
 40
0.001885780259802
 50
53.8905715478484595
 51
223.7940496612509946
  0
ARC
  5
11801
  8
0
 10
3783.3750761899041208
 20
170.0799694107952007
 30
0.0
 40
0.1091797405337711
 50
215.202713636604102
 51
226.1284378827901946
  0
LINE
  5
11802
  8
0
 10
3783.4878946810449634
 20
169.8178838167798119
 30
0.0
 11
3783.4536792549538404
 21
169.7823854699014134
 31
0.0
  0
ARC
  5
11803
  8
0
 10
3783.4449766175512195
 20
169.7907735914062073
 30
0.0
 40
0.0120870376904934
 50
248.653153784929998
 51
316.0542773296489258
  0
ARC
  5
11804
  8
0
 10
3783.6676982464969115
 20
170.1075684622796871
 30
0.0
 40
0.399002144071122
 50
221.7205188688459998
 51
235.3038921017607947
  0
ARC
  5
11805
  8
0
 10
3783.3799303222440358
 20
169.8493171165272031
 30
0.0
 40
0.0124096217345108
 50
138.722219252983507
 51
215.9399314723465011
  0
LINE
  5
11806
  8
0
 10
3783.3706042430071648
 20
169.8575038715410983
 30
0.0
 11
3783.4013009857840188
 21
169.8923059371398949
 31
0.0
  0
ARC
  5
11807
  8
0
 10
3783.2016269689602268
 20
169.5723866594024116
 30
0.0
 40
0.3771180945842094
 50
37.2229724200593068
 51
61.2202843998683974
  0
ARC
  5
11808
  8
0
 10
3783.4994643509821799
 20
169.7993942142963988
 30
0.0
 40
0.0026994760426153
 50
248.7360672866118989
 51
24.4691332340084102
  0
ARC
  5
11809
  8
0
 10
3783.5471043185061717
 20
169.8949509431637921
 30
0.0
 40
0.1094623440101742
 50
231.7438712815045108
 51
243.6302880416515961
  0
ARC
  5
1180A
  8
0
 10
3783.2732891901518997
 20
169.6652938624735043
 30
0.0
 40
0.1976451891590648
 50
41.2497642944426701
 51
54.9778111183501181
  0
ARC
  5
1180B
  8
0
 10
3783.5364294675828205
 20
169.9587105104681939
 30
0.0
 40
0.199303207912628
 50
221.3071379410345969
 51
234.9204374717425026
  0
ARC
  5
1180C
  8
0
 10
3783.3820766430922049
 20
169.9013985550199948
 30
0.0
 40
0.001885780259802
 50
53.8905715478484595
 51
223.7940496612509946
  0
ARC
  5
1180D
  8
0
 10
3783.4699281135281126
 20
169.963032422512299
 30
0.0
 40
0.1091797405337711
 50
215.202713636604102
 51
226.1284378827901946
  0
LINE
  5
1180E
  8
0
 10
3783.7960076496538022
 20
169.5602392327367056
 30
0.0
 11
3783.7617922235622245
 21
169.5247408858583071
 31
0.0
  0
ARC
  5
1180F
  8
0
 10
3783.7530895861609679
 20
169.533129007363101
 30
0.0
 40
0.0120870376904934
 50
248.653153784929998
 51
316.0542773296489258
  0
ARC
  5
11810
  8
0
 10
3783.9758112151062051
 20
169.8499238782364955
 30
0.0
 40
0.3990021440709637
 50
221.7205188688448061
 51
235.3038921017617042
  0
ARC
  5
11811
  8
0
 10
3783.6880432908528746
 20
169.5916725324840115
 30
0.0
 40
0.0124096217345108
 50
138.722219252983507
 51
215.9399314723465011
  0
LINE
  5
11812
  8
0
 10
3783.6787172116160036
 20
169.5998592874979067
 30
0.0
 11
3783.6896111976961947
 21
169.6122102141399921
 31
0.0
  0
ARC
  5
11813
  8
0
 10
3783.5097399375690657
 20
169.3147420753593053
 30
0.0
 40
0.3771180945842094
 50
37.2229724200593068
 51
50.8288885948396114
  0
ARC
  5
11814
  8
0
 10
3783.8075773195910187
 20
169.5417496302532072
 30
0.0
 40
0.0026994760426153
 50
248.7360672866118989
 51
24.4691332340084102
  0
ARC
  5
11815
  8
0
 10
3783.8552172871150105
 20
169.6373063591207142
 30
0.0
 40
0.1094623440101742
 50
231.7438712815045108
 51
243.6302880416515961
  0
ARC
  5
11816
  8
0
 10
3783.581402158759829
 20
169.4076492784303127
 30
0.0
 40
0.1976451891590648
 50
41.2497642944426701
 51
54.9778111183501181
  0
ARC
  5
11817
  8
0
 10
3783.8445424361921141
 20
169.7010659264250023
 30
0.0
 40
0.199303207912628
 50
221.3071379410345969
 51
234.9204374717425026
  0
LINE
  5
11818
  8
0
 10
3783.7673689708040001
 20
169.6272629438543049
 30
0.0
 11
3783.7331535447128772
 21
169.5917645969759064
 31
0.0
  0
ARC
  5
11819
  8
0
 10
3783.7244509073098016
 20
169.6001527184807003
 30
0.0
 40
0.0120870376904934
 50
248.653153784929998
 51
316.0542773296489258
  0
ARC
  5
1181A
  8
0
 10
3783.9471725362559482
 20
169.9169475893542085
 30
0.0
 40
0.399002144071122
 50
221.7205188688459998
 51
235.3038921017607947
  0
ARC
  5
1181B
  8
0
 10
3783.659404612003982
 20
169.6586962436016961
 30
0.0
 40
0.0124096217345108
 50
138.722219252983507
 51
215.9399314723465011
  0
LINE
  5
1181C
  8
0
 10
3783.6500785327662015
 20
169.6668829986155913
 30
0.0
 11
3783.6807752755439651
 21
169.7016850642143879
 31
0.0
  0
ARC
  5
1181D
  8
0
 10
3783.4811012587188088
 20
169.3817657864769899
 30
0.0
 40
0.3771180945842094
 50
37.2229724200593068
 51
61.2202843998683974
  0
ARC
  5
1181E
  8
0
 10
3783.7789386407398524
 20
169.6087733413708918
 30
0.0
 40
0.0026994760426153
 50
248.7360672866118989
 51
24.4691332340084102
  0
ARC
  5
1181F
  8
0
 10
3783.8265786082652085
 20
169.7043300702383135
 30
0.0
 40
0.1094623440101742
 50
231.7438712815045108
 51
243.6302880416515961
  0
ARC
  5
11820
  8
0
 10
3783.5527634799100269
 20
169.4746729895479973
 30
0.0
 40
0.1976451891590648
 50
41.2497642944426701
 51
54.9778111183501181
  0
ARC
  5
11821
  8
0
 10
3783.8159037573418573
 20
169.7680896375426869
 30
0.0
 40
0.199303207912628
 50
221.3071379410345969
 51
234.9204374717425026
  0
ARC
  5
11822
  8
0
 10
3783.6615509328507869
 20
169.7107776820944878
 30
0.0
 40
0.001885780259802
 50
53.8905715478484595
 51
223.7940496612509946
  0
ARC
  5
11823
  8
0
 10
3783.7494024032857851
 20
169.772411549586792
 30
0.0
 40
0.1091797405337711
 50
215.202713636604102
 51
226.1284378827901946
  0
LINE
  5
11824
  8
0
 10
3783.954407209233068
 20
169.4151016879579004
 30
0.0
 11
3783.9201917831410356
 21
169.3796033410795019
 31
0.0
  0
ARC
  5
11825
  8
0
 10
3783.9114891457388694
 20
169.3879914625842105
 30
0.0
 40
0.0120870376904934
 50
248.653153784929998
 51
316.0542773296489258
  0
ARC
  5
11826
  8
0
 10
3784.1342107746859256
 20
169.7047863334578039
 30
0.0
 40
0.399002144071122
 50
221.7205188688459998
 51
235.3038921017607947
  0
ARC
  5
11827
  8
0
 10
3783.8464428504321404
 20
169.4465349877052063
 30
0.0
 40
0.0124096217345108
 50
138.722219252983507
 51
215.9399314723465011
  0
LINE
  5
11828
  8
0
 10
3783.8371167711948146
 20
169.4547217427191015
 30
0.0
 11
3783.8678135139721235
 21
169.4895238083180118
 31
0.0
  0
ARC
  5
11829
  8
0
 10
3783.6681394971478767
 20
169.1696045305805001
 30
0.0
 40
0.3771180945842094
 50
37.2229724200593068
 51
61.2202843998683974
  0
ARC
  5
1182A
  8
0
 10
3783.9659768791698298
 20
169.396612085474402
 30
0.0
 40
0.0026994760426153
 50
248.7360672866118989
 51
24.4691332340084102
  0
ARC
  5
1182B
  8
0
 10
3784.0136168466938216
 20
169.492168814341909
 30
0.0
 40
0.1094623440101742
 50
231.7438712815045108
 51
243.6302880416515961
  0
ARC
  5
1182C
  8
0
 10
3783.7398017183390948
 20
169.2625117336515075
 30
0.0
 40
0.1976451891590648
 50
41.2497642944426701
 51
54.9778111183501181
  0
ARC
  5
1182D
  8
0
 10
3784.0029419957709251
 20
169.5559283816461971
 30
0.0
 40
0.199303207912628
 50
221.3071379410345969
 51
234.9204374717425026
  0
ARC
  5
1182E
  8
0
 10
3783.8485891712798548
 20
169.4986164261981116
 30
0.0
 40
0.001885780259802
 50
53.8905715478484595
 51
223.7940496612509946
  0
ARC
  5
1182F
  8
0
 10
3783.9364406417162172
 20
169.5602502936903022
 30
0.0
 40
0.1091797405337711
 50
215.202713636604102
 51
226.1284378827901946
  0
LINE
  5
11830
  8
0
 10
3784.1190275929939162
 20
169.2591792215947066
 30
0.0
 11
3784.1062988663297801
 21
169.2459732263453134
 31
0.0
  0
ARC
  5
11831
  8
0
 10
3784.0975962289280687
 20
169.2543613478501072
 30
0.0
 40
0.0120870376904934
 50
248.653153784929998
 51
316.0542773296489258
  0
ARC
  5
11832
  8
0
 10
3784.3203178578742154
 20
169.571156218723587
 30
0.0
 40
0.399002144071122
 50
221.7205188688459998
 51
235.3038921017607947
  0
ARC
  5
11833
  8
0
 10
3784.032549933620885
 20
169.3129048729709893
 30
0.0
 40
0.0124096217345108
 50
138.722219252983507
 51
215.9399314723465011
  0
LINE
  5
11834
  8
0
 10
3784.023223854384014
 20
169.321091627984913
 30
0.0
 11
3784.0416114927670606
 21
169.341938393450107
 31
0.0
  0
ARC
  5
11835
  8
0
 10
3783.8542465803361665
 20
169.0359744158463116
 30
0.0
 40
0.3771180945842094
 50
58.1815663524882822
 51
61.2202843998683974
  0
ARC
  5
11836
  8
0
 10
3783.9259088015278394
 20
169.1288816189172906
 30
0.0
 40
0.1976451891590648
 50
41.2497642944426701
 51
54.9778111183501181
  0
ARC
  5
11837
  8
0
 10
3784.1890490789601245
 20
169.4222982669120086
 30
0.0
 40
0.199303207912628
 50
221.3071379410345969
 51
234.9204374717425026
  0
ARC
  5
11838
  8
0
 10
3784.0346962544690541
 20
169.3649863114638947
 30
0.0
 40
0.001885780259802
 50
53.8905715478484595
 51
223.7940496612509946
  0
ARC
  5
11839
  8
0
 10
3784.1225477249040523
 20
169.4266201789561137
 30
0.0
 40
0.1091797405337711
 50
215.202713636604102
 51
225.6119324815223024
  0
LINE
  5
1183A
  8
0
 10
3783.679916964666063
 20
169.5822500029150035
 30
0.0
 11
3783.6751804237969736
 21
169.5773358635933903
 31
0.0
  0
ARC
  5
1183B
  8
0
 10
3783.6664777863948075
 20
169.5857239850982126
 30
0.0
 40
0.0120870376904934
 50
248.653153784929998
 51
316.0542773296489258
  0
ARC
  5
1183C
  8
0
 10
3783.8891994153409541
 20
169.9025188559716923
 30
0.0
 40
0.399002144071122
 50
221.7205188688459998
 51
235.3038921017607947
  0
ARC
  5
1183D
  8
0
 10
3783.601431491088988
 20
169.6442675102192084
 30
0.0
 40
0.0124096217345108
 50
138.722219252983507
 51
215.9399314723465011
  0
LINE
  5
1183E
  8
0
 10
3783.5921054118512075
 20
169.6524542652331036
 30
0.0
 11
3783.6228021546280615
 21
169.6872563308319002
 31
0.0
  0
ARC
  5
1183F
  8
0
 10
3783.4231281378038148
 20
169.3673370530943885
 30
0.0
 40
0.3771180945842094
 50
52.8358807925072327
 51
61.2202843998683974
  0
ARC
  5
11840
  8
0
 10
3783.4947903589950329
 20
169.4602442561655096
 30
0.0
 40
0.1976451891590648
 50
41.2497642944426701
 51
54.9778111183501181
  0
ARC
  5
11841
  8
0
 10
3783.7579306364259537
 20
169.7536609041601139
 30
0.0
 40
0.199303207912628
 50
221.3071379410345969
 51
234.9204374717425026
  0
ARC
  5
11842
  8
0
 10
3783.6035778119357929
 20
169.696348948712
 30
0.0
 40
0.001885780259802
 50
53.8905715478484595
 51
223.7940496612509946
  0
ARC
  5
11843
  8
0
 10
3783.6914292823721553
 20
169.7579828162043043
 30
0.0
 40
0.1091797405337711
 50
215.202713636604102
 51
226.1284378827901946
  0
LINE
  5
11844
  8
0
 10
3783.58194833018797
 20
169.8473976499620051
 30
0.0
 11
3783.5485438186078682
 21
169.812567630525507
 31
0.0
  0
ARC
  5
11845
  8
0
 10
3783.5383450574668132
 20
169.8238625786447074
 30
0.0
 40
0.015218100466448
 50
235.0842081399902952
 51
312.0804239893134877
  0
ARC
  5
11846
  8
0
 10
3783.7634069811338122
 20
170.1743113560634129
 30
0.0
 40
0.4317011675157173
 50
219.6836007130069959
 51
237.2132195413159934
  0
ARC
  5
11847
  8
0
 10
3783.441224617539774
 20
169.9059332866382874
 30
0.0
 40
0.0124096217345108
 50
138.722219252983507
 51
215.9399314723465011
  0
LINE
  5
11848
  8
0
 10
3783.431898538302903
 20
169.9141200416520974
 30
0.0
 11
3783.4625952810802119
 21
169.9489221072510929
 31
0.0
  0
ARC
  5
11849
  8
0
 10
3783.1158676670238492
 20
169.416384610686805
 30
0.0
 40
0.6348255072077567
 50
41.0064784050318991
 51
58.8255463420591909
  0
ARC
  5
1184A
  8
0
 10
3783.5929568930891946
 20
169.8305907821240908
 30
0.0
 40
0.0030536239433563
 50
248.8712561073317886
 51
49.7610187532915589
  0
ARC
  5
1184B
  8
0
 10
3783.6232971752338017
 20
169.9192074134921029
 30
0.0
 40
0.0967180302578033
 50
238.0563128225460048
 51
251.0296352825889983
  0
ARC
  5
1184C
  8
0
 10
3783.4089251247210086
 20
169.7707140906937013
 30
0.0
 40
0.1144170145458427
 50
37.1691589711825969
 51
60.9572371602557723
  0
ARC
  5
1184D
  8
0
 10
3783.5628762586020457
 20
169.9482096411148859
 30
0.0
 40
0.1252384078909904
 50
218.2099673551061016
 51
239.9164287763381083
  0
ARC
  5
1184E
  8
0
 10
3783.4433709383879432
 20
169.9580147251311075
 30
0.0
 40
0.001885780259802
 50
53.8905715478484595
 51
223.7940496612509946
  0
ARC
  5
1184F
  8
0
 10
3783.5312224088238509
 20
170.0196485926232981
 30
0.0
 40
0.1091797405337711
 50
215.202713636604102
 51
226.1284378827901946
  0
LINE
  5
11850
  8
0
 10
3784.0180819457468715
 20
169.4742362137284886
 30
0.0
 11
3783.9846774341658602
 21
169.4394061942919905
 31
0.0
  0
ARC
  5
11851
  8
0
 10
3783.9744786730261694
 20
169.4507011424111056
 30
0.0
 40
0.015218100466448
 50
235.0842081399902952
 51
312.0804239893134877
  0
ARC
  5
11852
  8
0
 10
3784.1995405966918042
 20
169.8011499198298964
 30
0.0
 40
0.4317011675157173
 50
219.6836007130069959
 51
237.2132195413159934
  0
ARC
  5
11853
  8
0
 10
3783.8773582330982208
 20
169.5327718504047141
 30
0.0
 40
0.0124096217345108
 50
138.722219252983507
 51
215.9399314723465011
  0
LINE
  5
11854
  8
0
 10
3783.8680321538608951
 20
169.5409586054186093
 30
0.0
 11
3783.8987288966391134
 21
169.5757606710174912
 31
0.0
  0
ARC
  5
11855
  8
0
 10
3783.5520012825818412
 20
169.0432231744532885
 30
0.0
 40
0.6348255072077567
 50
41.0064784050318991
 51
58.8255463420591909
  0
ARC
  5
11856
  8
0
 10
3784.0290905086471867
 20
169.4574293458906027
 30
0.0
 40
0.0030536239433563
 50
248.8712561073317886
 51
49.7610187532915589
  0
ARC
  5
11857
  8
0
 10
3784.0594307907917937
 20
169.5460459772585864
 30
0.0
 40
0.0967180302578033
 50
238.0563128225460048
 51
251.0296352825889983
  0
ARC
  5
11858
  8
0
 10
3783.8450587402799101
 20
169.3975526544602133
 30
0.0
 40
0.1144170145458427
 50
37.1691589711825969
 51
60.9572371602557723
  0
ARC
  5
11859
  8
0
 10
3783.9990098741609472
 20
169.5750482048813979
 30
0.0
 40
0.1252384078909904
 50
218.2099673551061016
 51
239.9164287763381083
  0
ARC
  5
1185A
  8
0
 10
3783.8795045539459352
 20
169.584853288897591
 30
0.0
 40
0.001885780259802
 50
53.8905715478484595
 51
223.7940496612509946
  0
ARC
  5
1185B
  8
0
 10
3783.9673560243818429
 20
169.64648715638981
 30
0.0
 40
0.1091797405337711
 50
215.202713636604102
 51
226.1284378827901946
  0
LINE
  5
1185C
  8
0
 10
3784.1941067566999664
 20
169.2794747430324946
 30
0.0
 11
3784.160702245118955
 21
169.2446447235959965
 31
0.0
  0
ARC
  5
1185D
  8
0
 10
3784.1505034839788095
 20
169.2559396717151117
 30
0.0
 40
0.015218100466448
 50
235.0842081399902952
 51
312.0804239893134877
  0
ARC
  5
1185E
  8
0
 10
3784.3755654076448991
 20
169.6063884491339024
 30
0.0
 40
0.4317011675157173
 50
219.6836007130069959
 51
237.2132195413159934
  0
ARC
  5
1185F
  8
0
 10
3784.0533830440522252
 20
169.3380103797086917
 30
0.0
 40
0.0124096217345108
 50
138.722219252983507
 51
215.9399314723465011
  0
LINE
  5
11860
  8
0
 10
3784.0440569648148994
 20
169.346197134722587
 30
0.0
 11
3784.0743259172118087
 21
169.3805141980870133
 31
0.0
  0
ARC
  5
11861
  8
0
 10
3783.7280260935349361
 20
168.8484617037572093
 30
0.0
 40
0.6348255072077567
 50
41.0064784050318991
 51
58.8255463420591909
  0
ARC
  5
11862
  8
0
 10
3784.2051153195998268
 20
169.2626678751946088
 30
0.0
 40
0.0030536239433563
 50
248.8712561073317886
 51
49.7610187532915589
  0
ARC
  5
11863
  8
0
 10
3784.2354556017448886
 20
169.3512845065625925
 30
0.0
 40
0.0967180302578033
 50
238.0563128225460048
 51
251.0296352825889983
  0
ARC
  5
11864
  8
0
 10
3784.021083551233005
 20
169.2027911837641909
 30
0.0
 40
0.1144170145458427
 50
37.1691589711825969
 51
60.9572371602557723
  0
ARC
  5
11865
  8
0
 10
3784.1750346851140421
 20
169.3802867341854039
 30
0.0
 40
0.1252384078909904
 50
218.2099673551061016
 51
239.9164287763381083
  0
ARC
  5
11866
  8
0
 10
3784.05552936489903
 20
169.3900918182015971
 30
0.0
 40
0.001885780259802
 50
53.8905715478484595
 51
223.7940496612509946
  0
ARC
  5
11867
  8
0
 10
3784.1433808353349377
 20
169.4517256856937877
 30
0.0
 40
0.1091797405337711
 50
215.202713636604102
 51
226.1284378827901946
  0
LINE
  5
11868
  8
0
 10
3784.5121659676719901
 20
169.0225830497221011
 30
0.0
 11
3784.4808039723880029
 21
168.9859031246998882
 31
0.0
  0
ARC
  5
11869
  8
0
 10
3784.4699771363229956
 20
168.9965975252274859
 30
0.0
 40
0.0152181004664479
 50
238.3563615453842033
 51
315.3525773947143875
  0
ARC
  5
1186A
  8
0
 10
3784.6746689364149461
 20
169.3593212245544919
 30
0.0
 40
0.4317011675157171
 50
222.9557541184119884
 51
240.4853729467114931
  0
ARC
  5
1186B
  8
0
 10
3784.3683305357549216
 20
169.0729909120830996
 30
0.0
 40
0.0124096217345108
 50
141.9943726583890964
 51
219.2120848777495894
  0
LINE
  5
1186C
  8
0
 10
3784.3585523708070468
 20
169.0806319985140078
 30
0.0
 11
3784.3868131978110796
 21
169.1166208297578066
 31
0.0
  0
ARC
  5
1186D
  8
0
 10
3784.0714468790979481
 20
168.5656693712581955
 30
0.0
 40
0.6348255072077565
 50
44.2786318104252814
 51
62.0976997474531274
  0
ARC
  5
1186E
  8
0
 10
3784.5241158990820622
 20
169.0064319382144049
 30
0.0
 40
0.0030536239433563
 50
252.1434095127349906
 51
53.0331721586978375
  0
ARC
  5
1186F
  8
0
 10
3784.5493485847468946
 20
169.0966358829722935
 30
0.0
 40
0.0967180302578033
 50
241.3284662279635882
 51
254.3017886879833895
  0
ARC
  5
11870
  8
0
 10
3784.3438018525571351
 20
168.9361485506271947
 30
0.0
 40
0.1144170145458427
 50
40.4413123765924283
 51
64.2293905656538016
  0
ARC
  5
11871
  8
0
 10
3784.4873707611268401
 20
169.12214207345761
 30
0.0
 40
0.1252384078909903
 50
221.4821207604987023
 51
243.1885821817369902
  0
ARC
  5
11872
  8
0
 10
3784.3675006108019261
 20
169.1251099503824094
 30
0.0
 40
0.001885780259802
 50
57.1627249532455508
 51
227.0662030666507007
  0
ARC
  5
11873
  8
0
 10
3784.4516908669547774
 20
169.1916577921861062
 30
0.0
 40
0.1091797405337711
 50
218.4748670420034955
 51
229.4005912881868881
  0
ARC
  5
11874
  8
0
 10
3784.3872188829877814
 20
169.0423826369228948
 30
0.0
 40
0.0152181004664479
 50
238.3563615453842033
 51
304.218309802607223
  0
ARC
  5
11875
  8
0
 10
3784.5919106830810961
 20
169.4051063362499008
 30
0.0
 40
0.4317011675157171
 50
222.9557541184119884
 51
240.4853729467114931
  0
ARC
  5
11876
  8
0
 10
3784.2855722824201621
 20
169.1187760237785085
 30
0.0
 40
0.0124096217345108
 50
141.9943726583890964
 51
219.2120848777495894
  0
LINE
  5
11877
  8
0
 10
3784.2757941174718326
 20
169.1264171102093883
 30
0.0
 11
3784.3040549444758653
 21
169.1624059414531871
 31
0.0
  0
ARC
  5
11878
  8
0
 10
3783.9886886257618244
 20
168.6114544829536044
 30
0.0
 40
0.6348255072077565
 50
53.0152113742932869
 51
62.0976997474531274
  0
ARC
  5
11879
  8
0
 10
3784.2610435992228304
 20
168.9819336623226036
 30
0.0
 40
0.1144170145458427
 50
40.4413123765924283
 51
64.2293905656538016
  0
ARC
  5
1187A
  8
0
 10
3784.4046125077911711
 20
169.1679271851529052
 30
0.0
 40
0.1252384078909903
 50
221.4821207604987023
 51
243.1885821817369902
  0
ARC
  5
1187B
  8
0
 10
3784.2847423574671666
 20
169.1708950620777898
 30
0.0
 40
0.001885780259802
 50
57.1627249532455508
 51
227.0662030666507007
  0
ARC
  5
1187C
  8
0
 10
3784.3689326136191085
 20
169.2374429038814867
 30
0.0
 40
0.1091797405337711
 50
218.4748670420034955
 51
229.4005912881868881
  0
LINE
  5
1187D
  8
0
 10
3783.5788662057798319
 20
169.7145230162363987
 30
0.0
 11
3783.5450242633328344
 21
169.6773261199076046
 31
0.0
  0
ARC
  5
1187E
  8
0
 10
3783.5363580214248032
 20
169.6852107148291111
 30
0.0
 40
0.0117162530651881
 50
225.2089587825940953
 51
317.7039008509041764
  0
LINE
  5
1187F
  8
0
 10
3783.5281036487058373
 20
169.6768959137548052
 30
0.0
 11
3783.3189701397409408
 21
169.8689093925191003
 31
0.0
  0
ARC
  5
11880
  8
0
 10
3783.3278111824351981
 20
169.87680214724341
 30
0.0
 40
0.0118515658482962
 50
137.0769145131530991
 51
221.7565730770517121
  0
LINE
  5
11881
  8
0
 10
3783.3191326533201391
 20
169.8848732528346943
 30
0.0
 11
3783.3362412956957996
 21
169.9032255537632068
 31
0.0
  0
LINE
  5
11882
  8
0
 10
3783.1462659302651446
 20
170.1076091826654135
 30
0.0
 11
3783.1158730609081431
 21
170.0750168185024052
 31
0.0
  0
ARC
  5
11883
  8
0
 10
3783.1245391260708857
 20
170.0669355825112063
 30
0.0
 40
0.0118493485282447
 50
137.0000018046326034
 51
220.9170247025164997
  0
LINE
  5
11884
  8
0
 10
3783.1155850605391606
 20
170.0591746694861115
 30
0.0
 11
3783.2090563903911971
 21
169.9727362111339914
 31
0.0
  0
ARC
  5
11885
  8
0
 10
3783.2166909857760402
 20
169.981789503530706
 30
0.0
 40
0.0118426833913285
 50
229.8592351718903046
 51
317.3500398446066129
  0
LINE
  5
11886
  8
0
 10
3783.2254013574802229
 20
169.9737658775013074
 30
0.0
 11
3783.2588012029350466
 21
170.009592997964603
 31
0.0
  0
ARC
  5
11887
  8
0
 10
3783.3424363064000318
 20
170.1040428534167859
 30
0.0
 40
0.1364217532843943
 50
228.364785172273514
 51
237.5768129482133872
  0
ARC
  5
11888
  8
0
 10
3783.2706350323301194
 20
169.9910032909511131
 30
0.0
 40
0.0025062364817264
 50
237.5768129482441111
 51
43.6915367242977197
  0
ARC
  5
11889
  8
0
 10
3782.8821584546499253
 20
169.6907689747295933
 30
0.0
 40
0.4934658221473322
 50
37.7290422699116093
 51
59.6335040030183805
  0
ARC
  5
1188A
  8
0
 10
3783.1307094494891317
 20
170.1152978299323024
 30
0.0
 40
0.0015368226575502
 50
53.6710095485868521
 51
209.2313611412245962
  0
ARC
  5
1188B
  8
0
 10
3783.3371334317939727
 20
170.3016641237194904
 30
0.0
 40
0.2796051251655567
 50
222.0067380751368091
 51
225.5149039280977092
  0
LINE
  5
1188C
  8
0
 10
3783.1286807709720961
 20
170.1490206661106868
 30
0.0
 11
3783.0944653448809731
 21
170.1135223192322883
 31
0.0
  0
ARC
  5
1188D
  8
0
 10
3783.0857627074778975
 20
170.1219104407369969
 30
0.0
 40
0.0120870376904934
 50
248.653153784929998
 51
316.0542773296489258
  0
ARC
  5
1188E
  8
0
 10
3783.3084843364240442
 20
170.4387053116105903
 30
0.0
 40
0.399002144071122
 50
221.7205188688459998
 51
235.3038921017607947
  0
ARC
  5
1188F
  8
0
 10
3783.0207164121711685
 20
170.1804539658581064
 30
0.0
 40
0.0124096217345108
 50
138.722219252983507
 51
215.9399314723465011
  0
LINE
  5
11890
  8
0
 10
3783.0113903329338427
 20
170.1886407208720016
 30
0.0
 11
3783.0420870757111516
 21
170.2234427864707982
 31
0.0
  0
ARC
  5
11891
  8
0
 10
3782.8424130588869048
 20
169.9035235087332865
 30
0.0
 40
0.3771180945842094
 50
37.2229724200593068
 51
40.757056799834281
  0
ARC
  5
11892
  8
0
 10
3782.8424130588869048
 20
169.9035235087332865
 30
0.0
 40
0.3771180945842094
 50
57.6412781355516586
 51
61.2202843998683974
  0
ARC
  5
11893
  8
0
 10
3783.1402504409079484
 20
170.1305310636271884
 30
0.0
 40
0.0026994760426153
 50
248.7360672866118989
 51
24.4691332340084102
  0
ARC
  5
11894
  8
0
 10
3783.1878904084328497
 20
170.2260877924946953
 30
0.0
 40
0.1094623440101742
 50
231.7438712815045108
 51
243.6302880416515961
  0
ARC
  5
11895
  8
0
 10
3782.9140752800781229
 20
169.9964307118044076
 30
0.0
 40
0.1976451891590648
 50
41.2497642944426701
 51
54.9778111183501181
  0
ARC
  5
11896
  8
0
 10
3783.1772155575099532
 20
170.2898473597990119
 30
0.0
 40
0.199303207912628
 50
221.3071379410345969
 51
234.9204374717425026
  0
ARC
  5
11897
  8
0
 10
3783.0228627330188829
 20
170.232535404350898
 30
0.0
 40
0.001885780259802
 50
53.8905715478484595
 51
223.7940496612509946
  0
ARC
  5
11898
  8
0
 10
3783.1107142034538811
 20
170.2941692718430886
 30
0.0
 40
0.1091797405337711
 50
215.202713636604102
 51
226.1284378827901946
  0
LINE
  5
11899
  8
0
 10
3783.163975916661002
 20
170.1866785541361082
 30
0.0
 11
3783.1297604905689695
 21
170.1511802072577098
 31
0.0
  0
ARC
  5
1189A
  8
0
 10
3783.1210578531668034
 20
170.1595683287623899
 30
0.0
 40
0.0120870376904934
 50
248.653153784929998
 51
316.0542773296489258
  0
ARC
  5
1189B
  8
0
 10
3783.3437794821129501
 20
170.4763631996360118
 30
0.0
 40
0.399002144071122
 50
221.7205188688459998
 51
235.3038921017607947
  0
ARC
  5
1189C
  8
0
 10
3783.0560115578600744
 20
170.2181118538834141
 30
0.0
 40
0.0124096217345108
 50
138.722219252983507
 51
215.9399314723465011
  0
LINE
  5
1189D
  8
0
 10
3783.0466854786218391
 20
170.2262986088973094
 30
0.0
 11
3783.0773822214000575
 21
170.2611006744961912
 31
0.0
  0
ARC
  5
1189E
  8
0
 10
3782.8777082045749012
 20
169.9411813967587079
 30
0.0
 40
0.3771180945842094
 50
37.2229724200593068
 51
42.1933114462508598
  0
ARC
  5
1189F
  8
0
 10
3782.8777082045749012
 20
169.9411813967587079
 30
0.0
 40
0.3771180945842094
 50
56.0271401228141599
 51
61.2202843998683974
  0
ARC
  5
118A0
  8
0
 10
3783.1755455865968543
 20
170.1681889516526098
 30
0.0
 40
0.0026994760426153
 50
248.7360672866118989
 51
24.4691332340084102
  0
ARC
  5
118A1
  8
0
 10
3783.2231855541222103
 20
170.2637456805200031
 30
0.0
 40
0.1094623440101742
 50
231.7438712815045108
 51
243.6302880416515961
  0
ARC
  5
118A2
  8
0
 10
3782.9493704257670288
 20
170.0340885998296869
 30
0.0
 40
0.1976451891590648
 50
41.2497642944426701
 51
54.9778111183501181
  0
ARC
  5
118A3
  8
0
 10
3783.2125107031979496
 20
170.3275052478244049
 30
0.0
 40
0.199303207912628
 50
221.3071379410345969
 51
234.9204374717425026
  0
ARC
  5
118A4
  8
0
 10
3783.0581578787077888
 20
170.2701932923762911
 30
0.0
 40
0.001885780259802
 50
53.8905715478484595
 51
223.7940496612509946
  0
ARC
  5
118A5
  8
0
 10
3783.146009349142787
 20
170.3318271598685101
 30
0.0
 40
0.1091797405337711
 50
215.202713636604102
 51
226.1284378827901946
  0
LINE
  5
118A6
  8
0
 10
3783.2223425186439272
 20
170.2218250933011916
 30
0.0
 11
3783.1889380070638254
 21
170.1869950738646935
 31
0.0
  0
ARC
  5
118A7
  8
0
 10
3783.1787392459232251
 20
170.1982900219838086
 30
0.0
 40
0.015218100466448
 50
235.0842081399902952
 51
312.0804239893134877
  0
ARC
  5
118A8
  8
0
 10
3783.4038011695902242
 20
170.5487387994025141
 30
0.0
 40
0.4317011675157173
 50
219.6836007130069959
 51
237.2132195413159934
  0
ARC
  5
118A9
  8
0
 10
3783.081618805996186
 20
170.2803607299773887
 30
0.0
 40
0.0124096217345108
 50
138.722219252983507
 51
215.9399314723465011
  0
LINE
  5
118AA
  8
0
 10
3783.0722927267588602
 20
170.2885474849913123
 30
0.0
 11
3783.1029894695361691
 21
170.3233495505901942
 31
0.0
  0
ARC
  5
118AB
  8
0
 10
3782.7562618554788969
 20
169.7908120540259063
 30
0.0
 40
0.6348255072077567
 50
41.0064784050318991
 51
58.8255463420591909
  0
ARC
  5
118AC
  8
0
 10
3783.2333510815451518
 20
170.205018225463192
 30
0.0
 40
0.0030536239433563
 50
248.8712561073317886
 51
49.7610187532915589
  0
ARC
  5
118AD
  8
0
 10
3783.2636913636902136
 20
170.2936348568312894
 30
0.0
 40
0.0967180302578033
 50
238.0563128225460048
 51
251.0296352825889983
  0
ARC
  5
118AE
  8
0
 10
3783.0493193131769658
 20
170.1451415340328026
 30
0.0
 40
0.1144170145458427
 50
37.1691589711825969
 51
60.9572371602557723
  0
ARC
  5
118AF
  8
0
 10
3783.2032704470589124
 20
170.3226370844541009
 30
0.0
 40
0.1252384078909904
 50
218.2099673551061016
 51
239.9164287763381083
  0
ARC
  5
118B0
  8
0
 10
3783.0837651268439004
 20
170.3324421684702088
 30
0.0
 40
0.001885780259802
 50
53.8905715478484595
 51
223.7940496612509946
  0
ARC
  5
118B1
  8
0
 10
3783.1716165972788986
 20
170.3940760359625131
 30
0.0
 40
0.1091797405337711
 50
215.202713636604102
 51
226.1284378827901946
  0
ARC
  5
118B2
  8
0
 10
3793.5600298519298121
 20
181.7643365416732024
 30
0.0
 40
15.6467771035773495
 50
228.0694732539390088
 51
228.2221325371625085
  0
ARC
  5
118B3
  8
0
 10
3793.5600298519298121
 20
181.7643365416732024
 30
0.0
 40
15.6467771035773495
 50
228.7684907525670894
 51
228.9023584139187051
  0
ARC
  5
118B4
  8
0
 10
3793.5600298519298121
 20
181.7643365416732024
 30
0.0
 40
15.6467771035773495
 50
229.8604183110680879
 51
230.4736617946302033
  0
ARC
  5
118B5
  8
0
 10
3793.5600298519298121
 20
181.7643365416732024
 30
0.0
 40
15.6467771035773495
 50
231.3321542693894912
 51
231.6297554356382875
  0
ARC
  5
118B6
  8
0
 10
3793.5600298519298121
 20
181.7643365416732024
 30
0.0
 40
15.6467771035773495
 50
232.1504198391332068
 51
232.5372443669172924
  0
ARC
  5
118B7
  8
0
 10
3793.5600298519298121
 20
181.7643365416732024
 30
0.0
 40
15.6467771035773495
 50
233.1059184312435093
 51
233.6499415132292086
  0
LINE
  5
118B8
  8
0
 10
3782.8132726304911557
 20
170.475192699740802
 30
0.0
 11
3782.7802659181161289
 21
170.4385677771900021
 31
0.0
  0
ARC
  5
118B9
  8
0
 10
3782.789244742451956
 20
170.4304759792640027
 30
0.0
 40
0.0120870376904934
 50
137.9745372543785038
 51
205.375660799106214
  0
ARC
  5
118BA
  8
0
 10
3783.0896087540018016
 20
170.6749046493860931
 30
0.0
 40
0.399002144071122
 50
218.7249224822697897
 51
232.3082957151837036
  0
ARC
  5
118BB
  8
0
 10
3782.8522136296478493
 20
170.3697035832925053
 30
0.0
 40
0.0124096217345108
 50
238.0888831116737094
 51
315.3065953310497207
  0
LINE
  5
118BC
  8
0
 10
3782.8610353869707978
 20
170.3609757365173039
 30
0.0
 11
3782.8935947548638978
 21
170.3940417515387935
 31
0.0
  0
ARC
  5
118BD
  8
0
 10
3782.5884947747790648
 20
170.1723842242251976
 30
0.0
 40
0.3771180945842094
 50
32.8085301841678714
 51
56.8058421639833071
  0
ARC
  5
118BE
  8
0
 10
3782.7940158551241439
 20
170.4854347339554863
 30
0.0
 40
0.0026994760426153
 50
69.5596813500267501
 51
205.2927472974328111
  0
ARC
  5
118BF
  8
0
 10
3782.8859893523581377
 20
170.5396706145513122
 30
0.0
 40
0.1094623440101742
 50
210.3985265423893054
 51
222.2849433025365897
  0
ARC
  5
118C0
  8
0
 10
3782.6761375345299712
 20
170.2503968449472893
 30
0.0
 40
0.1976451891590647
 50
39.0510034656878986
 51
52.7790502895868627
  0
ARC
  5
118C1
  8
0
 10
3782.950341355026012
 20
170.5335017720543078
 30
0.0
 40
0.199303207912628
 50
219.1083771122866892
 51
232.7216766429922075
  0
ARC
  5
118C2
  8
0
 10
3782.9040155701950425
 20
170.3755037457206072
 30
0.0
 40
0.001885780259802
 50
230.2347649227826025
 51
40.1382430361863527
  0
ARC
  5
118C3
  8
0
 10
3782.9593248490018595
 20
170.4674684028317984
 30
0.0
 40
0.1091797405337711
 50
227.9003767012447099
 51
238.8261009474244929
  0
LINE
  5
118C4
  8
0
 10
3782.6899604912728137
 20
170.5615944529918977
 30
0.0
 11
3782.6569537788959678
 21
170.5249695304410977
 31
0.0
  0
ARC
  5
118C5
  8
0
 10
3782.6659326032317949
 20
170.5168777325150984
 30
0.0
 40
0.0120870376904934
 50
137.9745372543785038
 51
205.375660799106214
  0
ARC
  5
118C6
  8
0
 10
3782.9662966147830048
 20
170.7613064026371887
 30
0.0
 40
0.399002144071122
 50
218.7249224822697897
 51
232.3082957151837036
  0
ARC
  5
118C7
  8
0
 10
3782.728901490428143
 20
170.456105336543601
 30
0.0
 40
0.0124096217345108
 50
238.0888831116737094
 51
315.3065953310497207
  0
LINE
  5
118C8
  8
0
 10
3782.7377232477510915
 20
170.4473774897683995
 30
0.0
 11
3782.7702826156460105
 21
170.4804435047900029
 31
0.0
  0
ARC
  5
118C9
  8
0
 10
3782.4651826355598132
 20
170.2587859774762933
 30
0.0
 40
0.3771180945842094
 50
32.8085301841678714
 51
56.8058421639833071
  0
ARC
  5
118CA
  8
0
 10
3782.6707037159048923
 20
170.5718364872066104
 30
0.0
 40
0.0026994760426153
 50
69.5596813500267501
 51
205.2927472974328111
  0
ARC
  5
118CB
  8
0
 10
3782.7626772131388861
 20
170.6260723678024931
 30
0.0
 40
0.1094623440101742
 50
210.3985265423893054
 51
222.2849433025365897
  0
ARC
  5
118CC
  8
0
 10
3782.5528253953098101
 20
170.3367985981984134
 30
0.0
 40
0.1976451891590647
 50
39.0510034656878986
 51
52.7790502895868627
  0
ARC
  5
118CD
  8
0
 10
3782.8270292158072152
 20
170.6199035253054888
 30
0.0
 40
0.199303207912628
 50
219.1083771122866892
 51
232.7216766429922075
  0
ARC
  5
118CE
  8
0
 10
3782.780703430975791
 20
170.4619054989717029
 30
0.0
 40
0.001885780259802
 50
230.2347649227826025
 51
40.1382430361863527
  0
ARC
  5
118CF
  8
0
 10
3782.8360127097830627
 20
170.553870156082894
 30
0.0
 40
0.1091797405337711
 50
227.9003767012447099
 51
238.8261009474244929
  0
LINE
  5
118D0
  8
0
 10
3782.4113051405452097
 20
170.8508443944319026
 30
0.0
 11
3782.3782984281688186
 21
170.814219471880989
 31
0.0
  0
ARC
  5
118D1
  8
0
 10
3782.38727725250601
 20
170.8061276739551033
 30
0.0
 40
0.0120870376904934
 50
137.9745372543785038
 51
205.375660799106214
  0
ARC
  5
118D2
  8
0
 10
3782.6876412640549461
 20
171.0505563440769947
 30
0.0
 40
0.3990021440709636
 50
218.7249224822685107
 51
232.3082957151846131
  0
ARC
  5
118D3
  8
0
 10
3782.4502461397009938
 20
170.7453552779836059
 30
0.0
 40
0.0124096217345108
 50
238.0888831116737094
 51
315.3065953310497207
  0
LINE
  5
118D4
  8
0
 10
3782.4590678970239424
 20
170.7366274312084045
 30
0.0
 11
3782.470622911287137
 21
170.748362249784492
 31
0.0
  0
ARC
  5
118D5
  8
0
 10
3782.1865272848331188
 20
170.5480359189162982
 30
0.0
 40
0.3771180945842094
 50
43.1999259891888627
 51
56.8058421639833071
  0
ARC
  5
118D6
  8
0
 10
3782.3920483651781979
 20
170.8610864286465016
 30
0.0
 40
0.0026994760426153
 50
69.5596813500267501
 51
205.2927472974328111
  0
ARC
  5
118D7
  8
0
 10
3782.4840218624121917
 20
170.9153223092424128
 30
0.0
 40
0.1094623440101742
 50
210.3985265423893054
 51
222.2849433025365897
  0
ARC
  5
118D8
  8
0
 10
3782.2741700445831157
 20
170.6260485396383046
 30
0.0
 40
0.1976451891590647
 50
39.0510034656878986
 51
52.7790502895868627
  0
ARC
  5
118D9
  8
0
 10
3782.548373865080066
 20
170.9091534667454084
 30
0.0
 40
0.199303207912628
 50
219.1083771122866892
 51
232.7216766429922075
  0
LINE
  5
118DA
  8
0
 10
3782.4801753261172053
 20
170.8269854481513903
 30
0.0
 11
3782.4471686137408142
 21
170.7903605256005903
 31
0.0
  0
ARC
  5
118DB
  8
0
 10
3782.4561474380780055
 20
170.7822687276747047
 30
0.0
 40
0.0120870376904934
 50
137.9745372543785038
 51
205.375660799106214
  0
ARC
  5
118DC
  8
0
 10
3782.7565114496269416
 20
171.0266973977967098
 30
0.0
 40
0.399002144071122
 50
218.7249224822697897
 51
232.3082957151837036
  0
ARC
  5
118DD
  8
0
 10
3782.5191163252729893
 20
170.7214963317032073
 30
0.0
 40
0.0124096217345108
 50
238.0888831116737094
 51
315.3065953310497207
  0
LINE
  5
118DE
  8
0
 10
3782.5279380825959379
 20
170.7127684849280058
 30
0.0
 11
3782.5604974504899474
 21
170.7458344999494955
 31
0.0
  0
ARC
  5
118DF
  8
0
 10
3782.2553974704042048
 20
170.5241769726358996
 30
0.0
 40
0.3771180945842094
 50
32.8085301841678714
 51
56.8058421639833071
  0
ARC
  5
118E0
  8
0
 10
3782.4609185507488291
 20
170.837227482366103
 30
0.0
 40
0.0026994760426153
 50
69.5596813500267501
 51
205.2927472974328111
  0
ARC
  5
118E1
  8
0
 10
3782.552892047982823
 20
170.8914633629620141
 30
0.0
 40
0.1094623440101742
 50
210.3985265423893054
 51
222.2849433025365897
  0
ARC
  5
118E2
  8
0
 10
3782.3430402301551112
 20
170.602189593357906
 30
0.0
 40
0.1976451891590647
 50
39.0510034656878986
 51
52.7790502895868627
  0
ARC
  5
118E3
  8
0
 10
3782.6172440506511521
 20
170.8852945204650098
 30
0.0
 40
0.199303207912628
 50
219.1083771122866892
 51
232.7216766429922075
  0
ARC
  5
118E4
  8
0
 10
3782.5709182658201826
 20
170.7272964941311955
 30
0.0
 40
0.001885780259802
 50
230.2347649227826025
 51
40.1382430361863527
  0
ARC
  5
118E5
  8
0
 10
3782.6262275446269996
 20
170.8192611512423866
 30
0.0
 40
0.1091797405337711
 50
227.9003767012447099
 51
238.8261009474244929
  0
LINE
  5
118E6
  8
0
 10
3782.2553973935469003
 20
170.9986554285424916
 30
0.0
 11
3782.2223906811709639
 21
170.9620305059916063
 31
0.0
  0
ARC
  5
118E7
  8
0
 10
3782.2313695055058815
 20
170.9539387080656923
 30
0.0
 40
0.0120870376904934
 50
137.9745372543785038
 51
205.375660799106214
  0
ARC
  5
118E8
  8
0
 10
3782.5317335170570914
 20
171.198367378187811
 30
0.0
 40
0.399002144071122
 50
218.7249224822697897
 51
232.3082957151837036
  0
ARC
  5
118E9
  8
0
 10
3782.2943383927017749
 20
170.8931663120941948
 30
0.0
 40
0.0124096217345108
 50
238.0888831116737094
 51
315.3065953310497207
  0
LINE
  5
118EA
  8
0
 10
3782.3031601500251782
 20
170.8844384653191071
 30
0.0
 11
3782.3357195179191876
 21
170.9175044803405967
 31
0.0
  0
ARC
  5
118EB
  8
0
 10
3782.0306195378348093
 20
170.6958469530268871
 30
0.0
 40
0.3771180945842094
 50
32.8085301841678714
 51
56.8058421639833071
  0
ARC
  5
118EC
  8
0
 10
3782.2361406181789789
 20
171.0088974627572043
 30
0.0
 40
0.0026994760426153
 50
69.5596813500267501
 51
205.2927472974328111
  0
ARC
  5
118ED
  8
0
 10
3782.3281141154138822
 20
171.0631333433530017
 30
0.0
 40
0.1094623440101742
 50
210.3985265423893054
 51
222.2849433025365897
  0
ARC
  5
118EE
  8
0
 10
3782.1182622975838967
 20
170.7738595737488936
 30
0.0
 40
0.1976451891590647
 50
39.0510034656878986
 51
52.7790502895868627
  0
ARC
  5
118EF
  8
0
 10
3782.3924661180808471
 20
171.0569645008559974
 30
0.0
 40
0.199303207912628
 50
219.1083771122866892
 51
232.7216766429922075
  0
ARC
  5
118F0
  8
0
 10
3782.3461403332489681
 20
170.8989664745222967
 30
0.0
 40
0.001885780259802
 50
230.2347649227826025
 51
40.1382430361863527
  0
ARC
  5
118F1
  8
0
 10
3782.4014496120557851
 20
170.9909311316334879
 30
0.0
 40
0.1091797405337711
 50
227.9003767012447099
 51
238.8261009474244929
  0
LINE
  5
118F2
  8
0
 10
3782.0882943126039208
 20
171.1519141855717976
 30
0.0
 11
3782.0760152482212106
 21
171.138289084806587
 31
0.0
  0
ARC
  5
118F3
  8
0
 10
3782.0849940725570377
 20
171.1301972868807013
 30
0.0
 40
0.0120870376904934
 50
137.9745372543785038
 51
205.375660799106214
  0
ARC
  5
118F4
  8
0
 10
3782.3853580841068833
 20
171.3746259570027064
 30
0.0
 40
0.399002144071122
 50
218.7249224822697897
 51
232.3082957151837036
  0
ARC
  5
118F5
  8
0
 10
3782.1479629597529311
 20
171.0694248909090902
 30
0.0
 40
0.0124096217345108
 50
238.0888831116737094
 51
315.3065953310497207
  0
LINE
  5
118F6
  8
0
 10
3782.1567847170758796
 20
171.0606970441340025
 30
0.0
 11
3782.1762880854680589
 21
171.0805038989329034
 31
0.0
  0
ARC
  5
118F7
  8
0
 10
3781.8842441048841465
 20
170.8721055318418962
 30
0.0
 40
0.3771180945842094
 50
32.8085301841678714
 51
35.8472482315470131
  0
ARC
  5
118F8
  8
0
 10
3781.9718868646350529
 20
170.9501181525639026
 30
0.0
 40
0.1976451891590647
 50
39.0510034656878986
 51
52.7790502895868627
  0
ARC
  5
118F9
  8
0
 10
3782.2460906851310938
 20
171.2332230796710064
 30
0.0
 40
0.199303207912628
 50
219.1083771122866892
 51
232.7216766429922075
  0
ARC
  5
118FA
  8
0
 10
3782.1997649003001243
 20
171.0752250533371921
 30
0.0
 40
0.001885780259802
 50
230.2347649227826025
 51
40.1382430361863527
  0
ARC
  5
118FB
  8
0
 10
3782.2550741791069413
 20
171.1671897104484117
 30
0.0
 40
0.1091797405337711
 50
228.4168821025149896
 51
238.8261009474244929
  0
LINE
  5
118FC
  8
0
 10
3782.4414178353199532
 20
170.7365870237364049
 30
0.0
 11
3782.4368486202038184
 21
170.7315169292704979
 31
0.0
  0
ARC
  5
118FD
  8
0
 10
3782.4458274445401003
 20
170.7234251313446123
 30
0.0
 40
0.0120870376904934
 50
137.9745372543785038
 51
205.375660799106214
  0
ARC
  5
118FE
  8
0
 10
3782.7461914560908554
 20
170.9678538014667026
 30
0.0
 40
0.399002144071122
 50
218.7249224822697897
 51
232.3082957151837036
  0
ARC
  5
118FF
  8
0
 10
3782.5087963317359936
 20
170.6626527353730012
 30
0.0
 40
0.0124096217345108
 50
238.0888831116737094
 51
315.3065953310497207
  0
LINE
  5
11900
  8
0
 10
3782.5176180890589421
 20
170.6539248885979134
 30
0.0
 11
3782.5501774569529516
 21
170.6869909036194031
 31
0.0
  0
ARC
  5
11901
  8
0
 10
3782.2450774768681185
 20
170.4653333763058072
 30
0.0
 40
0.3771180945842094
 50
32.8085301841678714
 51
41.1929337915251921
  0
ARC
  5
11902
  8
0
 10
3782.3327202366181155
 20
170.5433459970278136
 30
0.0
 40
0.1976451891590647
 50
39.0510034656878986
 51
52.7790502895868627
  0
ARC
  5
11903
  8
0
 10
3782.6069240571150658
 20
170.826450924134889
 30
0.0
 40
0.199303207912628
 50
219.1083771122866892
 51
232.7216766429922075
  0
ARC
  5
11904
  8
0
 10
3782.5605982722831868
 20
170.6684528978011883
 30
0.0
 40
0.001885780259802
 50
230.2347649227826025
 51
40.1382430361863527
  0
ARC
  5
11905
  8
0
 10
3782.6159075510900038
 20
170.7604175549124079
 30
0.0
 40
0.1091797405337711
 50
227.9003767012447099
 51
238.8261009474244929
  0
LINE
  5
11906
  8
0
 10
3782.7127933558222139
 20
170.657489268090103
 30
0.0
 11
3782.6803963459938132
 21
170.6217202116021099
 31
0.0
  0
ARC
  5
11907
  8
0
 10
3782.6923799286041685
 20
170.6123402153529014
 30
0.0
 40
0.0152181004664479
 50
141.9483905947307107
 51
218.9446064440446094
  0
ARC
  5
11908
  8
0
 10
3783.0261502578350701
 20
170.8614678581467103
 30
0.0
 40
0.4317011675157172
 50
216.8155950427135963
 51
234.345213871021997
  0
ARC
  5
11909
  8
0
 10
3782.7810713293461049
 20
170.5212259113351934
 30
0.0
 40
0.0124096217345108
 50
238.0888831116737094
 51
315.3065953310497207
  0
LINE
  5
1190A
  8
0
 10
3782.7898930866690534
 20
170.5124980645599919
 30
0.0
 11
3782.8224524545630629
 21
170.54556407958151
 31
0.0
  0
ARC
  5
1190B
  8
0
 10
3782.3155913822420189
 20
170.1622781850306012
 30
0.0
 40
0.6348255072077565
 50
35.2032682419755716
 51
53.0223361790073113
  0
ARC
  5
1190C
  8
0
 10
3782.6952545791400553
 20
170.6672898076739955
 30
0.0
 40
0.0030536239433563
 50
44.2677958307436086
 51
205.157558476698
  0
ARC
  5
1190D
  8
0
 10
3782.7815205728229557
 20
170.703781154725192
 30
0.0
 40
0.0967180302578033
 50
202.9991793014474979
 51
215.9725017614815954
  0
ARC
  5
1190E
  8
0
 10
3782.6484555838587767
 20
170.4795059851927874
 30
0.0
 40
0.1144170145458427
 50
33.0715774237689288
 51
56.8596556128525634
  0
ARC
  5
1190F
  8
0
 10
3782.8146961931620353
 20
170.6455471905046011
 30
0.0
 40
0.1252384078909903
 50
214.1123858076900035
 51
235.8188472289317019
  0
ARC
  5
11910
  8
0
 10
3782.8328732698928434
 20
170.5270260737632952
 30
0.0
 40
0.001885780259802
 50
230.2347649227826025
 51
40.1382430361863527
  0
ARC
  5
11911
  8
0
 10
3782.8881825487001151
 20
170.6189907308744864
 30
0.0
 40
0.1091797405337711
 50
227.9003767012447099
 51
238.8261009474244929
  0
LINE
  5
11912
  8
0
 10
3782.3099121194768486
 20
171.0663274971153953
 30
0.0
 11
3782.2775151096479931
 21
171.0305584406274022
 31
0.0
  0
ARC
  5
11913
  8
0
 10
3782.2894986922578937
 20
171.0211784443781937
 30
0.0
 40
0.0152181004664479
 50
141.9483905947307107
 51
218.9446064440446094
  0
ARC
  5
11914
  8
0
 10
3782.6232690214887953
 20
171.270306087171889
 30
0.0
 40
0.4317011675157172
 50
216.8155950427135963
 51
234.345213871021997
  0
ARC
  5
11915
  8
0
 10
3782.3781900929998301
 20
170.9300641403604004
 30
0.0
 40
0.0124096217345108
 50
238.0888831116737094
 51
315.3065953310497207
  0
LINE
  5
11916
  8
0
 10
3782.3870118503227786
 20
170.9213362935853127
 30
0.0
 11
3782.4195712182181524
 21
170.9544023086068023
 31
0.0
  0
ARC
  5
11917
  8
0
 10
3781.9127101458961988
 20
170.5711164140558935
 30
0.0
 40
0.6348255072077565
 50
35.2032682419755716
 51
53.0223361790073113
  0
ARC
  5
11918
  8
0
 10
3782.2923733427937805
 20
171.0761280366992025
 30
0.0
 40
0.0030536239433563
 50
44.2677958307436086
 51
205.157558476698
  0
ARC
  5
11919
  8
0
 10
3782.3786393364771357
 20
171.112619383750399
 30
0.0
 40
0.0967180302578033
 50
202.9991793014488906
 51
215.9725017614815954
  0
ARC
  5
1191A
  8
0
 10
3782.2455743475138661
 20
170.8883442142179945
 30
0.0
 40
0.1144170145458427
 50
33.0715774237689288
 51
56.8596556128525634
  0
ARC
  5
1191B
  8
0
 10
3782.4118149568162153
 20
171.0543854195298081
 30
0.0
 40
0.1252384078909903
 50
214.1123858076900035
 51
235.8188472289317019
  0
ARC
  5
1191C
  8
0
 10
3782.4299920335479328
 20
170.9358643027885876
 30
0.0
 40
0.001885780259802
 50
230.2347649227826025
 51
40.1382430361863527
  0
ARC
  5
1191D
  8
0
 10
3782.4853013123538403
 20
171.0278289598996935
 30
0.0
 40
0.1091797405337711
 50
227.9003767012447099
 51
238.8261009474244929
  0
LINE
  5
1191E
  8
0
 10
3782.1032647575348165
 20
171.2282337426445906
 30
0.0
 11
3782.0708677477068704
 21
171.1924646861565122
 31
0.0
  0
ARC
  5
1191F
  8
0
 10
3782.0828513303158616
 20
171.1830846899073038
 30
0.0
 40
0.0152181004664479
 50
141.9483905947307107
 51
218.9446064440446094
  0
ARC
  5
11920
  8
0
 10
3782.4166216595458536
 20
171.4322123327011127
 30
0.0
 40
0.4317011675157172
 50
216.8155950427135963
 51
234.345213871021997
  0
ARC
  5
11921
  8
0
 10
3782.1715427310591622
 20
171.0919703858895957
 30
0.0
 40
0.0124096217345108
 50
238.0888831116737094
 51
315.3065953310497207
  0
LINE
  5
11922
  8
0
 10
3782.1803644883821107
 20
171.083242539114508
 30
0.0
 11
3782.2124701083180298
 21
171.1158477455346087
 31
0.0
  0
ARC
  5
11923
  8
0
 10
3781.7060627839550762
 20
170.7330226595850036
 30
0.0
 40
0.6348255072077565
 50
35.2032682419755716
 51
53.0223361790073113
  0
ARC
  5
11924
  8
0
 10
3782.0857259808531126
 20
171.2380342822283978
 30
0.0
 40
0.0030536239433563
 50
44.2677958307436086
 51
205.157558476698
  0
ARC
  5
11925
  8
0
 10
3782.171991974536013
 20
171.2745256292795943
 30
0.0
 40
0.0967180302578033
 50
202.9991793014488906
 51
215.9725017614815954
  0
ARC
  5
11926
  8
0
 10
3782.0389269855731982
 20
171.0502504597471898
 30
0.0
 40
0.1144170145458427
 50
33.0715774237689288
 51
56.8596556128525634
  0
ARC
  5
11927
  8
0
 10
3782.2051675948741831
 20
171.2162916650590034
 30
0.0
 40
0.1252384078909903
 50
214.1123858076900035
 51
235.8188472289317019
  0
ARC
  5
11928
  8
0
 10
3782.2233446716059007
 20
171.0977705483176976
 30
0.0
 40
0.001885780259802
 50
230.2347649227826025
 51
40.1382430361863527
  0
ARC
  5
11929
  8
0
 10
3782.2786539504131724
 20
171.1897352054288888
 30
0.0
 40
0.1091797405337711
 50
227.9003767012447099
 51
238.8261009474244929
  0
LINE
  5
1192A
  8
0
 10
3781.8246616324499882
 20
171.5274582444301927
 30
0.0
 11
3781.7902757850279158
 21
171.4935966859166001
 31
0.0
  0
ARC
  5
1192B
  8
0
 10
3781.8017044314760824
 20
171.4835479734528008
 30
0.0
 40
0.0152181004664479
 50
138.6762371893177885
 51
215.6724530386397021
  0
ARC
  5
1192C
  8
0
 10
3782.1491505165358831
 20
171.7132182437428014
 30
0.0
 40
0.4317011675157171
 50
213.5434416373051931
 51
231.0730604656178002
  0
ARC
  5
1192D
  8
0
 10
3781.8850505403020179
 20
171.3875198155730004
 30
0.0
 40
0.0124096217345108
 50
234.8167297062742023
 51
312.034441925630972
  0
LINE
  5
1192E
  8
0
 10
3781.8933597401801308
 20
171.3783026625970081
 30
0.0
 11
3781.9272740839692233
 21
171.4090221613332119
 31
0.0
  0
ARC
  5
1192F
  8
0
 10
3781.3998411669372217
 20
171.0557263325538031
 30
0.0
 40
0.6348255072077564
 50
31.9311148365726787
 51
49.7501827736049478
  0
ARC
  5
11930
  8
0
 10
3781.8077108528118515
 20
171.5382438984809994
 30
0.0
 40
0.0030536239433563
 50
40.9956424253409608
 51
201.8854050712930928
  0
ARC
  5
11931
  8
0
 10
3781.8959190876589673
 20
171.5697517924245119
 30
0.0
 40
0.0967180302578033
 50
199.7270258960456886
 51
212.7085812174308046
  0
ARC
  5
11932
  8
0
 10
3781.7502696776991797
 20
171.3534374555559054
 30
0.0
 40
0.1144170145458426
 50
29.7994240183705692
 51
53.5875022074493685
  0
ARC
  5
11933
  8
0
 10
3781.9257166955198954
 20
171.5097191434788044
 30
0.0
 40
0.1252384078909903
 50
210.840232402284613
 51
232.5466938235200871
  0
ARC
  5
11934
  8
0
 10
3781.9370990932620771
 20
171.3903537286645928
 30
0.0
 40
0.001885780259802
 50
226.9626115173797132
 51
36.8660896307798325
  0
ARC
  5
11935
  8
0
 10
3781.9975674333168172
 20
171.4790114656684921
 30
0.0
 40
0.1091797405337711
 50
224.6282232958467091
 51
235.5539475420349902
  0
ARC
  5
11936
  8
0
 10
3781.8531908426789414
 20
171.4042110059693016
 30
0.0
 40
0.0152181004664479
 50
149.810504781422992
 51
215.6724530386397021
  0
ARC
  5
11937
  8
0
 10
3782.2006369277391968
 20
171.6338812762593022
 30
0.0
 40
0.4317011675157171
 50
213.5434416373051931
 51
231.0730604656178002
  0
ARC
  5
11938
  8
0
 10
3781.9365369515048769
 20
171.3081828480895012
 30
0.0
 40
0.0124096217345108
 50
234.8167297062742023
 51
312.034441925630972
  0
LINE
  5
11939
  8
0
 10
3781.9448461513829898
 20
171.2989656951135089
 30
0.0
 11
3781.9787604951720823
 21
171.3296851938497127
 31
0.0
  0
ARC
  5
1193A
  8
0
 10
3781.4513275781391712
 20
170.9763893650703039
 30
0.0
 40
0.6348255072077564
 50
31.9311148365726787
 51
41.0136032097463925
  0
ARC
  5
1193B
  8
0
 10
3781.8017560889029482
 20
171.2741004880724063
 30
0.0
 40
0.1144170145458426
 50
29.7994240183705692
 51
53.5875022074493685
  0
ARC
  5
1193C
  8
0
 10
3781.9772031067250282
 20
171.4303821759953053
 30
0.0
 40
0.1252384078909903
 50
210.840232402284613
 51
232.5466938235200871
  0
ARC
  5
1193D
  8
0
 10
3781.9885855044649361
 20
171.3110167611810937
 30
0.0
 40
0.001885780259802
 50
226.9626115173797132
 51
36.8660896307798325
  0
ARC
  5
1193E
  8
0
 10
3782.0490538445210404
 20
171.3996744981849929
 30
0.0
 40
0.1091797405337711
 50
224.6282232958467091
 51
235.5539475420349902
  0
LINE
  5
1193F
  8
0
 10
3782.5804636205448332
 20
170.6450792342538989
 30
0.0
 11
3782.5457363158311637
 21
170.6087075354699891
 31
0.0
  0
ARC
  5
11940
  8
0
 10
3782.5542103007969672
 20
170.6006166662531882
 30
0.0
 40
0.011716253065188
 50
136.3249137331413863
 51
228.8198558014528885
  0
LINE
  5
11941
  8
0
 10
3782.5464959838518553
 20
170.5917985088514115
 30
0.0
 11
3782.7527283004260426
 21
170.3966723132762127
 31
0.0
  0
ARC
  5
11942
  8
0
 10
3782.7599803956181859
 20
170.4060460387040905
 30
0.0
 40
0.0118515658482962
 50
232.2722415069789861
 51
316.9519000708826866
  0
LINE
  5
11943
  8
0
 10
3782.7686412936318447
 20
170.3979560165390978
 30
0.0
 11
3782.785746221593854
 21
170.4163117794691118
 31
0.0
  0
LINE
  5
11944
  8
0
 10
3783.0029721040159529
 20
170.241165488499405
 30
0.0
 11
3782.9725956274542114
 21
170.2085578455136101
 31
0.0
  0
ARC
  5
11945
  8
0
 10
3782.9639254997669013
 20
170.2166347227837093
 30
0.0
 40
0.0118493485282447
 50
233.1117898815226113
 51
317.0288127793875788
  0
LINE
  5
11946
  8
0
 10
3782.9568128612490909
 20
170.2071575167684045
 30
0.0
 11
3782.8640208832648568
 21
170.2943248581790101
 31
0.0
  0
ARC
  5
11947
  8
0
 10
3782.8725154110129552
 20
170.3025766548472006
 30
0.0
 40
0.0118426833913285
 50
136.6787747394207884
 51
224.1695794121418999
  0
LINE
  5
11948
  8
0
 10
3782.8638996380291246
 20
170.310701776741297
 30
0.0
 11
3782.8972916127249846
 21
170.3465362331056951
 31
0.0
  0
ARC
  5
11949
  8
0
 10
3782.9856320201711242
 20
170.4366005331303029
 30
0.0
 40
0.1364217532843942
 50
216.4520016358287933
 51
225.6640294117609926
  0
ARC
  5
1194A
  8
0
 10
3782.8779164208458496
 20
170.3570347408407883
 30
0.0
 40
0.0025062364817264
 50
50.3372778597494275
 51
216.4520016357949999
  0
ARC
  5
1194B
  8
0
 10
3782.6057176761360097
 20
169.9484242424179001
 30
0.0
 40
0.4934658221473322
 50
34.3953105810247806
 51
56.2997723141212987
  0
ARC
  5
1194C
  8
0
 10
3783.0117347209738909
 20
170.2261876403588872
 30
0.0
 40
0.0015368226575502
 50
244.7974534428250024
 51
40.357805035453957
  0
ARC
  5
1194D
  8
0
 10
3783.1831375074289099
 20
170.4451952674544941
 30
0.0
 40
0.2796051251655566
 50
228.5139106559315962
 51
232.0220765089034103
  0
ARC
  5
1194E
  8
0
 10
3793.8992420793770179
 20
181.4481754538061011
 30
0.0
 40
15.6467771035773495
 50
225.806682046877512
 51
225.9593413300850102
  0
ARC
  5
1194F
  8
0
 10
3793.8992420793770179
 20
181.4481754538061011
 30
0.0
 40
15.6467771035773495
 50
225.1264561701080993
 51
225.2603238314655982
  0
ARC
  5
11950
  8
0
 10
3793.8992420793770179
 20
181.4481754538061011
 30
0.0
 40
15.6467771035773495
 50
223.5551527894099877
 51
224.1683962729663904
  0
ARC
  5
11951
  8
0
 10
3793.8992420793770179
 20
181.4481754538061011
 30
0.0
 40
15.6467771035773495
 50
221.4915702171055045
 51
221.8783947448833089
  0
ARC
  5
11952
  8
0
 10
3793.8992420793770179
 20
181.4481754538061011
 30
0.0
 40
15.6467771035773495
 50
222.3990591483955939
 51
222.6966603146516093
  0
ARC
  5
11953
  8
0
 10
3793.8992420793770179
 20
181.4481754538061011
 30
0.0
 40
15.6467771035773495
 50
220.3788730708060939
 51
220.9228961527919068
  0
LINE
  5
11954
  8
0
 10
3770.6818603997239734
 20
178.0931027649689042
 30
0.0
 11
3770.7744248818730739
 21
178.0931027649689042
 31
0.0
  0
LINE
  5
11955
  8
0
 10
3771.0071778136079956
 20
178.0931027649689042
 30
0.0
 11
3771.0992276007568762
 21
178.0931027649689042
 31
0.0
  0
LINE
  5
11956
  8
0
 10
3771.1807246019079685
 20
178.0931027649689042
 30
0.0
 11
3771.273289084057069
 21
178.0931027649689042
 31
0.0
  0
LINE
  5
11957
  8
0
 10
3771.630571996908202
 20
178.0931027649689042
 30
0.0
 11
3771.7488338999578446
 21
178.0931027649689042
 31
0.0
  0
LINE
  5
11958
  8
0
 10
3771.764000920783019
 20
178.1521578830688952
 30
0.0
 11
3771.7566570177000358
 21
178.0999032974704903
 31
0.0
  0
LINE
  5
11959
  8
0
 10
3771.7470719012831069
 20
178.1521578830688952
 30
0.0
 11
3771.7397279983019871
 21
178.0999032974852128
 31
0.0
  0
LINE
  5
1195A
  8
0
 10
3771.7410852917819284
 20
178.1521578830688952
 30
0.0
 11
3771.7337413886998547
 21
178.0999032974704903
 31
0.0
  0
LINE
  5
1195B
  8
0
 10
3771.7383034998829316
 20
178.1521578830688952
 30
0.0
 11
3771.7309595967999485
 21
178.0999032974704903
 31
0.0
  0
LINE
  5
1195C
  8
0
 10
3771.6154049760830276
 20
178.1521578830688952
 30
0.0
 11
3771.6227488791651012
 21
178.0999032974704903
 31
0.0
  0
LINE
  5
1195D
  8
0
 10
3771.2811122018001697
 20
178.0999032974704903
 30
0.0
 11
3771.2877277270431478
 21
178.1469752054493938
 31
0.0
  0
LINE
  5
1195E
  8
0
 10
3771.1729014841648677
 20
178.0999032974704903
 30
0.0
 11
3771.1655575810818846
 21
178.1521578830688952
 31
0.0
  0
LINE
  5
1195F
  8
0
 10
3771.1070507184999769
 20
178.0999032974704903
 30
0.0
 11
3771.1143946215829601
 21
178.1521578830688952
 31
0.0
  0
LINE
  5
11960
  8
0
 10
3770.9993546958658044
 20
178.0999032974704903
 30
0.0
 11
3770.9920107927841855
 21
178.1521578830688952
 31
0.0
  0
LINE
  5
11961
  8
0
 10
3770.7822479996161746
 20
178.0999032974704903
 30
0.0
 11
3770.7895919026977936
 21
178.1521578830688952
 31
0.0
  0
LINE
  5
11962
  8
0
 10
3770.6740372819799632
 20
178.0999032974704903
 30
0.0
 11
3770.6666933788978895
 21
178.1521578830688952
 31
0.0
  0
ARC
  5
11963
  8
0
 10
3771.273289084057069
 20
178.1010027649689107
 30
0.0
 40
0.0079
 50
269.9999999999478746
 51
351.9999999942598947
  0
ARC
  5
11964
  8
0
 10
3771.1807246019079685
 20
178.1010027649689107
 30
0.0
 40
0.0079
 50
188.0000000057530087
 51
269.9999999999739089
  0
ARC
  5
11965
  8
0
 10
3771.0992276007568762
 20
178.1010027649689107
 30
0.0
 40
0.0079
 50
269.9999999999739089
 51
351.999999994266318
  0
ARC
  5
11966
  8
0
 10
3771.0071778136079956
 20
178.1010027649689107
 30
0.0
 40
0.0079
 50
188.0000000057401053
 51
270.0000000000521254
  0
ARC
  5
11967
  8
0
 10
3770.7744248818730739
 20
178.1010027649689107
 30
0.0
 40
0.0079
 50
270.0
 51
351.9999999942421027
  0
ARC
  5
11968
  8
0
 10
3770.6818603997239734
 20
178.1010027649689107
 30
0.0
 40
0.0079
 50
188.0000000057823968
 51
270.0
  0
ARC
  5
11969
  8
0
 10
3771.7231364790568477
 20
178.1010027649689107
 30
0.0
 40
0.0079
 50
269.9999999999739089
 51
351.9999999941869078
  0
ARC
  5
1196A
  8
0
 10
3771.7259182709581182
 20
178.1010027649689107
 30
0.0
 40
0.0079
 50
270.0
 51
351.9999999942421027
  0
ARC
  5
1196B
  8
0
 10
3771.7319048805570674
 20
178.1010027649689107
 30
0.0
 40
0.0079
 50
270.0000000000782165
 51
352.0000001016401825
  0
ARC
  5
1196C
  8
0
 10
3771.7488338999578446
 20
178.1010027649689107
 30
0.0
 40
0.0079
 50
269.9999999999739089
 51
351.9999999942405111
  0
ARC
  5
1196D
  8
0
 10
3771.630571996908202
 20
178.1010027649689107
 30
0.0
 40
0.0079
 50
188.000000005756192
 51
270.0
  0
LINE
  5
1196E
  8
0
 10
3772.2980525992647927
 20
178.0999032974704903
 30
0.0
 11
3772.2907086961818095
 21
178.1521578830688952
 31
0.0
  0
LINE
  5
1196F
  8
0
 10
3772.4062633169010041
 20
178.0999032974704903
 30
0.0
 11
3772.4136072199830778
 21
178.1521578830688952
 31
0.0
  0
LINE
  5
11970
  8
0
 10
3772.3984401991569939
 20
178.0931027649689042
 30
0.0
 11
3772.3058757170078934
 21
178.0931027649689042
 31
0.0
  0
ARC
  5
11971
  8
0
 10
3772.3984401991569939
 20
178.1010027649689107
 30
0.0
 40
0.0079
 50
269.999999999895806
 51
351.9999999942534146
  0
ARC
  5
11972
  8
0
 10
3772.3058757170078934
 20
178.1010027649689107
 30
0.0
 40
0.0079
 50
188.0000000057594889
 51
270.0000000000259774
  0
LINE
  5
11973
  8
0
 10
3771.302166370030136
 20
178.0931027649689042
 30
0.0
 11
3771.4239796199021839
 21
178.0931027649689042
 31
0.0
  0
LINE
  5
11974
  8
0
 10
3771.4025539699218825
 20
178.0999032974704903
 30
0.0
 11
3771.4098978730048657
 21
178.1521578830688952
 31
0.0
  0
LINE
  5
11975
  8
0
 10
3771.2943432522870353
 20
178.0999032974704903
 30
0.0
 11
3771.2869993492040521
 21
178.1521578830688952
 31
0.0
  0
ARC
  5
11976
  8
0
 10
3771.3947308521787818
 20
178.1010027649689107
 30
0.0
 40
0.0079
 50
269.9999999999478746
 51
351.9999999942598947
  0
ARC
  5
11977
  8
0
 10
3771.302166370030136
 20
178.1010027649689107
 30
0.0
 40
0.0079
 50
188.0000000057530087
 51
269.9999999999739089
  0
LINE
  5
11978
  8
0
 10
3771.4318027376448299
 20
178.0999032974704903
 30
0.0
 11
3771.4391466407269036
 21
178.1521578830688952
 31
0.0
  0
ARC
  5
11979
  8
0
 10
3771.4239796199021839
 20
178.1010027649689107
 30
0.0
 40
0.0079
 50
269.9999999999478746
 51
351.9999999942598947
  0
LINE
  5
1197A
  8
0
 10
3770.8127444883480166
 20
178.0931027649689042
 30
0.0
 11
3770.9053089704980266
 21
178.0931027649689042
 31
0.0
  0
LINE
  5
1197B
  8
0
 10
3770.9131320882411273
 20
178.0999032974704903
 30
0.0
 11
3770.920475991323201
 21
178.1521578830688952
 31
0.0
  0
LINE
  5
1197C
  8
0
 10
3770.8049213706049159
 20
178.0999032974704903
 30
0.0
 11
3770.7975774675228422
 21
178.1521578830688952
 31
0.0
  0
ARC
  5
1197D
  8
0
 10
3770.9053089704980266
 20
178.1010027649689107
 30
0.0
 40
0.0079
 50
269.9999999999478746
 51
351.9999999942598947
  0
ARC
  5
1197E
  8
0
 10
3770.8127444883480166
 20
178.1010027649689107
 30
0.0
 40
0.0079
 50
188.0000000057530087
 51
269.9999999999739089
  0
LINE
  5
1197F
  8
0
 10
3770.57497257961586
 20
178.0999032974704903
 30
0.0
 11
3770.5823164826979337
 21
178.1521578830688952
 31
0.0
  0
LINE
  5
11980
  8
0
 10
3770.4606885222810888
 20
178.0999032974704903
 30
0.0
 11
3770.4533446191981056
 21
178.1521578830688952
 31
0.0
  0
LINE
  5
11981
  8
0
 10
3770.5688992399150266
 20
178.0999032974704903
 30
0.0
 11
3770.5762431429980097
 21
178.1521578830688952
 31
0.0
  0
LINE
  5
11982
  8
0
 10
3770.2335782973850655
 20
178.0999032974704903
 30
0.0
 11
3770.2409222004680487
 21
178.1521578830688952
 31
0.0
  0
LINE
  5
11983
  8
0
 10
3769.8963773117161509
 20
178.0999032974704903
 30
0.0
 11
3769.903721214799134
 21
178.1521578830688952
 31
0.0
  0
LINE
  5
11984
  8
0
 10
3769.7785506384161636
 20
178.0999032974704903
 30
0.0
 11
3769.7858945414991467
 21
178.1521578830688952
 31
0.0
  0
LINE
  5
11985
  8
0
 10
3769.4390388975161841
 20
178.0999032974704903
 30
0.0
 11
3769.4463828005991672
 21
178.1521578830688952
 31
0.0
  0
LINE
  5
11986
  8
0
 10
3769.2298813667848663
 20
178.0999032974704903
 30
0.0
 11
3769.2372252698669399
 21
178.1521578830688952
 31
0.0
  0
LINE
  5
11987
  8
0
 10
3769.1209983843800728
 20
178.0999032974704903
 30
0.0
 11
3769.1136544812979992
 21
178.1521578830688952
 31
0.0
  0
LINE
  5
11988
  8
0
 10
3769.0500211032808693
 20
178.0999032974704903
 30
0.0
 11
3769.0426772001978861
 21
178.1521578830688952
 31
0.0
  0
LINE
  5
11989
  8
0
 10
3769.3308281798808821
 20
178.0999032974704903
 30
0.0
 11
3769.3234842767978989
 21
178.1521578830688952
 31
0.0
  0
LINE
  5
1198A
  8
0
 10
3769.6703399207808616
 20
178.0999032974704903
 30
0.0
 11
3769.6629960176978784
 21
178.1521578830688952
 31
0.0
  0
LINE
  5
1198B
  8
0
 10
3770.0477503690808589
 20
178.0999032974704903
 30
0.0
 11
3770.0404064659978758
 21
178.1521578830688952
 31
0.0
  0
LINE
  5
1198C
  8
0
 10
3770.1246953149811816
 20
178.0999032974704903
 30
0.0
 11
3770.1173514118991079
 21
178.1521578830688952
 31
0.0
  0
LINE
  5
1198D
  8
0
 10
3770.3492337017810314
 20
178.0999032974704903
 30
0.0
 11
3770.3418897986980483
 21
178.1521578830688952
 31
0.0
  0
LINE
  5
1198E
  8
0
 10
3770.4685116400241895
 20
178.0931027649689042
 30
0.0
 11
3770.567149461873214
 21
178.0931027649689042
 31
0.0
  0
LINE
  5
1198F
  8
0
 10
3770.4496213016727779
 20
178.0931027649689042
 30
0.0
 11
3770.3570568195232227
 21
178.0931027649689042
 31
0.0
  0
LINE
  5
11990
  8
0
 10
3770.2257551796419648
 20
178.0931027649689042
 30
0.0
 11
3770.0555734868239597
 21
178.0931027649689042
 31
0.0
  0
LINE
  5
11991
  8
0
 10
3769.8885541939721406
 20
178.0931027649689042
 30
0.0
 11
3769.7959897118239496
 21
178.0931027649689042
 31
0.0
  0
LINE
  5
11992
  8
0
 10
3769.7707275206721533
 20
178.0931027649689042
 30
0.0
 11
3769.6781630385239623
 21
178.0931027649689042
 31
0.0
  0
LINE
  5
11993
  8
0
 10
3769.4312157797730833
 20
178.0931027649689042
 30
0.0
 11
3769.3386512976239828
 21
178.0931027649689042
 31
0.0
  0
LINE
  5
11994
  8
0
 10
3769.2220582490422203
 20
178.0931027649689042
 30
0.0
 11
3769.05784422102397
 21
178.0931027649689042
 31
0.0
  0
ARC
  5
11995
  8
0
 10
3769.2220582490422203
 20
178.1010027649689107
 30
0.0
 40
0.0079
 50
269.9999999999739089
 51
351.9999999942094178
  0
ARC
  5
11996
  8
0
 10
3769.1288215021240831
 20
178.1010027649689107
 30
0.0
 40
0.0079
 50
188.0000000057320051
 51
270.0000000000259774
  0
ARC
  5
11997
  8
0
 10
3769.05784422102397
 20
178.1010027649689107
 30
0.0
 40
0.0079
 50
188.0000000057337104
 51
270.0000000000259774
  0
ARC
  5
11998
  8
0
 10
3769.3386512976239828
 20
178.1010027649689107
 30
0.0
 40
0.0079
 50
188.0000000057320051
 51
270.0000000000259774
  0
ARC
  5
11999
  8
0
 10
3769.4312157797730833
 20
178.1010027649689107
 30
0.0
 40
0.0079
 50
269.9999999999739089
 51
351.9999999942143063
  0
ARC
  5
1199A
  8
0
 10
3769.6781630385239623
 20
178.1010027649689107
 30
0.0
 40
0.0079
 50
188.0000000057320051
 51
270.0000000000259774
  0
ARC
  5
1199B
  8
0
 10
3769.7707275206721533
 20
178.1010027649689107
 30
0.0
 40
0.0079
 50
269.9999999999739089
 51
351.9999999942111231
  0
ARC
  5
1199C
  8
0
 10
3769.8885541939721406
 20
178.1010027649689107
 30
0.0
 40
0.0079
 50
269.9999999999739089
 51
351.9999999942421027
  0
ARC
  5
1199D
  8
0
 10
3770.1325184327229181
 20
178.1010027649689107
 30
0.0
 40
0.0079
 50
188.0000000057320051
 51
270.0000000000259774
  0
ARC
  5
1199E
  8
0
 10
3770.0555734868239597
 20
178.1010027649689107
 30
0.0
 40
0.0079
 50
188.0000000057094951
 51
270.0000000000259774
  0
ARC
  5
1199F
  8
0
 10
3770.2257551796419648
 20
178.1010027649689107
 30
0.0
 40
0.0079
 50
269.9999999999739089
 51
351.9999999942111231
  0
ARC
  5
119A0
  8
0
 10
3770.3570568195232227
 20
178.1010027649689107
 30
0.0
 40
0.0079
 50
188.0000000057110867
 51
270.0000000000259774
  0
ARC
  5
119A1
  8
0
 10
3770.5610761221728353
 20
178.1010027649689107
 30
0.0
 40
0.0079
 50
269.9999999999739089
 51
351.9999999942647264
  0
ARC
  5
119A2
  8
0
 10
3770.567149461873214
 20
178.1010027649689107
 30
0.0
 40
0.0079
 50
269.9999999999739089
 51
351.999999994266318
  0
ARC
  5
119A3
  8
0
 10
3770.4685116400241895
 20
178.1010027649689107
 30
0.0
 40
0.0079
 50
188.0000000057337104
 51
270.0000000000259774
  0
LINE
  5
119A4
  8
0
 10
3770.4574444194217904
 20
178.0999032975182956
 30
0.0
 11
3770.4590664708121039
 21
178.1114447933684062
 31
0.0
  0
ARC
  5
119A5
  8
0
 10
3770.4496213016727779
 20
178.1010027649689107
 30
0.0
 40
0.0079
 50
270.0
 51
352.000000344207308
  0
LINE
  5
119A6
  8
0
 10
3769.7833586162178108
 20
178.134113837126506
 30
0.0
 11
3769.7881665940822131
 21
178.0999032974571037
 31
0.0
  0
ARC
  5
119A7
  8
0
 10
3769.7959897118239496
 20
178.1010027649689107
 30
0.0
 40
0.0079
 50
188.0000001042145925
 51
269.9999999999739089
  0
LINE
  5
119A8
  8
0
 10
3772.0814601674160258
 20
178.0999032974694103
 30
0.0
 11
3772.0888040705058302
 21
178.1521578830688952
 31
0.0
  0
LINE
  5
119A9
  8
0
 10
3772.0678544668157883
 20
178.0999032974704903
 30
0.0
 11
3772.075198369897862
 21
178.1521578830688952
 31
0.0
  0
LINE
  5
119AA
  8
0
 10
3772.0667515761160757
 20
178.0999032974704903
 30
0.0
 11
3772.0740954791990589
 21
178.1521578830688952
 31
0.0
  0
LINE
  5
119AB
  8
0
 10
3771.9585408584807737
 20
178.0999032974704903
 30
0.0
 11
3771.9511969553991548
 21
178.1521578830688952
 31
0.0
  0
LINE
  5
119AC
  8
0
 10
3771.9663639762238745
 20
178.0931027649689042
 30
0.0
 11
3772.0736370496729251
 21
178.0931027649689042
 31
0.0
  0
ARC
  5
119AD
  8
0
 10
3771.9663639762238745
 20
178.1010027649689107
 30
0.0
 40
0.0079
 50
188.000000005735302
 51
270.0000000000521254
  0
ARC
  5
119AE
  8
0
 10
3772.058928458372975
 20
178.1010027649689107
 30
0.0
 40
0.0079
 50
269.9999999999739089
 51
351.9999999942888849
  0
ARC
  5
119AF
  8
0
 10
3772.0600313490731423
 20
178.1010027649689107
 30
0.0
 40
0.0079
 50
269.9999999999478746
 51
351.9999999942647264
  0
ARC
  5
119B0
  8
0
 10
3772.0736370496729251
 20
178.1010027649689107
 30
0.0
 40
0.0079
 50
269.9999999999478746
 51
351.9999999863230755
  0
LINE
  5
119B1
  8
0
 10
3774.0224555166728351
 20
178.0931027649689042
 30
0.0
 11
3773.9298910345228251
 21
178.0931027649689042
 31
0.0
  0
LINE
  5
119B2
  8
0
 10
3773.6971381027879033
 20
178.0931027649689042
 30
0.0
 11
3773.6050883156390228
 21
178.0931027649689042
 31
0.0
  0
LINE
  5
119B3
  8
0
 10
3773.5235913144879305
 20
178.0931027649689042
 30
0.0
 11
3773.43102683233883
 21
178.0931027649689042
 31
0.0
  0
LINE
  5
119B4
  8
0
 10
3773.0737439194881517
 20
178.0931027649689042
 30
0.0
 11
3772.9554820164389639
 21
178.0931027649689042
 31
0.0
  0
LINE
  5
119B5
  8
0
 10
3772.9403149956137895
 20
178.1521578830688952
 30
0.0
 11
3772.9476588986958632
 21
178.0999032974704903
 31
0.0
  0
LINE
  5
119B6
  8
0
 10
3772.9572440151141564
 20
178.1521578830688952
 30
0.0
 11
3772.9645879180948214
 21
178.0999032974852128
 31
0.0
  0
LINE
  5
119B7
  8
0
 10
3772.9632306246139706
 20
178.1521578830688952
 30
0.0
 11
3772.9705745276960442
 21
178.0999032974704903
 31
0.0
  0
LINE
  5
119B8
  8
0
 10
3772.9660124165138768
 20
178.1521578830688952
 30
0.0
 11
3772.9733563195959505
 21
178.0999032974704903
 31
0.0
  0
LINE
  5
119B9
  8
0
 10
3773.0889109403137809
 20
178.1521578830688952
 30
0.0
 11
3773.081567037232162
 21
178.0999032974704903
 31
0.0
  0
LINE
  5
119BA
  8
0
 10
3773.423203714596184
 20
178.0999032974704903
 30
0.0
 11
3773.416588189353206
 21
178.1469752054493938
 31
0.0
  0
LINE
  5
119BB
  8
0
 10
3773.5314144322319407
 20
178.0999032974704903
 30
0.0
 11
3773.5387583353140144
 21
178.1521578830688952
 31
0.0
  0
LINE
  5
119BC
  8
0
 10
3773.597265197895922
 20
178.0999032974704903
 30
0.0
 11
3773.5899212948138484
 21
178.1521578830688952
 31
0.0
  0
LINE
  5
119BD
  8
0
 10
3773.7049612205310041
 20
178.0999032974704903
 30
0.0
 11
3773.7123051236130777
 21
178.1521578830688952
 31
0.0
  0
LINE
  5
119BE
  8
0
 10
3773.9220679167810886
 20
178.0999032974704903
 30
0.0
 11
3773.9147240136981054
 21
178.1521578830688952
 31
0.0
  0
LINE
  5
119BF
  8
0
 10
3774.0302786344150263
 20
178.0999032974704903
 30
0.0
 11
3774.0376225374980095
 21
178.1521578830688952
 31
0.0
  0
ARC
  5
119C0
  8
0
 10
3773.43102683233883
 20
178.1010027649689107
 30
0.0
 40
0.0079
 50
188.0000000057401053
 51
270.0000000000521254
  0
ARC
  5
119C1
  8
0
 10
3773.5235913144879305
 20
178.1010027649689107
 30
0.0
 40
0.0079
 50
270.0000000000259774
 51
351.9999999942453996
  0
ARC
  5
119C2
  8
0
 10
3773.6050883156390228
 20
178.1010027649689107
 30
0.0
 40
0.0079
 50
188.0000000057320051
 51
270.0000000000259774
  0
ARC
  5
119C3
  8
0
 10
3773.6971381027879033
 20
178.1010027649689107
 30
0.0
 40
0.0079
 50
269.9999999999478746
 51
351.9999999942598947
  0
ARC
  5
119C4
  8
0
 10
3773.9298910345228251
 20
178.1010027649689107
 30
0.0
 40
0.0079
 50
188.000000005756192
 51
270.0
  0
ARC
  5
119C5
  8
0
 10
3774.0224555166728351
 20
178.1010027649689107
 30
0.0
 40
0.0079
 50
270.0
 51
351.9999999942158979
  0
ARC
  5
119C6
  8
0
 10
3772.9811794373390512
 20
178.1010027649689107
 30
0.0
 40
0.0079
 50
188.0000000058130922
 51
270.0000000000259774
  0
ARC
  5
119C7
  8
0
 10
3772.978397645439145
 20
178.1010027649689107
 30
0.0
 40
0.0079
 50
188.000000005756192
 51
270.0
  0
ARC
  5
119C8
  8
0
 10
3772.9724110358388316
 20
178.1010027649689107
 30
0.0
 40
0.0079
 50
187.9999998983581975
 51
269.9999999999218971
  0
ARC
  5
119C9
  8
0
 10
3772.9554820164389639
 20
178.1010027649689107
 30
0.0
 40
0.0079
 50
188.0000000057594889
 51
270.0000000000259774
  0
ARC
  5
119CA
  8
0
 10
3773.0737439194881517
 20
178.1010027649689107
 30
0.0
 40
0.0079
 50
270.0
 51
351.9999999942421027
  0
LINE
  5
119CB
  8
0
 10
3773.4021495463671272
 20
178.0931027649689042
 30
0.0
 11
3773.2803362964941698
 21
178.0931027649689042
 31
0.0
  0
LINE
  5
119CC
  8
0
 10
3773.3017619464749259
 20
178.0999032974704903
 30
0.0
 11
3773.2944180433919428
 21
178.1521578830688952
 31
0.0
  0
LINE
  5
119CD
  8
0
 10
3773.4099726641097732
 20
178.0999032974704903
 30
0.0
 11
3773.4173165671918468
 21
178.1521578830688952
 31
0.0
  0
ARC
  5
119CE
  8
0
 10
3773.3095850642171172
 20
178.1010027649689107
 30
0.0
 40
0.0079
 50
188.0000000057401053
 51
270.0000000000521254
  0
ARC
  5
119CF
  8
0
 10
3773.4021495463671272
 20
178.1010027649689107
 30
0.0
 40
0.0079
 50
270.0000000000259774
 51
351.9999999942453996
  0
LINE
  5
119D0
  8
0
 10
3773.2725131787519786
 20
178.0999032974704903
 30
0.0
 11
3773.2651692756689954
 21
178.1521578830688952
 31
0.0
  0
ARC
  5
119D1
  8
0
 10
3773.2803362964941698
 20
178.1010027649689107
 30
0.0
 40
0.0079
 50
188.0000000057401053
 51
270.0000000000521254
  0
LINE
  5
119D2
  8
0
 10
3773.8915714280487919
 20
178.0931027649689042
 30
0.0
 11
3773.7990069458987819
 21
178.0931027649689042
 31
0.0
  0
LINE
  5
119D3
  8
0
 10
3773.7911838281561359
 20
178.0999032974704903
 30
0.0
 11
3773.7838399250731527
 21
178.1521578830688952
 31
0.0
  0
LINE
  5
119D4
  8
0
 10
3773.8993945457918926
 20
178.0999032974704903
 30
0.0
 11
3773.9067384488739663
 21
178.1521578830688952
 31
0.0
  0
ARC
  5
119D5
  8
0
 10
3773.7990069458987819
 20
178.1010027649689107
 30
0.0
 40
0.0079
 50
188.0000000057401053
 51
270.0000000000521254
  0
ARC
  5
119D6
  8
0
 10
3773.8915714280487919
 20
178.1010027649689107
 30
0.0
 40
0.0079
 50
270.0000000000259774
 51
351.9999999942453996
  0
LINE
  5
119D7
  8
0
 10
3774.1293433367809484
 20
178.0999032974704903
 30
0.0
 11
3774.1219994336979653
 21
178.1521578830688952
 31
0.0
  0
LINE
  5
119D8
  8
0
 10
3774.2436273941161744
 20
178.0999032974704903
 30
0.0
 11
3774.2509712971977933
 21
178.1521578830688952
 31
0.0
  0
LINE
  5
119D9
  8
0
 10
3774.1354166764808724
 20
178.0999032974704903
 30
0.0
 11
3774.1280727733978893
 21
178.1521578830688952
 31
0.0
  0
LINE
  5
119DA
  8
0
 10
3774.4707376190121977
 20
178.0999032974704903
 30
0.0
 11
3774.4633937159292145
 21
178.1521578830688952
 31
0.0
  0
LINE
  5
119DB
  8
0
 10
3774.8079386046811123
 20
178.0999032974704903
 30
0.0
 11
3774.8005947015990387
 21
178.1521578830688952
 31
0.0
  0
LINE
  5
119DC
  8
0
 10
3774.9257652779810996
 20
178.0999032974704903
 30
0.0
 11
3774.9184213748981165
 21
178.1521578830688952
 31
0.0
  0
LINE
  5
119DD
  8
0
 10
3775.2652770188810791
 20
178.0999032974704903
 30
0.0
 11
3775.257933115798096
 21
178.1521578830688952
 31
0.0
  0
LINE
  5
119DE
  8
0
 10
3775.4744345496110327
 20
178.0999032974704903
 30
0.0
 11
3775.467090646528959
 21
178.1521578830688952
 31
0.0
  0
LINE
  5
119DF
  8
0
 10
3775.5833175320158261
 20
178.0999032974704903
 30
0.0
 11
3775.5906614350978998
 21
178.1521578830688952
 31
0.0
  0
LINE
  5
119E0
  8
0
 10
3775.6542948131150297
 20
178.0999032974704903
 30
0.0
 11
3775.6616387161980128
 21
178.1521578830688952
 31
0.0
  0
LINE
  5
119E1
  8
0
 10
3775.3734877365159264
 20
178.0999032974704903
 30
0.0
 11
3775.380831639598
 21
178.1521578830688952
 31
0.0
  0
LINE
  5
119E2
  8
0
 10
3775.0339759956150374
 20
178.0999032974704903
 30
0.0
 11
3775.0413198986980206
 21
178.1521578830688952
 31
0.0
  0
LINE
  5
119E3
  8
0
 10
3774.6565655473159495
 20
178.0999032974704903
 30
0.0
 11
3774.6639094503980232
 21
178.1521578830688952
 31
0.0
  0
LINE
  5
119E4
  8
0
 10
3774.5796206014160816
 20
178.0999032974704903
 30
0.0
 11
3774.5869645044990648
 21
178.1521578830688952
 31
0.0
  0
LINE
  5
119E5
  8
0
 10
3774.355082214615777
 20
178.0999032974704903
 30
0.0
 11
3774.3624261176978507
 21
178.1521578830688952
 31
0.0
  0
LINE
  5
119E6
  8
0
 10
3774.2358042763730737
 20
178.0931027649689042
 30
0.0
 11
3774.1371664545240492
 21
178.0931027649689042
 31
0.0
  0
LINE
  5
119E7
  8
0
 10
3774.2546946147240305
 20
178.0931027649689042
 30
0.0
 11
3774.3472590968731311
 21
178.0931027649689042
 31
0.0
  0
LINE
  5
119E8
  8
0
 10
3774.4785607367548437
 20
178.0931027649689042
 30
0.0
 11
3774.6487424295728488
 21
178.0931027649689042
 31
0.0
  0
LINE
  5
119E9
  8
0
 10
3774.8157617224242131
 20
178.0931027649689042
 30
0.0
 11
3774.9083262045728588
 21
178.0931027649689042
 31
0.0
  0
LINE
  5
119EA
  8
0
 10
3774.9335883957242004
 20
178.0931027649689042
 30
0.0
 11
3775.0261528778728461
 21
178.0931027649689042
 31
0.0
  0
LINE
  5
119EB
  8
0
 10
3775.2731001366241799
 20
178.0931027649689042
 30
0.0
 11
3775.3656646187728256
 21
178.0931027649689042
 31
0.0
  0
LINE
  5
119EC
  8
0
 10
3775.4822576673550429
 20
178.0931027649689042
 30
0.0
 11
3775.6464716953728384
 21
178.0931027649689042
 31
0.0
  0
ARC
  5
119ED
  8
0
 10
3775.4822576673550429
 20
178.1010027649689107
 30
0.0
 40
0.0079
 50
188.0000000057889054
 51
270.0000000000259774
  0
ARC
  5
119EE
  8
0
 10
3775.5754944142731802
 20
178.1010027649689107
 30
0.0
 40
0.0079
 50
269.9999999999739089
 51
351.999999994266318
  0
ARC
  5
119EF
  8
0
 10
3775.6464716953728384
 20
178.1010027649689107
 30
0.0
 40
0.0079
 50
269.9999999999478746
 51
351.9999999942647264
  0
ARC
  5
119F0
  8
0
 10
3775.3656646187728256
 20
178.1010027649689107
 30
0.0
 40
0.0079
 50
269.9999999999739089
 51
351.999999994266318
  0
ARC
  5
119F1
  8
0
 10
3775.2731001366241799
 20
178.1010027649689107
 30
0.0
 40
0.0079
 50
188.0000000057839884
 51
270.0
  0
ARC
  5
119F2
  8
0
 10
3775.0261528778728461
 20
178.1010027649689107
 30
0.0
 40
0.0079
 50
269.9999999999739089
 51
351.999999994266318
  0
ARC
  5
119F3
  8
0
 10
3774.9335883957242004
 20
178.1010027649689107
 30
0.0
 40
0.0079
 50
188.0000000057889054
 51
270.0000000000259774
  0
ARC
  5
119F4
  8
0
 10
3774.8157617224242131
 20
178.1010027649689107
 30
0.0
 40
0.0079
 50
188.000000005757812
 51
270.0
  0
ARC
  5
119F5
  8
0
 10
3774.5717974836729809
 20
178.1010027649689107
 30
0.0
 40
0.0079
 50
269.9999999999739089
 51
351.999999994266318
  0
ARC
  5
119F6
  8
0
 10
3774.6487424295728488
 20
178.1010027649689107
 30
0.0
 40
0.0079
 50
269.9999999999739089
 51
351.9999999942888849
  0
ARC
  5
119F7
  8
0
 10
3774.4785607367548437
 20
178.1010027649689107
 30
0.0
 40
0.0079
 50
188.0000000057889054
 51
270.0000000000259774
  0
ARC
  5
119F8
  8
0
 10
3774.3472590968731311
 20
178.1010027649689107
 30
0.0
 40
0.0079
 50
269.9999999999739089
 51
351.9999999942888849
  0
ARC
  5
119F9
  8
0
 10
3774.1432397942239731
 20
178.1010027649689107
 30
0.0
 40
0.0079
 50
188.0000000057337104
 51
270.0000000000259774
  0
ARC
  5
119FA
  8
0
 10
3774.1371664545240492
 20
178.1010027649689107
 30
0.0
 40
0.0079
 50
188.0000000057320051
 51
270.0000000000259774
  0
ARC
  5
119FB
  8
0
 10
3774.2358042763730737
 20
178.1010027649689107
 30
0.0
 40
0.0079
 50
269.9999999999739089
 51
351.9999999942647264
  0
LINE
  5
119FC
  8
0
 10
3774.2468714969741086
 20
178.0999032975182956
 30
0.0
 11
3774.245249445583795
 21
178.1114447933684062
 31
0.0
  0
ARC
  5
119FD
  8
0
 10
3774.2546946147240305
 20
178.1010027649689107
 30
0.0
 40
0.0079
 50
187.999999655792692
 51
270.0
  0
LINE
  5
119FE
  8
0
 10
3774.9209573001780882
 20
178.134113837126506
 30
0.0
 11
3774.9161493223141406
 21
178.0999032974571037
 31
0.0
  0
ARC
  5
119FF
  8
0
 10
3774.9083262045728588
 20
178.1010027649689107
 30
0.0
 40
0.0079
 50
270.0
 51
351.9999998957837875
  0
LINE
  5
11A00
  8
0
 10
3772.6228557489807827
 20
178.0999032974694103
 30
0.0
 11
3772.6155118458909783
 21
178.1521578830688952
 31
0.0
  0
LINE
  5
11A01
  8
0
 10
3772.6364614495810201
 20
178.0999032974704903
 30
0.0
 11
3772.629117546498037
 21
178.1521578830688952
 31
0.0
  0
LINE
  5
11A02
  8
0
 10
3772.6375643402811875
 20
178.0999032974704903
 30
0.0
 11
3772.6302204371991138
 21
178.1521578830688952
 31
0.0
  0
LINE
  5
11A03
  8
0
 10
3772.7457750579160347
 20
178.0999032974704903
 30
0.0
 11
3772.7531189609990179
 21
178.1521578830688952
 31
0.0
  0
LINE
  5
11A04
  8
0
 10
3772.737951940172934
 20
178.0931027649689042
 30
0.0
 11
3772.6306788667238834
 21
178.0931027649689042
 31
0.0
  0
ARC
  5
11A05
  8
0
 10
3772.737951940172934
 20
178.1010027649689107
 30
0.0
 40
0.0079
 50
269.9999999999478746
 51
351.9999999942647264
  0
ARC
  5
11A06
  8
0
 10
3772.6453874580238335
 20
178.1010027649689107
 30
0.0
 40
0.0079
 50
188.0000000057110867
 51
270.0000000000259774
  0
ARC
  5
11A07
  8
0
 10
3772.6442845673241209
 20
178.1010027649689107
 30
0.0
 40
0.0079
 50
188.0000000057337104
 51
270.0000000000259774
  0
ARC
  5
11A08
  8
0
 10
3772.6306788667238834
 20
178.1010027649689107
 30
0.0
 40
0.0079
 50
188.0000000136768108
 51
270.0000000000521254
  0
LINE
  5
11A09
  8
0
 10
3768.4223612463651989
 20
178.1521578830688952
 30
0.0
 11
3776.2819276499672014
 21
178.1521578830688952
 31
0.0
  0
ARC
  5
11A0A
  8
0
 10
3768.4223612463761128
 20
178.2112130012606031
 30
0.0
 40
0.059055118191683
 50
181.0000000648169873
 51
269.999999990307515
  0
LINE
  5
11A0B
  8
0
 10
3768.3633151226458722
 20
178.2101823472688977
 30
0.0
 11
3768.356361136266969
 21
178.6085759554227934
 31
0.0
  0
ARC
  5
11A0C
  8
0
 10
3768.3721067677888641
 20
178.6088507970598869
 30
0.0
 40
0.0157480300342173
 50
89.9999946287403247
 51
181.0000022427952047
  0
LINE
  5
11A0D
  8
0
 10
3768.3721067692658835
 20
178.6245988270941893
 30
0.0
 11
3776.3321821269660177
 21
178.6245988270941893
 31
0.0
  0
ARC
  5
11A0E
  8
0
 10
3776.3321821254899078
 20
178.608850794157803
 30
0.0
 40
0.0157480329364092
 50
359.0000085009173176
 51
89.9999946287924359
  0
LINE
  5
11A0F
  8
0
 10
3776.3479277599649322
 20
178.6085759554225092
 30
0.0
 11
3776.3409738172631478
 21
178.2101823465083044
 31
0.0
  0
ARC
  5
11A10
  8
0
 10
3776.2819277007570236
 20
178.2112129938423095
 30
0.0
 40
0.0590551107733996
 50
269.9999507219819179
 51
359.0000062698520082
  0
LINE
  5
11A11
  8
0
 10
3771.5529318490671358
 20
178.6245988272698071
 30
0.0
 11
3771.5647428733659581
 21
178.6364098515689136
 31
0.0
  0
LINE
  5
11A12
  8
0
 10
3771.5647428733659581
 20
178.6364098515689136
 30
0.0
 11
3773.1395460229659875
 21
178.6364098515689136
 31
0.0
  0
LINE
  5
11A13
  8
0
 10
3773.1395460229659875
 20
178.6364098515689136
 30
0.0
 11
3773.1513570465658631
 21
178.6245988279688959
 31
0.0
  0
ARC
  5
11A14
  8
0
 10
3760.950134867421184
 20
178.4381752200291942
 30
0.0
 40
12.1516581234929095
 50
0.9347300981435012
 51
4.4506471033935382
  0
ARC
  5
11A15
  8
0
 10
3773.0062711654732084
 20
179.3765653064135108
 30
0.0
 40
0.0590571463894562
 50
4.4506471391080407
 51
89.9824068495847342
  0
LINE
  5
11A16
  8
0
 10
3773.0062892994660615
 20
179.4356224500189114
 30
0.0
 11
3771.6979996585409936
 21
179.4356224500189114
 31
0.0
  0
ARC
  5
11A17
  8
0
 10
3771.697999596758109
 20
179.3765673323325984
 30
0.0
 40
0.059055117686324
 50
89.9999400573412487
 51
175.5514594547246929
  0
ARC
  5
11A18
  8
0
 10
3783.7600679523138751
 20
178.4381616802371866
 30
0.0
 40
12.1575714805303292
 50
175.5514594190065907
 51
179.0656615112038992
  0
LINE
  5
11A19
  8
0
 10
3771.8245853930661724
 20
179.4356224500189114
 30
0.0
 11
3771.8245853930661724
 21
179.4434964657689022
 31
0.0
  0
LINE
  5
11A1A
  8
0
 10
3771.8245853930661724
 20
179.4434964657689022
 30
0.0
 11
3772.8797035032657732
 21
179.4434964657689022
 31
0.0
  0
LINE
  5
11A1B
  8
0
 10
3772.8797035032657732
 20
179.4434964657689022
 30
0.0
 11
3772.8797035032657732
 21
179.4356224500189114
 31
0.0
  0
ARC
  5
11A1C
  8
0
 10
3772.351336972747049
 20
179.2078621180513949
 30
0.0
 40
0.4950738411868879
 50
136.469570568525711
 51
151.5721069448858032
  0
ARC
  5
11A1D
  8
0
 10
3771.9781287269652239
 20
179.5623932305691994
 30
0.0
 40
0.0196850394014384
 50
316.4847259500702989
 51
359.9999999991939035
  0
LINE
  5
11A1E
  8
0
 10
3771.9978137663661073
 20
179.5623932305688868
 30
0.0
 11
3771.9978137663670168
 21
179.6899397781689061
 31
0.0
  0
ARC
  5
11A1F
  8
0
 10
3771.9781287269688619
 20
179.6899397781691903
 30
0.0
 40
0.0196850393986727
 50
359.9999999991939035
 51
70.0000013303649951
  0
LINE
  5
11A20
  8
0
 10
3771.984861406465825
 20
179.708437664368887
 30
0.0
 11
3771.9191451669657908
 21
179.7323564125838971
 31
0.0
  0
LINE
  5
11A21
  8
0
 10
3771.8797046991080606
 20
180.232936559268893
 30
0.0
 11
3771.8797054737360668
 21
180.5478971891664912
 31
0.0
  0
LINE
  5
11A22
  8
0
 10
3771.8797054737360668
 20
180.5478971891664912
 30
0.0
 11
3772.8245853591661216
 21
180.5478971891664912
 31
0.0
  0
LINE
  5
11A23
  8
0
 10
3772.8245853591661216
 20
180.5478971891664912
 30
0.0
 11
3772.8245853727257781
 21
180.232936559268893
 31
0.0
  0
LINE
  5
11A24
  8
0
 10
3772.7852868370659962
 20
179.7324085803543881
 30
0.0
 11
3772.719427407828789
 21
179.7084378872575883
 31
0.0
  0
ARC
  5
11A25
  8
0
 10
3772.7261599780508732
 20
179.6899401646278989
 30
0.0
 40
0.0196848480889236
 50
109.9998626517523945
 51
180.0011248484497912
  0
LINE
  5
11A26
  8
0
 10
3772.7064751299658383
 20
179.6899397781689061
 30
0.0
 11
3772.7064776339989294
 21
179.5623932305935
 31
0.0
  0
ARC
  5
11A27
  8
0
 10
3772.7261701829938829
 20
179.5623936172036963
 30
0.0
 40
0.0196925489984342
 50
180.0011248484480859
 51
223.4960311343760111
  0
ARC
  5
11A28
  8
0
 10
3772.3511138630069581
 20
179.206527831761008
 30
0.0
 40
0.4973255361887218
 50
28.4561447007870889
 51
43.4960311343760111
  0
LINE
  5
11A29
  8
0
 10
3771.9584436607660791
 20
179.7180529346979938
 30
0.0
 11
3771.9584436607660791
 21
179.5090676137492949
 31
0.0
  0
LINE
  5
11A2A
  8
0
 10
3772.7458452355658665
 20
179.7180531184903884
 30
0.0
 11
3772.7458452355658665
 21
179.5090502812807074
 31
0.0
  0
LINE
  5
11A2B
  8
0
 10
3771.9190020592668589
 20
179.7604956143688923
 30
0.0
 11
3772.7852868370659962
 21
179.7604956143688923
 31
0.0
  0
LINE
  5
11A2C
  8
0
 10
3771.984861406465825
 20
179.708437664368887
 30
0.0
 11
3772.7194274898661206
 21
179.708437664368887
 31
0.0
  0
LINE
  5
11A2D
  8
0
 10
3771.9924041103458876
 20
179.5488391375689048
 30
0.0
 11
3772.711884785986058
 21
179.5488391375689048
 31
0.0
  0
CIRCLE
  5
11A2E
  8
0
 10
3772.3522785655659391
 20
179.6227003387689081
 30
0.0
 40
0.0236220472
  0
LINE
  5
11A2F
  8
0
 10
3771.958496269565785
 20
180.7140782915689101
 30
0.0
 11
3772.7458452355658665
 21
180.7140782915689101
 31
0.0
  0
LINE
  5
11A30
  8
0
 10
3771.9399003429639379
 20
180.5478971891664912
 30
0.0
 11
3771.9879712198658126
 21
180.595968064768897
 31
0.0
  0
LINE
  5
11A31
  8
0
 10
3771.9879712198658126
 20
180.595968064768897
 30
0.0
 11
3771.9879712198658126
 21
180.7140782915689101
 31
0.0
  0
LINE
  5
11A32
  8
0
 10
3772.7163176764652235
 20
180.7140782915689101
 30
0.0
 11
3772.7163176764652235
 21
180.595968064768897
 31
0.0
  0
LINE
  5
11A33
  8
0
 10
3772.7163176764652235
 20
180.595968064768897
 30
0.0
 11
3772.7643885533680077
 21
180.5478971891664912
 31
0.0
  0
LINE
  5
11A34
  8
0
 10
3771.9879712198658126
 20
180.595968064768897
 30
0.0
 11
3772.7163176764652235
 21
180.595968064768897
 31
0.0
  0
LINE
  5
11A35
  8
0
 10
3771.8797035032657732
 20
180.232936559268893
 30
0.0
 11
3771.9191451669657908
 21
180.232936559268893
 31
0.0
  0
LINE
  5
11A36
  8
0
 10
3771.9191451669657908
 20
180.232936559268893
 30
0.0
 11
3771.9191451669657908
 21
179.7323564098765871
 31
0.0
  0
LINE
  5
11A37
  8
0
 10
3772.8245853930661724
 20
180.232936559268893
 30
0.0
 11
3772.7852868370659962
 21
180.232936559268893
 31
0.0
  0
LINE
  5
11A38
  8
0
 10
3772.7852868370659962
 20
180.232936559268893
 30
0.0
 11
3772.7852868370659962
 21
179.7324085803543881
 31
0.0
  0
LINE
  5
11A39
  8
0
 10
3771.958496269565785
 20
180.7140782915689101
 30
0.0
 11
3771.9584436607660791
 21
181.5014798663688964
 31
0.0
  0
ARC
  5
11A3A
  8
0
 10
3774.3225295788279254
 20
181.5007931766307934
 30
0.0
 40
2.3640860177924372
 50
90.0455924479230561
 51
179.9833574480423977
  0
LINE
  5
11A3B
  8
0
 10
3774.3206483851658959
 20
183.8648784459541901
 30
0.0
 11
3786.131671980903775
 21
183.8648784459541901
 31
0.0
  0
ARC
  5
11A3C
  8
0
 10
3786.1281241875749402
 20
181.4991273924470931
 30
0.0
 40
2.365753713725891
 50
0.0569741679222809
 51
89.91407657552665
  0
LINE
  5
11A3D
  8
0
 10
3788.4938767316662052
 20
181.5014798663688964
 30
0.0
 11
3788.4938767316662052
 21
173.4162130195043119
 31
0.0
  0
LINE
  5
11A3E
  8
0
 10
3772.7458452355658665
 20
180.7140782915689101
 30
0.0
 11
3772.7458452355658665
 21
181.5014798663688964
 31
0.0
  0
ARC
  5
11A3F
  8
0
 10
3774.3206483851658959
 20
181.5014798663688964
 30
0.0
 40
1.574803149600001
 50
90.0
 51
180.0
  0
LINE
  5
11A40
  8
0
 10
3774.3206483851658959
 20
183.0762830159688974
 30
0.0
 11
3786.1316720072659336
 21
183.0762830159688974
 31
0.0
  0
ARC
  5
11A41
  8
0
 10
3786.1316720072659336
 20
181.5014798663688964
 30
0.0
 40
1.574803149599997
 50
359.9999999999984084
 51
90.0
  0
LINE
  5
11A42
  8
0
 10
3787.7064751568659631
 20
181.5014798663688964
 30
0.0
 11
3787.7064751568650536
 21
173.4162130195043119
 31
0.0
  0
LINE
  5
11A43
  8
0
 10
3787.4702583952657733
 20
173.4162130195043119
 30
0.0
 11
3788.7300934933659846
 21
173.4162130195043119
 31
0.0
  0
ARC
  5
11A44
  8
0
 10
3788.7300934933659846
 20
173.3965242690545097
 30
0.0
 40
0.0196887504497418
 50
0.0107994404955317
 51
90.0
  0
LINE
  5
11A45
  8
0
 10
3788.749782243466143
 20
173.3965279801043096
 30
0.0
 11
3788.7498638711708736
 21
172.9622632665617061
 31
0.0
  0
ARC
  5
11A46
  8
0
 10
3788.729395542038219
 20
172.9630496271107063
 30
0.0
 40
0.0204834289228123
 50
271.9630570382129804
 51
357.7998695834704108
  0
LINE
  5
11A47
  8
0
 10
3788.7300972040670786
 20
172.9425782194689134
 30
0.0
 11
3787.4702595421658771
 21
172.9425782194689134
 31
0.0
  0
ARC
  5
11A48
  8
0
 10
3787.4721399383988683
 20
172.9641485129018861
 30
0.0
 40
0.0216525227526815
 50
184.9949858851097986
 51
265.0050141149171168
  0
LINE
  5
11A49
  8
0
 10
3787.4505696449659808
 20
172.9622632588688873
 30
0.0
 11
3787.4505696449659808
 21
173.3965279801043096
 31
0.0
  0
ARC
  5
11A4A
  8
0
 10
3787.4702546847152007
 20
173.3965279801043096
 30
0.0
 40
0.0196850397497102
 50
89.9891999772494273
 51
180.0000000000081002
  0
LINE
  5
11A4B
  8
0
 10
3787.5489948418658059
 20
172.9425782194689134
 30
0.0
 11
3787.5489948418658059
 21
172.8794326222688937
 31
0.0
  0
LINE
  5
11A4C
  8
0
 10
3788.6513570466659075
 20
172.9425782194689134
 30
0.0
 11
3788.6513570466659075
 21
172.8794326222688937
 31
0.0
  0
LINE
  5
11A4D
  8
0
 10
3788.7300971916661183
 20
172.8794326222688937
 30
0.0
 11
3787.4702546843659547
 21
172.8794326222688937
 31
0.0
  0
ARC
  5
11A4E
  8
0
 10
3787.4702546843659547
 20
172.8597475829689074
 30
0.0
 40
0.0196850393000112
 50
90.0
 51
180.0000002910257138
  0
LINE
  5
11A4F
  8
0
 10
3787.4505696450651158
 20
172.8597475828688914
 30
0.0
 11
3787.4505696511650967
 21
171.6589601813705031
 31
0.0
  0
ARC
  5
11A50
  8
0
 10
3787.4702546907369651
 20
171.6589601814704906
 30
0.0
 40
0.0196850395710442
 50
180.0000002910192052
 51
269.995188240295704
  0
LINE
  5
11A51
  8
0
 10
3787.4702530375661809
 20
171.6392751419689091
 30
0.0
 11
3788.7300971996241969
 21
171.6392751419689091
 31
0.0
  0
ARC
  5
11A52
  8
0
 10
3788.7300972040161469
 20
171.6589601814181947
 30
0.0
 40
0.0196850394492754
 50
269.9999872123373734
 51
359.9999998565747887
  0
LINE
  5
11A53
  8
0
 10
3788.749782243466143
 20
171.6589601813689114
 30
0.0
 11
3788.7497822446907776
 21
171.9050231734688907
 31
0.0
  0
ARC
  5
11A54
  8
0
 10
3788.7891523236871762
 20
171.9050231732730083
 30
0.0
 40
0.0393700789959723
 50
90.0000020677330639
 51
179.9999997147911017
  0
LINE
  5
11A55
  8
0
 10
3788.7891523222660908
 20
171.9443932522688954
 30
0.0
 11
3789.0253727946660547
 21
171.9443932607937882
 31
0.0
  0
LINE
  5
11A56
  8
0
 10
3789.0253727946660547
 20
171.7672278978689064
 30
0.0
 11
3789.0253727946660547
 21
172.7514798663688964
 31
0.0
  0
LINE
  5
11A57
  8
0
 10
3789.0253727946660547
 20
172.7514798663688964
 30
0.0
 11
3790.3836405111660497
 21
172.7514798663688964
 31
0.0
  0
LINE
  5
11A58
  8
0
 10
3790.7773412985661707
 20
173.4995010897688985
 30
0.0
 11
3790.7773412985661707
 21
171.0192066743688883
 31
0.0
  0
LINE
  5
11A59
  8
0
 10
3790.7773412985661707
 20
171.0192066743688883
 30
0.0
 11
3790.4028102563070206
 21
171.0290038422402858
 31
0.0
  0
ARC
  5
11A5A
  8
0
 10
3790.4033249967169468
 20
171.0486815965329868
 30
0.0
 40
0.0196844855582867
 50
179.9984295687731048
 51
268.5015704312393723
  0
LINE
  5
11A5B
  8
0
 10
3790.3836405111660497
 20
171.0486821360688907
 30
0.0
 11
3790.3837068779639594
 21
173.4700154300593908
 31
0.0
  0
ARC
  5
11A5C
  8
0
 10
3790.4034048869812068
 20
173.4700148901528109
 30
0.0
 40
0.0196980090246821
 50
91.7298704925624691
 51
179.9984295687748101
  0
LINE
  5
11A5D
  8
0
 10
3790.4028102563079301
 20
173.4897039219700048
 30
0.0
 11
3790.7773412985661707
 21
173.4995010897688985
 31
0.0
  0
LINE
  5
11A5E
  8
0
 10
3790.3836405111660497
 20
171.7672278978689064
 30
0.0
 11
3789.7340351895268213
 21
171.7672278978689064
 31
0.0
  0
ARC
  5
11A5F
  8
0
 10
3789.6552942205230465
 20
171.3069809797252105
 30
0.0
 40
0.4669339777007428
 50
80.2924490534808228
 51
99.7083886776209312
  0
LINE
  5
11A60
  8
0
 10
3789.5765534187062258
 20
171.7672278978689064
 30
0.0
 11
3789.0253727946660547
 21
171.7672278978689064
 31
0.0
  0
LINE
  5
11A61
  8
0
 10
3789.582993788972999
 20
171.7682834695615952
 30
0.0
 11
3789.5903334245658698
 21
171.760943833968895
 31
0.0
  0
LINE
  5
11A62
  8
0
 10
3789.5903334245658698
 20
171.760943833968895
 30
0.0
 11
3789.7202538247661323
 21
171.760943833968895
 31
0.0
  0
LINE
  5
11A63
  8
0
 10
3789.7202538247661323
 20
171.760943833968895
 30
0.0
 11
3789.7275943658692086
 21
171.7682835144181865
 31
0.0
  0
ARC
  5
11A64
  8
0
 10
3788.7300972040661691
 20
172.8597475828688914
 30
0.0
 40
0.0196850394000098
 50
0.0000000000211698
 51
90.000036091790534
  0
LINE
  5
11A65
  8
0
 10
3788.749782243466143
 20
172.8597475828688914
 30
0.0
 11
3788.749782243466143
 21
172.6136845907689121
 31
0.0
  0
ARC
  5
11A66
  8
0
 10
3788.7891523222660908
 20
172.6136845907689974
 30
0.0
 40
0.0393700788000118
 50
180.0000000000293028
 51
269.9999999998436806
  0
LINE
  5
11A67
  8
0
 10
3788.7891523222660908
 20
172.5743145119689075
 30
0.0
 11
3789.0253727946660547
 21
172.5743145119683106
 31
0.0
  0
ARC
  5
11A68
  8
0
 10
3789.303027046752959
 20
172.2415288845571979
 30
0.0
 40
0.6122314690295863
 50
147.0735642956817912
 51
178.3316090050504101
  0
ARC
  5
11A69
  8
0
 10
3789.3224418315580806
 20
172.2832477954252965
 30
0.0
 40
0.6318386666637789
 50
182.1672413807702071
 51
212.4320598940740012
  0
LINE
  5
11A6A
  8
0
 10
3787.608049959966138
 20
171.6392751419689091
 30
0.0
 11
3787.608049959966138
 21
165.9879839657565128
 31
0.0
  0
LINE
  5
11A6B
  8
0
 10
3788.5923019284659858
 20
171.6392751419689091
 30
0.0
 11
3788.5923019284659858
 21
163.9382064681799989
 31
0.0
  0
ARC
  5
11A6C
  8
0
 10
3789.0144564589609217
 20
136.4106265525504114
 30
0.0
 40
0.0380332089823817
 50
352.3288738294293125
 51
64.3771379883605448
  0
LINE
  5
11A6D
  8
0
 10
3789.052149293365801
 20
136.405549622368909
 30
0.0
 11
3789.052149293365801
 21
136.0622902541688859
 31
0.0
  0
ARC
  5
11A6E
  8
0
 10
3789.032361072475851
 20
136.0623953261890051
 30
0.0
 40
0.0197884998455594
 50
298.4933683335414116
 51
359.6957722095114036
  0
ARC
  5
11A6F
  8
0
 10
3788.1436720569590761
 20
135.4713444439319971
 30
0.0
 40
0.862277895624291
 50
7.8831867895239967
 51
34.36604074798516
  0
ARC
  5
11A70
  8
0
 10
3789.0350826151179717
 20
135.5699225991577919
 30
0.0
 40
0.0196853263491072
 50
0.0007739563333558
 51
90.2368679453139606
  0
LINE
  5
11A71
  8
0
 10
3789.0547679414657978
 20
135.5699228650688895
 30
0.0
 11
3789.0547715352849991
 21
135.3038734655931989
 31
0.0
  0
ARC
  5
11A72
  8
0
 10
3794.776237588992899
 20
135.3039507516502908
 30
0.0
 40
5.7214660542307323
 50
180.0007739563332905
 51
184.2979538963629125
  0
ARC
  5
11A73
  8
0
 10
3789.6600474919450789
 20
134.9194462238384915
 30
0.0
 40
0.5908476859399571
 50
184.2979538963629125
 51
205.1263818035552049
  0
ARC
  5
11A74
  8
0
 10
3789.2156962759959242
 20
134.7243489378728043
 30
0.0
 40
0.1063862511848783
 50
211.6261839046237014
 51
247.6617826374703952
  0
ARC
  5
11A75
  8
0
 10
3789.2332333653607748
 20
134.7839471938358997
 30
0.0
 40
0.1683003184621243
 50
249.851554039040991
 51
268.2360717623782875
  0
ARC
  5
11A76
  8
0
 10
3789.2498226208231245
 20
134.9897710084225935
 30
0.0
 40
0.3746773590341518
 50
266.669080845839801
 51
269.4777494964068865
  0
ARC
  5
11A77
  8
0
 10
3789.2435965210402173
 20
134.3843417307959953
 30
0.0
 40
0.2307846026356316
 50
87.4860890262704345
 51
89.3021176842850224
  0
ARC
  5
11A78
  8
0
 10
3786.7711145845842111
 20
135.8058751191391025
 30
0.0
 40
1.1911938609031041
 50
268.8864749568029993
 51
279.3697844938510002
  0
ARC
  5
11A79
  8
0
 10
3786.8802745576231246
 20
135.1457537182442934
 30
0.0
 40
0.5221078867923314
 50
279.344316532658695
 51
316.9509682556251846
  0
ARC
  5
11A7A
  8
0
 10
3786.6933751437650244
 20
135.320339505301888
 30
0.0
 40
0.7778647790612494
 50
316.9509682556251846
 51
326.2874153897373048
  0
ARC
  5
11A7B
  8
0
 10
3788.2596335575740341
 20
164.0991729125501877
 30
0.0
 40
0.0118110237141686
 50
17.6140564359760283
 51
109.9999998383387947
  0
LINE
  5
11A7C
  8
0
 10
3788.2708908386662188
 20
164.102746972368891
 30
0.0
 11
3788.2999766978127809
 21
164.0111347138060864
 31
0.0
  0
ARC
  5
11A7D
  8
0
 10
3787.4318920523669476
 20
163.7978907662138113
 30
0.0
 40
0.0118285324771685
 50
112.2559028662411009
 51
202.3419704989688057
  0
LINE
  5
11A7E
  8
0
 10
3787.4209514699659849
 20
163.7933943412689075
 30
0.0
 11
3787.457554552676811
 21
163.704526732614994
 31
0.0
  0
LINE
  5
11A7F
  8
0
 10
3788.6828531095661674
 20
163.8044401643689127
 30
0.0
 11
3788.6828531095661674
 21
163.8549791267467981
 31
0.0
  0
ARC
  5
11A80
  8
0
 10
3788.662635197526015
 20
163.8547831737886895
 30
0.0
 40
0.020218861610664
 50
0.555296013500383
 51
39.827719714331451
  0
ARC
  5
11A81
  8
0
 10
3788.117594625421134
 20
163.2723098817820073
 30
0.0
 40
0.8177807085895201
 50
46.7270353602515129
 51
54.515521219405521
  0
ARC
  5
11A82
  8
0
 10
3788.0982660407871663
 20
163.2451966723469923
 30
0.0
 40
0.8510781605915356
 50
54.515521219405521
 51
77.7311943118075561
  0
ARC
  5
11A83
  8
0
 10
3788.100782748014808
 20
163.2511579617896871
 30
0.0
 40
0.7856480721300846
 50
67.5219558718432751
 51
75.3128538845741531
  0
ARC
  5
11A84
  8
0
 10
3788.0999752940929284
 20
163.249206480786512
 30
0.0
 40
0.7877600048800709
 50
45.7782380500185084
 51
67.5219558718432751
  0
ARC
  5
11A85
  8
0
 10
3788.1002694322310163
 20
163.2495087199058048
 30
0.0
 40
0.7873382635734668
 50
311.028556593542703
 51
45.7782380500185084
  0
ARC
  5
11A86
  8
0
 10
3788.1001759425680575
 20
163.1904562407945889
 30
0.0
 40
0.8464566966761585
 50
46.4986164158979633
 51
76.391307695058515
  0
LINE
  5
11A87
  8
0
 10
3788.6493885426662018
 20
163.8345482056894014
 30
0.0
 11
3788.6493885426489214
 21
163.8137513484452086
 31
0.0
  0
ARC
  5
11A88
  8
0
 10
3788.1698971786759103
 20
163.5252293637803973
 30
0.0
 40
0.5030155966590683
 50
75.0130297383482514
 51
78.1952129037150883
  0
ARC
  5
11A89
  8
0
 10
3788.9192079519111758
 20
167.1104812606616861
 30
0.0
 40
3.1597016732069978
 50
257.7226229384717158
 51
258.1952129037151167
  0
ARC
  5
11A8A
  8
0
 10
3788.2370976811139371
 20
163.9760956195669905
 30
0.0
 40
0.0480464105157858
 50
77.7226229384716447
 51
106.628084111814303
  0
ARC
  5
11A8B
  8
0
 10
3788.2343950167169169
 20
163.9851453226816886
 30
0.0
 40
0.0386017548150735
 50
106.628084111814303
 51
199.5852194364300942
  0
LINE
  5
11A8C
  8
0
 10
3788.1980266066611875
 20
163.9722056849437024
 30
0.0
 11
3788.6507133616460123
 21
162.6865781939982867
 31
0.0
  0
LINE
  5
11A8D
  8
0
 10
3788.370916417465196
 20
163.4818973868688943
 30
0.0
 11
3787.7433678817760665
 21
163.2542526923317041
 31
0.0
  0
ARC
  5
11A8E
  8
0
 10
3788.1002136309530215
 20
163.2495134158046142
 30
0.0
 40
0.7874294023299199
 50
140.6213192756478065
 51
269.5364190835468889
  0
ARC
  5
11A8F
  8
0
 10
3787.5232723736621665
 20
163.722470248846804
 30
0.0
 40
0.0414096684597162
 50
25.3972383160460495
 51
139.9917424497494949
  0
LINE
  5
11A90
  8
0
 10
3787.5606800447440037
 20
163.740230507464787
 30
0.0
 11
3788.0402872935710548
 21
162.4644012749704984
 31
0.0
  0
LINE
  5
11A91
  8
0
 10
3787.5174987791519925
 20
162.6945825604130107
 30
0.0
 11
3787.5174987788659564
 21
162.6440436146064883
 31
0.0
  0
ARC
  5
11A92
  8
0
 10
3787.5366851806238628
 20
162.6439294400653921
 30
0.0
 40
0.0191867414708982
 50
179.6590479965707914
 51
217.701121972861614
  0
ARC
  5
11A93
  8
0
 10
3788.1124203949439107
 20
163.2795373025838899
 30
0.0
 40
0.8764887637912718
 50
227.6090711127237967
 51
270.2143001336012844
  0
ARC
  5
11A94
  8
0
 10
3788.0994449384329528
 20
163.3074292491033077
 30
0.0
 40
0.8451286269796028
 50
226.4814914055623092
 51
266.1789663602822884
  0
LINE
  5
11A95
  8
0
 10
3787.5509633458668759
 20
162.6855192007689084
 30
0.0
 11
3787.5509633458668759
 21
162.6644593129821033
 31
0.0
  0
ARC
  5
11A96
  8
0
 10
3788.096569655751864
 20
163.2908351099843003
 30
0.0
 40
0.8681372696472291
 50
228.1619909394298986
 51
270.7819702156065205
  0
ARC
  5
11A97
  8
0
 10
3788.1001759288501489
 20
163.3085664998550044
 30
0.0
 40
0.8464567175888021
 50
308.0651203574323063
 51
313.5013835209148283
  0
LINE
  5
11A98
  8
0
 10
3788.6828531095661674
 20
162.6945825604688878
 30
0.0
 11
3788.6828531095661674
 21
162.6440435980800032
 31
0.0
  0
ARC
  5
11A99
  8
0
 10
3788.6631680502769086
 20
162.6440435867089036
 30
0.0
 40
0.0196850592884165
 50
312.9494964828335242
 51
0.0000330971504277
  0
ARC
  5
11A9A
  8
0
 10
3788.1099994742771742
 20
163.2382935613476036
 30
0.0
 40
0.831552354991751
 50
309.4928218852975874
 51
312.9494964828335242
  0
LINE
  5
11A9B
  8
0
 10
3788.6493885426662018
 20
162.6852660913826867
 30
0.0
 11
3788.6493885426662018
 21
162.6644745191892127
 31
0.0
  0
LINE
  5
11A9C
  8
0
 10
3787.9375791271809248
 20
162.7376208341341055
 30
0.0
 11
3788.5537702344117861
 21
162.9618960557587002
 31
0.0
  0
LINE
  5
11A9D
  8
0
 10
3788.5231424679777774
 20
162.9507484604359888
 30
0.0
 11
3788.5574755024658771
 21
162.8564079181689124
 31
0.0
  0
LINE
  5
11A9E
  8
0
 10
3788.5574755024658771
 20
162.8564079181689124
 30
0.0
 11
3788.0025461822660873
 21
162.654430163468902
 31
0.0
  0
LINE
  5
11A9F
  8
0
 10
3788.0025461822660873
 20
162.654430163468902
 30
0.0
 11
3787.9682095143220977
 21
162.7487693833163007
 31
0.0
  0
LINE
  5
11AA0
  8
0
 10
3788.0201938608520322
 20
162.6608533931785985
 30
0.0
 11
3788.1084175862479242
 21
162.4227786916027014
 31
0.0
  0
ARC
  5
11AA1
  8
0
 10
3780.2373180408590088
 20
159.5059726627941075
 30
0.0
 40
8.3941625825997637
 50
20.1681637675863001
 51
20.3332754782180913
  0
ARC
  5
11AA2
  8
0
 10
3744.4292011753659608
 20
146.3537364385911133
 30
0.0
 40
46.5412797888845589
 50
19.5299489353528912
 51
20.1681637675863001
  0
ARC
  5
11AA3
  8
0
 10
3778.1021938556878013
 20
158.2977805158616036
 30
0.0
 40
10.8127110382501197
 50
9.7871785765694632
 51
19.5299489353528912
  0
ARC
  5
11AA4
  8
0
 10
3772.7863132680481613
 20
157.3807935114188865
 30
0.0
 40
16.2071017905381716
 50
2.0680489383135958
 51
9.7871785765694632
  0
ARC
  5
11AA5
  8
0
 10
3762.5643081307648572
 20
157.3899996001001966
 30
0.0
 40
26.424821659244401
 50
354.2586739439697112
 51
1.2482559816066841
  0
ARC
  5
11AA6
  8
0
 10
3650.2087541052810593
 20
167.903429312077094
 30
0.0
 40
139.2706791938130948
 50
353.6114618799289246
 51
354.5791841490303113
  0
ARC
  5
11AA7
  8
0
 10
3869.9739421693111581
 20
143.3710664192398951
 30
0.0
 40
81.859562631681797
 50
173.6627519429430038
 51
175.3087662544558043
  0
ARC
  5
11AA8
  8
0
 10
3820.9528626301221266
 20
147.2146357546066042
 30
0.0
 40
32.6888454003042668
 50
174.9958158790246898
 51
185.1071565715305098
  0
ARC
  5
11AA9
  8
0
 10
3854.0165830658847881
 20
150.1672387412444039
 30
0.0
 40
65.8841382981307646
 50
185.105061912803194
 51
187.8249146171723964
  0
ARC
  5
11AAA
  8
0
 10
3461.2921922704149438
 20
95.2062316040271668
 30
0.0
 40
330.6676884213184735
 50
7.5161593233930306
 51
7.99493845703162
  0
ARC
  5
11AAB
  8
0
 10
3784.7206205291959122
 20
137.8049734429382056
 30
0.0
 40
4.4466002863460048
 50
2.583966380970852
 51
8.4643405453018978
  0
ARC
  5
11AAC
  8
0
 10
3797.4729386454159794
 20
138.0890341231487071
 30
0.0
 40
8.3106594402796201
 50
180.5763186084662948
 51
182.3137712454567918
  0
ARC
  5
11AAD
  8
0
 10
3789.6229430093258088
 20
137.7559416706457966
 30
0.0
 40
0.4538947718248963
 50
180.3061234729526916
 51
200.4635903592721888
  0
ARC
  5
11AAE
  8
0
 10
3789.3891241344340415
 20
137.6686896903648858
 30
0.0
 40
0.2043267964781643
 50
200.4635903592721888
 51
227.077780890738012
  0
ARC
  5
11AAF
  8
0
 10
3789.5021779138578495
 20
137.7902554728595987
 30
0.0
 40
0.3703370266323361
 50
227.077780890738012
 51
247.773062005686711
  0
ARC
  5
11AB0
  8
0
 10
3789.4524374304128287
 20
137.7121758371488056
 30
0.0
 40
0.2797312027155594
 50
251.156423641140492
 51
287.8977099958141253
  0
ARC
  5
11AB1
  8
0
 10
3789.4556864259388931
 20
137.7073198255353077
 30
0.0
 40
0.2741163791075047
 50
287.563396801491308
 51
323.6128433157572886
  0
ARC
  5
11AB2
  8
0
 10
3789.4485107994541977
 20
137.7134628751221044
 30
0.0
 40
0.2835380797484751
 50
323.473722650350112
 51
356.8315900920900958
  0
ARC
  5
11AB3
  8
0
 10
3783.0743931872998473
 20
137.637641030819708
 30
0.0
 40
6.6574940074677604
 50
0.5176739919190384
 51
7.7093849991354402
  0
ARC
  5
11AB4
  8
0
 10
4102.9424815987331385
 20
181.5377137540108947
 30
0.0
 40
316.2090694267820936
 50
187.535693666290797
 51
187.8169147345645058
  0
ARC
  5
11AB5
  8
0
 10
3561.5625980855597845
 20
109.9205616539081944
 30
0.0
 40
229.8872542631565921
 50
7.5356936662908574
 51
7.9656876450944898
  0
ARC
  5
11AB6
  8
0
 10
3833.6909676431428124
 20
147.9995371629293004
 30
0.0
 40
44.8923990845486927
 50
183.9300947862124929
 51
187.9656876450943912
  0
ARC
  5
11AB7
  8
0
 10
3822.1432163055910678
 20
147.2061965544120028
 30
0.0
 40
33.317428230371597
 50
175.4049331820737905
 51
183.9300947862124929
  0
ARC
  5
11AB8
  8
0
 10
3939.8224737188238578
 20
137.7481460518012
 30
0.0
 40
151.3761523664545052
 50
173.3931635303482892
 51
175.4049331820737905
  0
ARC
  5
11AB9
  8
0
 10
3772.0008874655109139
 20
157.1860587277203933
 30
0.0
 40
17.5673803945685911
 50
353.3931635303483745
 51
11.1817893621709707
  0
ARC
  5
11ABA
  8
0
 10
3779.2326367473219761
 20
158.6155951726724993
 30
0.0
 40
10.1956931981104102
 50
11.1817893621709707
 51
19.1254994219101384
  0
ARC
  5
11ABB
  8
0
 10
3761.9723931318308132
 20
152.7972443803699889
 30
0.0
 40
28.4099805934527687
 50
18.8070079158367207
 51
20.7258230493063706
  0
LINE
  5
11ABC
  8
0
 10
3788.0248414625662008
 20
162.978865540268913
 30
0.0
 11
3788.3318542992651601
 21
163.0906090743688992
 31
0.0
  0
LINE
  5
11ABD
  8
0
 10
3788.3318542992651601
 20
163.0906090743688992
 30
0.0
 11
3788.3720162560439348
 21
162.9258657876654013
 31
0.0
  0
ARC
  5
11ABE
  8
0
 10
3788.3548647669258571
 20
162.9233509525018064
 30
0.0
 40
0.0173348774110965
 50
322.454270368454786
 51
8.3415482122135725
  0
ARC
  5
11ABF
  8
0
 10
3788.2966821547188374
 20
162.971228588269696
 30
0.0
 40
0.0926761738134457
 50
297.7050817954839772
 51
320.9057413203458964
  0
ARC
  5
11AC0
  8
0
 10
3788.0029061169680062
 20
163.5353917220799929
 30
0.0
 40
0.7287451864053147
 50
293.5885926986529171
 51
297.5324477756237229
  0
LINE
  5
11AC1
  8
0
 10
3788.0248414625662008
 20
162.978865540268913
 30
0.0
 11
3788.0999778628402055
 21
162.8268416735664914
 31
0.0
  0
ARC
  5
11AC2
  8
0
 10
3788.1134530534100122
 20
162.8346326172579097
 30
0.0
 40
0.0155653321360983
 50
210.0351897598141022
 51
251.4275460641163136
  0
ARC
  5
11AC3
  8
0
 10
3788.1262670973751483
 20
162.8751242494195139
 30
0.0
 40
0.0580343928208718
 50
252.1680425710216866
 51
276.1045010484600084
  0
ARC
  5
11AC4
  8
0
 10
3788.1141848533520715
 20
163.0172809829309131
 30
0.0
 40
0.200693889884573
 50
275.2184453785620235
 51
286.0682033535965729
  0
ARC
  5
11AC5
  8
0
 10
3788.4151733737221548
 20
162.006705366608486
 30
0.0
 40
0.8537625939475351
 50
104.7512659111760058
 51
106.7071830239124068
  0
LINE
  5
11AC6
  8
0
 10
3787.608049959966138
 20
162.5627088591103018
 30
0.0
 11
3787.608049959966138
 21
155.7996014128395927
 31
0.0
  0
LINE
  5
11AC7
  8
0
 10
3787.608049959966138
 20
154.4936058505689118
 30
0.0
 11
3787.608049959966138
 21
140.6353381340688884
 31
0.0
  0
LINE
  5
11AC8
  8
0
 10
3788.7818880815261764
 20
140.9404562442688871
 30
0.0
 11
3788.6513570466659075
 21
140.9404562442688871
 31
0.0
  0
ARC
  5
11AC9
  8
0
 10
3788.651398771048207
 20
140.8813593586131958
 30
0.0
 40
0.0590969003851099
 50
90.0404527342287508
 51
179.9594465069363878
  0
LINE
  5
11ACA
  8
0
 10
3788.5923018854659858
 20
140.8814011869216927
 30
0.0
 11
3788.5923019284659858
 21
140.0152596114139953
 31
0.0
  0
ARC
  5
11ACB
  8
0
 10
3788.5824594091241124
 20
140.0152593936132916
 30
0.0
 40
0.0098425193444189
 50
269.9999984982098908
 51
0.0012680495793292
  0
LINE
  5
11ACC
  8
0
 10
3788.5923019284659858
 20
140.0054168742688887
 30
0.0
 11
3786.6301380434661041
 21
140.0054168742688887
 31
0.0
  0
ARC
  5
11ACD
  8
0
 10
3786.6301380434661041
 20
140.1235271104688991
 30
0.0
 40
0.1181102362000033
 50
179.9999999959011916
 51
270.0
  0
LINE
  5
11ACE
  8
0
 10
3786.5120278072658948
 20
140.1235271104773972
 30
0.0
 11
3786.5120278072940891
 21
140.5172278978604936
 31
0.0
  0
ARC
  5
11ACF
  8
0
 10
3786.6301380435111241
 20
140.5172278978519955
 30
0.0
 40
0.1181102362169
 50
90.000000021860231
 51
179.9999999959028116
  0
LINE
  5
11AD0
  8
0
 10
3786.6301380434661041
 20
140.6353381340688884
 30
0.0
 11
3788.5923019284659858
 21
140.6353381348174025
 31
0.0
  0
LINE
  5
11AD1
  8
0
 10
3787.608049959966138
 20
140.0054168742688887
 30
0.0
 11
3787.608049959966138
 21
139.9660467954689125
 31
0.0
  0
LINE
  5
11AD2
  8
0
 10
3787.608049959966138
 20
139.9463617561688977
 30
0.0
 11
3787.608049959966138
 21
139.8873066379688908
 31
0.0
  0
LINE
  5
11AD3
  8
0
 10
3787.608049959966138
 20
139.8873066379688908
 30
0.0
 11
3788.5923019284659858
 21
139.8873066379688908
 31
0.0
  0
LINE
  5
11AD4
  8
0
 10
3788.5923019284659858
 20
139.8873066379688908
 30
0.0
 11
3788.5923019284659858
 21
139.9463617561688977
 31
0.0
  0
LINE
  5
11AD5
  8
0
 10
3788.5923019284659858
 20
139.9660467954689125
 30
0.0
 11
3788.5923019284659858
 21
140.0054168742688887
 31
0.0
  0
LINE
  5
11AD6
  8
0
 10
3787.608049959966138
 20
139.9660467954689125
 30
0.0
 11
3788.5923019284659858
 21
139.9660467954689125
 31
0.0
  0
LINE
  5
11AD7
  8
0
 10
3788.5923019284659858
 20
139.9463617561688977
 30
0.0
 11
3787.608049959966138
 21
139.9463617561688977
 31
0.0
  0
LINE
  5
11AD8
  8
0
 10
3787.6726759442658476
 20
139.9660467954687135
 30
0.0
 11
3787.6726759442658476
 21
139.9560467954688932
 31
0.0
  0
ARC
  5
11AD9
  8
0
 10
3787.7952967258552235
 20
140.1778051621791974
 30
0.0
 40
0.2534021098636349
 50
241.059700510643097
 51
245.9716977650757883
  0
ARC
  5
11ADA
  8
0
 10
3787.8159656890311453
 20
140.226138043849204
 30
0.0
 40
0.2969501783786449
 50
241.1487056834405962
 51
250.4185058569321995
  0
ARC
  5
11ADB
  8
0
 10
3787.9108735238678491
 20
140.1574321593465129
 30
0.0
 40
0.2346107214439024
 50
234.6622920406746005
 51
244.1137034080825003
  0
LINE
  5
11ADC
  8
0
 10
3787.7852153143658143
 20
139.9660467954689125
 30
0.0
 11
3787.7852153143658143
 21
139.9592535782718983
 31
0.0
  0
ARC
  5
11ADD
  8
0
 10
3788.306170467586071
 20
139.1887266369838017
 30
0.0
 40
0.7791219331425592
 50
93.8973452721400434
 51
103.4872715554504055
  0
ARC
  5
11ADE
  8
0
 10
3788.310455125451881
 20
139.4557057061190903
 30
0.0
 40
0.5106852676811898
 50
73.9001175394077734
 51
87.8963323807873849
  0
LINE
  5
11ADF
  8
0
 10
3788.4151365741658992
 20
139.9660467954689125
 30
0.0
 11
3788.4151365741658992
 21
139.9555469178270926
 31
0.0
  0
ARC
  5
11AE0
  8
0
 10
3788.3042830743588638
 20
139.3530551163186999
 30
0.0
 40
0.6029002379754927
 50
79.7651085611363584
 51
100.2331583392643068
  0
ARC
  5
11AE1
  8
0
 10
3787.6691036714159964
 20
139.8754868215484066
 30
0.0
 40
0.0118411162144332
 50
93.4371155390571317
 51
179.9574540487664081
  0
LINE
  5
11AE2
  8
0
 10
3787.6572625584658454
 20
139.8754956143689014
 30
0.0
 11
3787.6572625583648914
 21
139.2751019135689035
 31
0.0
  0
ARC
  5
11AE3
  8
0
 10
3787.6867901174678082
 20
139.2751019135696993
 30
0.0
 40
0.0295275591020357
 50
180.0000000016300135
 51
270.0005145946864786
  0
LINE
  5
11AE4
  8
0
 10
3787.6867903826669135
 20
139.2455743544689142
 30
0.0
 11
3788.5135617710329825
 21
139.2455743544689142
 31
0.0
  0
ARC
  5
11AE5
  8
0
 10
3788.5135488145228919
 20
139.2751148700120041
 30
0.0
 40
0.0295405183845019
 50
270.0251300041946934
 51
359.9748701250825889
  0
LINE
  5
11AE6
  8
0
 10
3788.5430893300658681
 20
139.2751019135689035
 30
0.0
 11
3788.5431103675991835
 21
139.3558105723271012
 31
0.0
  0
LINE
  5
11AE7
  8
0
 10
3787.6442719460660555
 20
139.6510861655688984
 30
0.0
 11
3788.5563463330659033
 21
139.6510861655688984
 31
0.0
  0
LINE
  5
11AE8
  8
0
 10
3788.5563463330659033
 20
139.6510861655688984
 30
0.0
 11
3788.5563463330659033
 21
139.3558105750688867
 31
0.0
  0
LINE
  5
11AE9
  8
0
 10
3788.5563463330659033
 20
139.3558105750688867
 30
0.0
 11
3787.6442719460660555
 21
139.3558105750688867
 31
0.0
  0
LINE
  5
11AEA
  8
0
 10
3787.6442719460660555
 20
139.3558105750688867
 30
0.0
 11
3787.6442719460660555
 21
139.6510861655688984
 31
0.0
  0
LINE
  5
11AEB
  8
0
 10
3787.6453370420667852
 20
139.6510861655688984
 30
0.0
 11
3787.6453370420667852
 21
139.3558105750688867
 31
0.0
  0
LINE
  5
11AEC
  8
0
 10
3787.6506500899658931
 20
139.6510861655688984
 30
0.0
 11
3787.6506500899658931
 21
139.3558105750688867
 31
0.0
  0
LINE
  5
11AED
  8
0
 10
3787.6601614832661653
 20
139.6510861655688984
 30
0.0
 11
3787.6601614832661653
 21
139.3558105750688867
 31
0.0
  0
LINE
  5
11AEE
  8
0
 10
3787.673782416566155
 20
139.6510861655688984
 30
0.0
 11
3787.673782416566155
 21
139.3558105750688867
 31
0.0
  0
LINE
  5
11AEF
  8
0
 10
3787.6913857150661897
 20
139.6510861655688984
 30
0.0
 11
3787.6913857150661897
 21
139.3558105750688867
 31
0.0
  0
LINE
  5
11AF0
  8
0
 10
3787.7128070213661886
 20
139.6510861655688984
 30
0.0
 11
3787.7128070213661886
 21
139.3558105750688867
 31
0.0
  0
LINE
  5
11AF1
  8
0
 10
3787.7357985690659916
 20
139.6510861655688984
 30
0.0
 11
3787.7357985690659916
 21
139.3558105750688867
 31
0.0
  0
LINE
  5
11AF2
  8
0
 10
3787.7617834759657853
 20
139.6510861655688984
 30
0.0
 11
3787.7617834759657853
 21
139.3558105750688867
 31
0.0
  0
LINE
  5
11AF3
  8
0
 10
3787.7909291057658265
 20
139.6510861655688984
 30
0.0
 11
3787.7909291057658265
 21
139.3558105750688867
 31
0.0
  0
LINE
  5
11AF4
  8
0
 10
3787.8229633335658946
 20
139.6510861655688984
 30
0.0
 11
3787.8229633335658946
 21
139.3558105750688867
 31
0.0
  0
LINE
  5
11AF5
  8
0
 10
3787.8575870644658607
 20
139.6510861655688984
 30
0.0
 11
3787.8575870644658607
 21
139.3558105750688867
 31
0.0
  0
LINE
  5
11AF6
  8
0
 10
3787.8690490659660099
 20
139.6510861655688984
 30
0.0
 11
3787.8690490659660099
 21
139.3558105750688867
 31
0.0
  0
LINE
  5
11AF7
  8
0
 10
3787.8944770259658981
 20
139.6510861655688984
 30
0.0
 11
3787.8944770259658981
 21
139.3558105750688867
 31
0.0
  0
LINE
  5
11AF8
  8
0
 10
3787.9080784323659827
 20
139.6510861655688984
 30
0.0
 11
3787.9080784323659827
 21
139.3558105750688867
 31
0.0
  0
LINE
  5
11AF9
  8
0
 10
3787.9332887864661643
 20
139.6510861655688984
 30
0.0
 11
3787.9332887864661643
 21
139.3558105750688867
 31
0.0
  0
LINE
  5
11AFA
  8
0
 10
3787.9489026051660403
 20
139.6510861655688984
 30
0.0
 11
3787.9489026051660403
 21
139.3558105750688867
 31
0.0
  0
LINE
  5
11AFB
  8
0
 10
3787.9736599709658549
 20
139.6510861655688984
 30
0.0
 11
3787.9736599709658549
 21
139.3558105750688867
 31
0.0
  0
LINE
  5
11AFC
  8
0
 10
3787.9911404199660865
 20
139.6510861655688984
 30
0.0
 11
3787.9911404199660865
 21
139.3558105750688867
 31
0.0
  0
LINE
  5
11AFD
  8
0
 10
3788.0152136446658915
 20
139.6510861655688984
 30
0.0
 11
3788.0152136446658915
 21
139.3558105750688867
 31
0.0
  0
LINE
  5
11AFE
  8
0
 10
3788.0343975136661356
 20
139.6510861655688984
 30
0.0
 11
3788.0343975136661356
 21
139.3558105750688867
 31
0.0
  0
LINE
  5
11AFF
  8
0
 10
3788.0575618320658577
 20
139.6510861655688984
 30
0.0
 11
3788.0575618320658577
 21
139.3558105750688867
 31
0.0
  0
LINE
  5
11B00
  8
0
 10
3788.0782700064660276
 20
139.6510861655688984
 30
0.0
 11
3788.0782700064660276
 21
139.3558105750688867
 31
0.0
  0
LINE
  5
11B01
  8
0
 10
3788.1003091395659794
 20
139.6510861655688984
 30
0.0
 11
3788.1003091395659794
 21
139.3558105750688867
 31
0.0
  0
LINE
  5
11B02
  8
0
 10
3788.1223482726659313
 20
139.6510861655688984
 30
0.0
 11
3788.1223482726659313
 21
139.3558105750688867
 31
0.0
  0
LINE
  5
11B03
  8
0
 10
3788.1430564470651916
 20
139.6510861655688984
 30
0.0
 11
3788.1430564470651916
 21
139.3558105750688867
 31
0.0
  0
LINE
  5
11B04
  8
0
 10
3788.1662207654658232
 20
139.6510861655688984
 30
0.0
 11
3788.1662207654658232
 21
139.3558105750688867
 31
0.0
  0
LINE
  5
11B05
  8
0
 10
3788.1854046344660674
 20
139.6510861655688984
 30
0.0
 11
3788.1854046344660674
 21
139.3558105750688867
 31
0.0
  0
LINE
  5
11B06
  8
0
 10
3788.2094778591658724
 20
139.6510861655688984
 30
0.0
 11
3788.2094778591658724
 21
139.3558105750688867
 31
0.0
  0
LINE
  5
11B07
  8
0
 10
3788.226958308166104
 20
139.6510861655688984
 30
0.0
 11
3788.226958308166104
 21
139.3558105750688867
 31
0.0
  0
LINE
  5
11B08
  8
0
 10
3788.2517156739659185
 20
139.6510861655688984
 30
0.0
 11
3788.2517156739659185
 21
139.3558105750688867
 31
0.0
  0
LINE
  5
11B09
  8
0
 10
3788.2673294926657945
 20
139.6510861655688984
 30
0.0
 11
3788.2673294926657945
 21
139.3558105750688867
 31
0.0
  0
LINE
  5
11B0A
  8
0
 10
3788.2925398467668856
 20
139.6510861655688984
 30
0.0
 11
3788.2925398467668856
 21
139.3558105750688867
 31
0.0
  0
LINE
  5
11B0B
  8
0
 10
3788.3061412531660608
 20
139.6510861655688984
 30
0.0
 11
3788.3061412531660608
 21
139.3558105750688867
 31
0.0
  0
LINE
  5
11B0C
  8
0
 10
3788.3315692131659489
 20
139.6510861655688984
 30
0.0
 11
3788.3315692131659489
 21
139.3558105750688867
 31
0.0
  0
LINE
  5
11B0D
  8
0
 10
3788.3430312146660981
 20
139.6510861655688984
 30
0.0
 11
3788.3430312146660981
 21
139.3558105750688867
 31
0.0
  0
LINE
  5
11B0E
  8
0
 10
3788.3776549455651548
 20
139.6510861655688984
 30
0.0
 11
3788.3776549455651548
 21
139.3558105750688867
 31
0.0
  0
LINE
  5
11B0F
  8
0
 10
3788.4096891733661323
 20
139.6510861655688984
 30
0.0
 11
3788.4096891733661323
 21
139.3558105750688867
 31
0.0
  0
LINE
  5
11B10
  8
0
 10
3788.4343484219662059
 20
139.6510861655688984
 30
0.0
 11
3788.4343484219662059
 21
139.3558105750688867
 31
0.0
  0
LINE
  5
11B11
  8
0
 10
3788.4541271939051512
 20
139.6510861655688984
 30
0.0
 11
3788.4541271939051512
 21
139.3558105750688867
 31
0.0
  0
LINE
  5
11B12
  8
0
 10
3788.487811257766225
 20
139.6510861655688984
 30
0.0
 11
3788.487811257766225
 21
139.3558105750688867
 31
0.0
  0
LINE
  5
11B13
  8
0
 10
3788.5092325640662239
 20
139.6510861655688984
 30
0.0
 11
3788.5092325640662239
 21
139.3558105750688867
 31
0.0
  0
LINE
  5
11B14
  8
0
 10
3788.5268358625658038
 20
139.6510861655688984
 30
0.0
 11
3788.5268358625658038
 21
139.3558105750688867
 31
0.0
  0
LINE
  5
11B15
  8
0
 10
3788.5404567958657935
 20
139.6510861655688984
 30
0.0
 11
3788.5404567958657935
 21
139.3558105750688867
 31
0.0
  0
LINE
  5
11B16
  8
0
 10
3788.5499681891660657
 20
139.6510861655688984
 30
0.0
 11
3788.5499681891660657
 21
139.3558105750688867
 31
0.0
  0
ARC
  5
11B17
  8
0
 10
3788.5312479208541845
 20
139.8754856269029005
 30
0.0
 40
0.0118414134244254
 50
0.0483252883699172
 51
86.6361360668878859
  0
LINE
  5
11B18
  8
0
 10
3788.5430893300658681
 20
139.8754956143689014
 30
0.0
 11
3788.5430893300658681
 21
139.6510861655688984
 31
0.0
  0
ARC
  5
11B19
  8
0
 10
3781.7718010433659401
 20
138.8411299762798876
 30
0.0
 40
6.6581757280321527
 50
351.802202315004422
 51
3.482520034801071
  0
ARC
  5
11B1A
  8
0
 10
3785.5260298576008609
 20
138.358542547053105
 30
0.0
 40
2.8740746338879579
 50
323.0642871491758115
 51
350.6525989140948241
  0
ARC
  5
11B1B
  8
0
 10
3796.6745815259491792
 20
125.6448871854771028
 30
0.0
 40
14.0217754271218897
 50
131.3189084253797034
 51
136.9066629534167134
  0
ARC
  5
11B1C
  8
0
 10
3788.5435782187751101
 20
133.4573182192860088
 30
0.0
 40
2.750901676312222
 50
140.0314179444063996
 51
155.1144977994659939
  0
ARC
  5
11B1D
  8
0
 10
3789.9260373677589087
 20
132.3640483707816884
 30
0.0
 40
5.1468441503855997
 50
129.8409929001497005
 51
144.5309645525422013
  0
ARC
  5
11B1E
  8
0
 10
3785.1169365607338477
 20
138.633409649142493
 30
0.0
 40
2.7284813234447691
 50
312.8005052048837911
 51
330.8152933077979014
  0
ARC
  5
11B1F
  8
0
 10
3785.0997043153947743
 20
138.504511615351305
 30
0.0
 40
2.683398502476265
 50
333.3984218485056203
 51
359.9154869737922127
  0
ARC
  5
11B20
  8
0
 10
3770.0051892613610107
 20
138.8056077989311916
 30
0.0
 40
17.7805276845676801
 50
359.0169481763870749
 51
1.417888171306728
  0
LINE
  5
11B21
  8
0
 10
3788.5494123089661116
 20
142.5841570316688944
 30
0.0
 11
3788.5668093469657833
 21
142.5841570316688944
 31
0.0
  0
LINE
  5
11B22
  8
0
 10
3788.5668093469657833
 20
142.5841570316688944
 30
0.0
 11
3788.5748692434099212
 21
142.5447869529689058
 31
0.0
  0
LINE
  5
11B23
  8
0
 10
3788.5750897136958883
 20
142.5428943679434042
 30
0.0
 11
3788.5668093469657833
 21
142.5054168742688887
 31
0.0
  0
LINE
  5
11B24
  8
0
 10
3788.5668093469657833
 20
142.5054168742688887
 30
0.0
 11
3788.5494123089661116
 21
142.5054168742688887
 31
0.0
  0
LINE
  5
11B25
  8
0
 10
3788.5494123089661116
 20
142.5054168742688887
 30
0.0
 11
3788.5407137899660484
 21
142.5447869529689058
 31
0.0
  0
LINE
  5
11B26
  8
0
 10
3788.5407137899660484
 20
142.5447869529689058
 30
0.0
 11
3788.5494123089661116
 21
142.5841570316688944
 31
0.0
  0
ARC
  5
11B27
  8
0
 10
3788.5523402876619912
 20
142.6082340835384912
 30
0.0
 40
0.0157379066483441
 50
23.3387530767708817
 51
73.321735324867916
  0
ARC
  5
11B28
  8
0
 10
3788.5548030196841864
 20
142.6164541249428055
 30
0.0
 40
0.0071568735107637
 50
73.321735324868385
 51
107.1288285871544019
  0
ARC
  5
11B29
  8
0
 10
3788.5590471001401056
 20
142.6026831839884039
 30
0.0
 40
0.0215669753038021
 50
107.1288285871549988
 51
135.3076374569166944
  0
ARC
  5
11B2A
  8
0
 10
3788.5826764551529777
 20
142.5793062217875047
 30
0.0
 40
0.0548059400894481
 50
135.3076374569178881
 51
164.716143357912614
  0
ARC
  5
11B2B
  8
0
 10
3788.6732188765568026
 20
142.5448195761356942
 30
0.0
 40
0.1515285878017994
 50
161.1596147700483073
 51
185.926058113552898
  0
ARC
  5
11B2C
  8
0
 10
3788.6447669820981901
 20
142.5389404217696097
 30
0.0
 40
0.1226562782546696
 50
184.5664936745212117
 51
207.8368319833282101
  0
ARC
  5
11B2D
  8
0
 10
3788.5807333577859026
 20
142.5073514795946892
 30
0.0
 40
0.0513196643025469
 50
210.0337961321496039
 51
225.8346586884148905
  0
ARC
  5
11B2E
  8
0
 10
3788.5566542057908919
 20
142.4825603574523996
 30
0.0
 40
0.0167594950626075
 50
225.8346586884183012
 51
255.7941355029965109
  0
ARC
  5
11B2F
  8
0
 10
3788.5548728852941167
 20
142.4755236760717025
 30
0.0
 40
0.0095008459069302
 50
255.7941355029701072
 51
302.5905838745277947
  0
ARC
  5
11B30
  8
0
 10
3788.548978229273871
 20
142.4847442309950907
 30
0.0
 40
0.0204445931024095
 50
302.5905838745277947
 51
341.1851713598172751
  0
ARC
  5
11B31
  8
0
 10
3788.4223442673078353
 20
142.5371221860891069
 30
0.0
 40
0.1574471024558214
 50
338.0035981962714118
 51
352.0887116215798756
  0
LINE
  5
11B32
  8
0
 10
3790.3836405111660497
 20
141.8459680553688997
 30
0.0
 11
3789.2223148371867865
 21
141.8459680205750999
 31
0.0
  0
LINE
  5
11B33
  8
0
 10
3788.6610628675698536
 20
141.8459680037597082
 30
0.0
 11
3788.651357070065842
 21
141.8459680034688972
 31
0.0
  0
ARC
  5
11B34
  8
0
 10
3788.6513570682959653
 20
141.9050231432995872
 30
0.0
 40
0.0590551398306865
 50
179.9999705354439925
 51
270.0000017166145199
  0
LINE
  5
11B35
  8
0
 10
3788.5923019284659858
 20
141.9050231736688943
 30
0.0
 11
3788.5923021812500338
 21
142.3965791800673912
 31
0.0
  0
ARC
  5
11B36
  8
0
 10
3788.7942894073871685
 20
141.192121006484598
 30
0.0
 40
0.2383845389510693
 50
258.7863110401319204
 51
266.5570018394075191
  0
ARC
  5
11B37
  8
0
 10
3788.7583217892138236
 20
141.0106987621635994
 30
0.0
 40
0.0534313008298793
 50
237.8871380766433106
 51
258.7863110401319204
  0
ARC
  5
11B38
  8
0
 10
3788.7360829409240068
 20
140.9752646728632897
 30
0.0
 40
0.0115966135736573
 50
140.7509270009477973
 51
237.8871380766414916
  0
ARC
  5
11B39
  8
0
 10
3788.7594048635792205
 20
140.9562104920210004
 30
0.0
 40
0.0417126206785566
 50
112.9101183931406069
 51
140.7509270009466036
  0
ARC
  5
11B3A
  8
0
 10
3788.7822589971951857
 20
140.9110197467794023
 30
0.0
 40
0.0923002211991456
 50
102.9904015086416962
 51
115.0579172969115973
  0
ARC
  5
11B3B
  8
0
 10
3788.780045614772007
 20
140.932447223818798
 30
0.0
 40
0.0709734409380815
 50
95.5868586168579242
 51
105.1382004124362055
  0
ARC
  5
11B3C
  8
0
 10
3792.3558253024139049
 20
144.8505745626412988
 30
0.0
 40
5.386289104895388
 50
223.8600847582360984
 51
226.5470330499514091
  0
ARC
  5
11B3D
  8
0
 10
3789.3018691058950935
 20
141.915781889697314
 30
0.0
 40
1.1507659396389951
 50
212.6611079077665067
 51
223.8600847582360984
  0
ARC
  5
11B3E
  8
0
 10
3788.4838566501371133
 20
141.391410999112793
 30
0.0
 40
0.1791131165242372
 50
179.4238435221201087
 51
212.6611079077665067
  0
ARC
  5
11B3F
  8
0
 10
3788.5041646171757748
 20
141.3912067788147908
 30
0.0
 40
0.1994221103743541
 50
144.447265671801091
 51
179.4238435221184034
  0
ARC
  5
11B40
  8
0
 10
3789.7761757521661821
 20
140.4821224906800978
 30
0.0
 40
1.76289471022155
 50
132.779745563377702
 51
144.447265671801091
  0
ARC
  5
11B41
  8
0
 10
3787.0019664745627779
 20
143.4801211840025985
 30
0.0
 40
2.3217390899012949
 50
312.7797455633776735
 51
315.2633941446118229
  0
LINE
  5
11B42
  8
0
 10
3790.7773412985661707
 20
140.1530546694689008
 30
0.0
 11
3790.7773412985661707
 21
142.6333593575689065
 31
0.0
  0
LINE
  5
11B43
  8
0
 10
3790.7773412985661707
 20
142.6333593575689065
 30
0.0
 11
3790.4028102563079301
 21
142.6235621896699968
 31
0.0
  0
ARC
  5
11B44
  8
0
 10
3790.4033249967969823
 20
142.6038844323786918
 30
0.0
 40
0.0196844885579092
 50
91.4984295729829569
 51
180.0312426863031874
  0
LINE
  5
11B45
  8
0
 10
3790.3836405111660497
 20
142.6038736986689059
 30
0.0
 11
3790.3836405111660497
 21
140.1825404037689111
 31
0.0
  0
ARC
  5
11B46
  8
0
 10
3790.4033255527219808
 20
140.1825404086987987
 30
0.0
 40
0.0196850443846872
 50
179.9692863671967018
 51
268.4999941013019793
  0
LINE
  5
11B47
  8
0
 10
3790.4028102563070206
 20
140.1628621099403063
 30
0.0
 11
3790.7773412985661707
 21
140.1530546694689008
 31
0.0
  0
LINE
  5
11B48
  8
0
 10
3790.3836405111660497
 20
140.9404562442688871
 30
0.0
 11
3789.950569691380224
 21
140.9404562442688871
 31
0.0
  0
ARC
  5
11B49
  8
0
 10
3789.950569691380224
 20
140.8814010798558911
 30
0.0
 40
0.0590551644130351
 50
90.0
 51
179.9999550667355948
  0
LINE
  5
11B4A
  8
0
 10
3789.891514526966148
 20
140.8814011261688961
 30
0.0
 11
3789.8915145115279302
 21
140.8617160868689098
 31
0.0
  0
LINE
  5
11B4B
  8
0
 10
3789.8915145115279302
 20
140.8617160868689098
 30
0.0
 11
3789.3581086537210467
 21
140.8617160868689098
 31
0.0
  0
ARC
  5
11B4C
  8
0
 10
3789.8757664952959203
 20
140.8499050630981912
 30
0.0
 40
0.0118110237707203
 50
0.0000003430414986
 51
89.9999991718124761
  0
LINE
  5
11B4D
  8
0
 10
3789.8875775190658715
 20
140.8499050631689045
 30
0.0
 11
3789.8875775196788709
 21
140.7475428584689041
 31
0.0
  0
LINE
  5
11B4E
  8
0
 10
3789.8875775190658715
 20
140.4522672679688924
 30
0.0
 11
3789.8875775190658715
 21
140.3715586065688967
 31
0.0
  0
ARC
  5
11B4F
  8
0
 10
3789.858049959966138
 20
140.3715586065688967
 30
0.0
 40
0.0295275590999964
 50
269.9999999999739089
 51
359.9999999999935199
  0
LINE
  5
11B50
  8
0
 10
3789.858049959966138
 20
140.3420310474689074
 30
0.0
 11
3789.4280932193992157
 21
140.3420310474691064
 31
0.0
  0
LINE
  5
11B51
  8
0
 10
3789.7340342119659908
 20
140.3420310474689074
 30
0.0
 11
3789.7340303453661363
 21
139.6786452206688978
 31
0.0
  0
LINE
  5
11B52
  8
0
 10
3789.7340303453661363
 20
139.6786452206688978
 30
0.0
 11
3789.5162638547922143
 21
139.6786452206688978
 31
0.0
  0
LINE
  5
11B53
  8
0
 10
3789.7198108456659611
 20
139.6786452206688978
 30
0.0
 11
3789.7198108456659611
 21
138.0384534624365074
 31
0.0
  0
LINE
  5
11B54
  8
0
 10
3789.8993815848662052
 20
140.7475428584689041
 30
0.0
 11
3789.8993815848662052
 21
140.4522672679688924
 31
0.0
  0
LINE
  5
11B55
  8
0
 10
3789.8993815848662052
 20
140.4522672679688924
 30
0.0
 11
3789.413348852262061
 21
140.4522672679688924
 31
0.0
  0
LINE
  5
11B56
  8
0
 10
3789.8993815848662052
 20
140.7475428584689041
 30
0.0
 11
3789.3735875098341239
 21
140.7475428584689041
 31
0.0
  0
LINE
  5
11B57
  8
0
 10
3789.897475580666196
 20
140.7475428584689041
 30
0.0
 11
3789.897475580666196
 21
140.4522672679688924
 31
0.0
  0
LINE
  5
11B58
  8
0
 10
3789.8909421401967847
 20
140.7475428584689041
 30
0.0
 11
3789.8909421401967847
 21
140.4522672679688924
 31
0.0
  0
LINE
  5
11B59
  8
0
 10
3789.879907947762149
 20
140.7475428584689041
 30
0.0
 11
3789.879907947762149
 21
140.4522672679688924
 31
0.0
  0
LINE
  5
11B5A
  8
0
 10
3789.8664051286400536
 20
140.7475428584689041
 30
0.0
 11
3789.8664051286400536
 21
140.4522672679688924
 31
0.0
  0
LINE
  5
11B5B
  8
0
 10
3789.8484021207809747
 20
140.7475428584689041
 30
0.0
 11
3789.8484021207809747
 21
140.4522672679688924
 31
0.0
  0
LINE
  5
11B5C
  8
0
 10
3789.8231391088129385
 20
140.7475428584689041
 30
0.0
 11
3789.8231391088129385
 21
140.4522672679688924
 31
0.0
  0
LINE
  5
11B5D
  8
0
 10
3789.7971506596632025
 20
140.7475428584689041
 30
0.0
 11
3789.7971506596632025
 21
140.4522672679688924
 31
0.0
  0
LINE
  5
11B5E
  8
0
 10
3789.7749369620669313
 20
140.7475428584689041
 30
0.0
 11
3789.7749369620669313
 21
140.4522672679688924
 31
0.0
  0
LINE
  5
11B5F
  8
0
 10
3789.7441413651217772
 20
140.7475428584689041
 30
0.0
 11
3789.7441413651217772
 21
140.4522672679688924
 31
0.0
  0
LINE
  5
11B60
  8
0
 10
3789.7113385263701275
 20
140.7475428584689041
 30
0.0
 11
3789.7113385263701275
 21
140.4522672679688924
 31
0.0
  0
LINE
  5
11B61
  8
0
 10
3789.6743569677701089
 20
140.7475428584689041
 30
0.0
 11
3789.6743569677701089
 21
140.4522672679688924
 31
0.0
  0
LINE
  5
11B62
  8
0
 10
3789.662836077844986
 20
140.7475428584689041
 30
0.0
 11
3789.662836077844986
 21
140.4522672679688924
 31
0.0
  0
LINE
  5
11B63
  8
0
 10
3789.6349728104701171
 20
140.7475428584689041
 30
0.0
 11
3789.6349728104701171
 21
140.4522672679688924
 31
0.0
  0
LINE
  5
11B64
  8
0
 10
3789.6235289850060326
 20
140.7475428584689041
 30
0.0
 11
3789.6235289850060326
 21
140.4522672679688924
 31
0.0
  0
LINE
  5
11B65
  8
0
 10
3789.6014605722689339
 20
140.7475428584689041
 30
0.0
 11
3789.6014605722689339
 21
140.4522672679688924
 31
0.0
  0
LINE
  5
11B66
  8
0
 10
3789.5824122418021034
 20
140.7475428584689041
 30
0.0
 11
3789.5824122418021034
 21
140.4522672679688924
 31
0.0
  0
LINE
  5
11B67
  8
0
 10
3789.5570281393688674
 20
140.7475428584689041
 30
0.0
 11
3789.5570281393688674
 21
140.4522672679688924
 31
0.0
  0
LINE
  5
11B68
  8
0
 10
3789.5361216930950832
 20
140.7475428584689041
 30
0.0
 11
3789.5361216930950832
 21
140.4522672679688924
 31
0.0
  0
LINE
  5
11B69
  8
0
 10
3789.5164098526151975
 20
140.7475428584689041
 30
0.0
 11
3789.5164098526151975
 21
140.4522672679688924
 31
0.0
  0
LINE
  5
11B6A
  8
0
 10
3789.4949058218289792
 20
140.7475428584689041
 30
0.0
 11
3789.4949058218289792
 21
140.4522672679688924
 31
0.0
  0
LINE
  5
11B6B
  8
0
 10
3789.4734017910418515
 20
140.7475428584689041
 30
0.0
 11
3789.4734017910418515
 21
140.4522672679688924
 31
0.0
  0
LINE
  5
11B6C
  8
0
 10
3789.4465217525580556
 20
140.7475428584689041
 30
0.0
 11
3789.4465217525580556
 21
140.4522672679688924
 31
0.0
  0
LINE
  5
11B6D
  8
0
 10
3789.4286021023867761
 20
140.7475428584689041
 30
0.0
 11
3789.4286021023867761
 21
140.4522672679688924
 31
0.0
  0
LINE
  5
11B6E
  8
0
 10
3789.4082926773971849
 20
140.7475428584689041
 30
0.0
 11
3789.4082926773971849
 21
140.4899765749788116
 31
0.0
  0
LINE
  5
11B6F
  8
0
 10
3789.386191062098078
 20
140.7475428584689041
 30
0.0
 11
3789.386191062098078
 21
140.6542590545444114
 31
0.0
  0
LINE
  5
11B70
  8
0
 10
3788.5923019284659858
 20
160.9192977517654981
 30
0.0
 11
3788.5923019284659858
 21
155.5959680553688997
 31
0.0
  0
LINE
  5
11B71
  8
0
 10
3788.5923019284659858
 20
154.4936058505689118
 30
0.0
 11
3788.5923019284659858
 21
152.1989488234833061
 31
0.0
  0
LINE
  5
11B72
  8
0
 10
3783.9860028421658171
 20
156.2849444332688904
 30
0.0
 11
3787.1356090150661657
 21
156.2849444332688904
 31
0.0
  0
ARC
  5
11B73
  8
0
 10
3787.1356090150661657
 20
156.0880940395688867
 30
0.0
 40
0.1968503936999957
 50
359.9999999999984084
 51
90.0
  0
LINE
  5
11B74
  8
0
 10
3787.3324594087662263
 20
156.0880940395688867
 30
0.0
 11
3787.3324594087662263
 21
155.7423613628282908
 31
0.0
  0
ARC
  5
11B75
  8
0
 10
3783.9860027158501907
 20
156.4030546694687871
 30
0.0
 40
0.1181102362000166
 50
89.999999992470066
 51
270.0000612762111132
  0
LINE
  5
11B76
  8
0
 10
3783.9860027158661069
 20
156.5211649056689112
 30
0.0
 11
3787.1356090150661657
 21
156.5211649056689112
 31
0.0
  0
ARC
  5
11B77
  8
0
 10
3787.1356090169310846
 20
156.0880940413337044
 30
0.0
 40
0.43307086433515
 50
359.9999997665120759
 51
90.0000002467157856
  0
LINE
  5
11B78
  8
0
 10
3787.5686798812657798
 20
156.0880940395688867
 30
0.0
 11
3787.5686798804317732
 21
155.7423507581233082
 31
0.0
  0
ARC
  5
11B79
  8
0
 10
3787.5665347227750317
 20
155.7188796630543095
 30
0.0
 40
0.0235689203972087
 50
77.5655202230158238
 51
84.777916977483514
  0
ARC
  5
11B7A
  8
0
 10
3787.5706577775408732
 20
155.7375787295596865
 30
0.0
 40
0.0044206915293015
 50
68.5272095587606458
 51
77.5655202229889653
  0
ARC
  5
11B7B
  8
0
 10
3787.5718474628770309
 20
155.740603132915794
 30
0.0
 40
0.0011707120126972
 50
56.6574590363682091
 51
68.5272095586759775
  0
ARC
  5
11B7C
  8
0
 10
3787.5722838610258805
 20
155.741266411871095
 30
0.0
 40
0.0003767458191489
 50
31.2217894668237115
 51
56.6574590364296427
  0
ARC
  5
11B7D
  8
0
 10
3787.5724815334201594
 20
155.7414032046866055
 30
0.0
 40
0.0001375641111048
 50
314.7027102818212825
 51
25.1642314296210401
  0
ARC
  5
11B7E
  8
0
 10
3787.5706152619150089
 20
155.744647963529502
 30
0.0
 40
0.0038763458078556
 50
277.3420289026549881
 51
300.4252997949412247
  0
ARC
  5
11B7F
  8
0
 10
3787.4669493478158984
 20
157.3484284059848903
 30
0.0
 40
1.61099588213759
 50
269.4178733799041083
 51
273.7071278990028986
  0
ARC
  5
11B80
  8
0
 10
3787.4452893057641631
 20
158.50865095752971
 30
0.0
 40
2.771140340062769
 50
268.1955813920652076
 51
270.1094284977147026
  0
ARC
  5
11B81
  8
0
 10
3787.3779845200319869
 20
156.3244367637113044
 30
0.0
 40
0.585891871636086
 50
266.1296238088522728
 51
268.0484255722399212
  0
ARC
  5
11B82
  8
0
 10
3787.3464032253850746
 20
155.8577749419567908
 30
0.0
 40
0.1181626405916881
 50
262.7850012194538181
 51
266.134401501037928
  0
ARC
  5
11B83
  8
0
 10
3787.3347115185702023
 20
155.7644832743561096
 30
0.0
 40
0.0241415604601041
 50
258.012620174957874
 51
262.5057905066715875
  0
ARC
  5
11B84
  8
0
 10
3787.3307483038161081
 20
155.7459611879897921
 30
0.0
 40
0.0052003190637951
 50
248.3091062856207998
 51
258.3412018615297825
  0
ARC
  5
11B85
  8
0
 10
3787.3293171177388103
 20
155.7421901920436085
 30
0.0
 40
0.0011691254552888
 50
231.1412483146062016
 51
245.1754358692487017
  0
ARC
  5
11B86
  8
0
 10
3787.3286790677120734
 20
155.7413982820872036
 30
0.0
 40
0.0001521548486063
 50
133.1249883024838141
 51
231.1412483142379131
  0
ARC
  5
11B87
  8
0
 10
3787.3306833474189261
 20
155.7377039373386083
 30
0.0
 40
0.0043503954564352
 50
97.0824207992308743
 51
118.9876228202661963
  0
ARC
  5
11B88
  8
0
 10
3787.336503483620163
 20
155.7068456137021997
 30
0.0
 40
0.0357452511169134
 50
96.4961242340334024
 51
100.2433057162449046
  0
LINE
  5
11B89
  8
0
 10
3788.7104121647657848
 20
155.5959680553688997
 30
0.0
 11
3788.7104121647657848
 21
154.4936058505689118
 31
0.0
  0
LINE
  5
11B8A
  8
0
 10
3788.7104121647657848
 20
154.4936058505689118
 30
0.0
 11
3787.3993885426662018
 21
154.4936058505689118
 31
0.0
  0
LINE
  5
11B8B
  8
0
 10
3787.3993885426662018
 20
154.4739208112688971
 30
0.0
 11
3787.0332468103661085
 21
154.4739208112688971
 31
0.0
  0
LINE
  5
11B8C
  8
0
 10
3787.0332468103661085
 20
154.4739208112688971
 30
0.0
 11
3787.0332468103661085
 21
154.8873066379688908
 31
0.0
  0
ARC
  5
11B8D
  8
0
 10
3786.3245853930661724
 20
154.8873066379688908
 30
0.0
 40
0.7086614173000001
 50
0.0000000000016284
 51
53.6639424971288577
  0
LINE
  5
11B8E
  8
0
 10
3787.6867901174659892
 20
155.458172779768887
 30
0.0
 11
3783.749782243466143
 21
155.458172779768887
 31
0.0
  0
LINE
  5
11B8F
  8
0
 10
3783.749782243466143
 20
155.458172779768887
 30
0.0
 11
3783.749782243466143
 21
155.760027731668913
 31
0.0
  0
ARC
  5
11B90
  8
0
 10
3783.789501672184997
 20
155.7598832577334065
 30
0.0
 40
0.0397196914699689
 50
90.5039449953814454
 51
179.7915954354672863
  0
LINE
  5
11B91
  8
0
 10
3783.7891523221660464
 20
155.7996014128395927
 30
0.0
 11
3787.3324594087662263
 21
155.7996014128395927
 31
0.0
  0
ARC
  5
11B92
  8
0
 10
3787.6462038212889638
 20
155.7590302110932896
 30
0.0
 40
0.0405894271465745
 50
0.7116613690504905
 51
88.2829380706112659
  0
LINE
  5
11B93
  8
0
 10
3787.6867901174659892
 20
155.7595343526689078
 30
0.0
 11
3787.6867901174659892
 21
155.458172779768887
 31
0.0
  0
LINE
  5
11B94
  8
0
 10
3787.5686798812657798
 20
155.7996014128395927
 30
0.0
 11
3787.608049959966138
 21
155.7996014128395927
 31
0.0
  0
ARC
  5
11B95
  8
0
 10
3787.6277349993661119
 20
2723.04422401080501
 30
0.0
 40
2567.2446226734359698
 50
269.999560669180994
 51
270.0004393308188924
  0
LINE
  5
11B96
  8
0
 10
3788.7104121647657848
 20
155.5959680553688997
 30
0.0
 11
3787.6867901174659892
 21
155.5959680553688997
 31
0.0
  0
LINE
  5
11B97
  8
0
 10
3787.3993885426662018
 20
154.4739208112688971
 30
0.0
 11
3787.3993885426662018
 21
155.458172779768887
 31
0.0
  0
LINE
  5
11B98
  8
0
 10
3787.4190735820661757
 20
155.458172779768887
 30
0.0
 11
3787.4190735820661757
 21
154.4936058505689118
 31
0.0
  0
LINE
  5
11B99
  8
0
 10
3787.3993885426662018
 20
155.4383423421689088
 30
0.0
 11
3787.4190735820661757
 21
155.4383423421689088
 31
0.0
  0
LINE
  5
11B9A
  8
0
 10
3783.749782243466143
 20
155.6956774074467091
 30
0.0
 11
3787.6867901174659892
 21
155.6956774074467091
 31
0.0
  0
ARC
  5
11B9B
  8
0
 10
3797.9138742937589086
 20
131.7224689013567058
 30
0.0
 40
12.9516268091887206
 50
174.2558519338736005
 51
176.9773126454383032
  0
ARC
  5
11B9C
  8
0
 10
3807.1851817439451224
 20
131.2328989564935
 30
0.0
 40
22.2358510937895097
 50
176.9773126454383032
 51
185.6503511223164082
  0
ARC
  5
11B9D
  8
0
 10
2548.8788408488999266
 20
6.7383653391874239
 30
0.0
 40
1242.2141227831000379
 50
5.5008911400640521
 51
5.6503511223163878
  0
LINE
  5
11B9E
  8
0
 10
3786.0094489109151255
 20
131.971488685568886
 30
0.0
 11
3785.9947389526660118
 21
127.8789415093189064
 31
0.0
  0
ARC
  5
11B9F
  8
0
 10
3883.3253758905739232
 20
127.5291032437920933
 30
0.0
 40
97.331265652671334
 50
179.7940610434748976
 51
180.9190653230556052
  0
ARC
  5
11BA0
  8
0
 10
3600.8322355200998572
 20
112.8384227083517004
 30
0.0
 40
185.6392749867017926
 50
3.8210856452298372
 51
4.0556752254195851
  0
ARC
  5
11BA1
  8
0
 10
3784.2009967936169232
 20
125.084301122621298
 30
0.0
 40
1.8620620472393481
 50
356.796934766842412
 51
3.8592446174295101
  0
ARC
  5
11BA2
  8
0
 10
3785.7280384752648388
 20
125.0169328911824067
 30
0.0
 40
0.3341302058592275
 50
304.1395322156628254
 51
353.6984838366789177
  0
ARC
  5
11BA3
  8
0
 10
3785.6985368184600702
 20
125.0882818607129963
 30
0.0
 40
0.4100382506284194
 50
277.4620785176105073
 51
301.9558139155034837
  0
ARC
  5
11BA4
  8
0
 10
3785.7688558006620951
 20
125.0484883972863059
 30
0.0
 40
0.3671690765983449
 50
221.4735617731653008
 51
267.3357280562582901
  0
ARC
  5
11BA5
  8
0
 10
3785.8061671597088207
 20
125.0403957548373057
 30
0.0
 40
0.3909784726182193
 50
187.1230509017943007
 51
216.9591493109448095
  0
ARC
  5
11BA6
  8
0
 10
3796.1251889584118544
 20
126.0027796930157962
 30
0.0
 40
10.7545628515188305
 50
180.9815764014051922
 51
185.3955856181412116
  0
ARC
  5
11BA7
  8
0
 10
3905.7654210618220532
 20
127.8812914324916932
 30
0.0
 40
120.4108864359121043
 50
179.4152041925158869
 51
180.9815764014051922
  0
ARC
  5
11BA8
  8
0
 10
3630.3657830156871569
 20
130.6922863759299958
 30
0.0
 40
155.0030971025319957
 50
359.4152041925158869
 51
0.0611503231699754
  0
LINE
  5
11BA9
  8
0
 10
3785.3687918381660893
 20
130.857717194068897
 30
0.0
 11
3785.3716488135660256
 21
131.9714964721688943
 31
0.0
  0
ARC
  5
11BAB
  8
0
 10
3788.9408713012057888
 20
133.2196656458675932
 30
0.0
 40
1.3957345496919411
 50
88.4703209699636801
 51
104.1244630160096989
  0
ARC
  5
11BAC
  8
0
 10
3788.8260266497718476
 20
133.6760565606963098
 30
0.0
 40
0.9251158493609153
 50
104.1244630160096989
 51
138.2312136575723116
  0
ARC
  5
11BAD
  8
0
 10
3788.7668374356549066
 20
133.7289198315517922
 30
0.0
 40
0.8457566125116841
 50
138.2312136575723116
 51
151.0971324580434043
  0
ARC
  5
11BAE
  8
0
 10
3788.0741464960919984
 20
134.1113510075205966
 30
0.0
 40
0.0545080156050942
 50
151.0971324580449107
 51
193.889812906493205
  0
ARC
  5
11BAF
  8
0
 10
3789.003424356530104
 20
134.3411486927425074
 30
0.0
 40
1.0117772139153871
 50
193.889812906493205
 51
216.6171903993397905
  0
ARC
  5
11BB0
  8
0
 10
3788.7879022122169772
 20
134.1809874724889937
 30
0.0
 40
0.743260154564501
 50
216.6171903993397905
 51
251.0189108118360934
  0
ARC
  5
11BB1
  8
0
 10
3788.7202555846902214
 20
133.9843165545049999
 30
0.0
 40
0.5352805493231659
 50
251.0189108118360934
 51
265.1368789020961003
  0
ARC
  5
11BB2
  8
0
 10
3789.0178744698378068
 20
137.4823452222038043
 30
0.0
 40
4.0459473749902912
 50
265.1368789020961003
 51
269.4371525551509876
  0
ARC
  5
11BB3
  8
0
 10
3789.1090089422150413
 20
148.0604818710700954
 30
0.0
 40
14.6244744580511998
 50
269.4872338644452725
 51
270.5669580111261894
  0
ENDSEC
  0
EOF
