  0
SECTION
  2
HEADER
  9
$ACADVER
  1
AC1009
  9
$INSBASE
 10
8614.9051946013914858
 20
2270.0087308063330056
 30
0.0
  9
$EXTMIN
 10
8607.5203060922685836
 20
2269.8620396961928236
 30
-0.0000000349181948
  9
$EXTMAX
 10
8622.6505229302347288
 20
2298.62199357279178
 30
0.0000000814935746
  9
$LIMMIN
 10
0.0
 20
0.0
  9
$LIMMAX
 10
11.6929133858000007
 20
8.2677165353999982
  9
$ORTHOMODE
 70
     0
  9
$REGENMODE
 70
     1
  9
$FILLMODE
 70
     1
  9
$QTEXTMODE
 70
     0
  9
$MIRRTEXT
 70
     0
  9
$DRAGMODE
 70
     2
  9
$LTSCALE
 40
0.6431102362
  9
$OSMODE
 70
  4063
  9
$ATTMODE
 70
     1
  9
$TEXTSIZE
 40
0.2
  9
$TRACEWID
 40
0.05
  9
$TEXTSTYLE
  7
STANDARD
  9
$CLAYER
  8
0
  9
$CELTYPE
  6
BYLAYER
  9
$CECOLOR
 62
     1
  9
$DIMSCALE
 40
1.0
  9
$DIMASZ
 40
0.1875
  9
$DIMEXO
 40
0.0625
  9
$DIMDLI
 40
0.4443307087
  9
$DIMRND
 40
0.0
  9
$DIMDLE
 40
0.0
  9
$DIMEXE
 40
0.125
  9
$DIMTP
 40
0.01
  9
$DIMTM
 40
0.01
  9
$DIMTXT
 40
2.0
  9
$DIMCEN
 40
0.1052362205
  9
$DIMTSZ
 40
0.0
  9
$DIMTOL
 70
     1
  9
$DIMLIM
 70
     0
  9
$DIMTIH
 70
     1
  9
$DIMTOH
 70
     1
  9
$DIMSE1
 70
     0
  9
$DIMSE2
 70
     0
  9
$DIMTAD
 70
     0
  9
$DIMZIN
 70
     0
  9
$DIMBLK
  1

  9
$DIMASO
 70
     1
  9
$DIMSHO
 70
     1
  9
$DIMPOST
  1
\X
  9
$DIMAPOST
  1

  9
$DIMALT
 70
     1
  9
$DIMALTD
 70
     2
  9
$DIMALTF
 40
25.3999999999999986
  9
$DIMLFAC
 40
1.0
  9
$DIMTOFL
 70
     0
  9
$DIMTVP
 40
0.0
  9
$DIMTIX
 70
     0
  9
$DIMSOXD
 70
     0
  9
$DIMSAH
 70
     0
  9
$DIMBLK1
  1

  9
$DIMBLK2
  1

  9
$DIMSTYLE
  2
STANDARD
  9
$DIMCLRD
 70
     0
  9
$DIMCLRE
 70
     0
  9
$DIMCLRT
 70
     0
  9
$DIMTFAC
 40
1.0
  9
$DIMGAP
 40
0.09
  9
$LUNITS
 70
     2
  9
$LUPREC
 70
     4
  9
$SKETCHINC
 40
0.1
  9
$FILLETRAD
 40
0.0
  9
$AUNITS
 70
     0
  9
$AUPREC
 70
     0
  9
$MENU
  1
.
  9
$ELEVATION
 40
0.0
  9
$PELEVATION
 40
0.0
  9
$THICKNESS
 40
0.0
  9
$LIMCHECK
 70
     0
  9
$BLIPMODE
 70
     0
  9
$CHAMFERA
 40
0.0
  9
$CHAMFERB
 40
0.0
  9
$SKPOLY
 70
     0
  9
$TDCREATE
 40
2458060.468368056230247
  9
$TDUPDATE
 40
2459433.9141782410442829
  9
$TDINDWG
 40
0.4788380787
  9
$TDUSRTIMER
 40
0.4788380787
  9
$USRTIMER
 70
     1
  9
$ANGBASE
 50
0.0
  9
$ANGDIR
 70
     0
  9
$PDMODE
 70
     0
  9
$PDSIZE
 40
0.3125
  9
$PLINEWID
 40
0.0
  9
$COORDS
 70
     1
  9
$SPLFRAME
 70
     0
  9
$SPLINETYPE
 70
     6
  9
$SPLINESEGS
 70
     8
  9
$ATTDIA
 70
     1
  9
$ATTREQ
 70
     1
  9
$HANDLING
 70
     1
  9
$HANDSEED
  5
11A23
  9
$SURFTAB1
 70
     6
  9
$SURFTAB2
 70
     6
  9
$SURFTYPE
 70
     6
  9
$SURFU
 70
     6
  9
$SURFV
 70
     6
  9
$UCSNAME
  2

  9
$UCSORG
 10
0.0
 20
0.0
 30
0.0
  9
$UCSXDIR
 10
1.0
 20
0.0
 30
0.0
  9
$UCSYDIR
 10
0.0
 20
1.0
 30
0.0
  9
$PUCSNAME
  2

  9
$PUCSORG
 10
0.0
 20
0.0
 30
0.0
  9
$PUCSXDIR
 10
1.0
 20
0.0
 30
0.0
  9
$PUCSYDIR
 10
0.0
 20
1.0
 30
0.0
  9
$USERI1
 70
     0
  9
$USERI2
 70
     0
  9
$USERI3
 70
     0
  9
$USERI4
 70
     0
  9
$USERI5
 70
     0
  9
$USERR1
 40
0.0
  9
$USERR2
 40
0.0
  9
$USERR3
 40
0.0
  9
$USERR4
 40
0.0
  9
$USERR5
 40
0.0
  9
$WORLDVIEW
 70
     1
  9
$SHADEDGE
 70
     3
  9
$SHADEDIF
 70
    70
  9
$TILEMODE
 70
     1
  9
$MAXACTVP
 70
    64
  9
$PLIMCHECK
 70
     0
  9
$PEXTMIN
 10
1.0000000000000000E+20
 20
1.0000000000000000E+20
 30
1.0000000000000000E+20
  9
$PEXTMAX
 10
-1.0000000000000000E+20
 20
-1.0000000000000000E+20
 30
-1.0000000000000000E+20
  9
$PLIMMIN
 10
0.0
 20
0.0
  9
$PLIMMAX
 10
12.0
 20
9.0
  9
$UNITMODE
 70
     0
  9
$VISRETAIN
 70
     1
  9
$PLINEGEN
 70
     0
  9
$PSLTSCALE
 70
     1
  0
ENDSEC
  0
SECTION
  2
TABLES
  0
TABLE
  2
VPORT
 70
     1
  0
VPORT
  2
*ACTIVE
 70
     0
 10
0.0
 20
0.0
 11
1.0
 21
1.0
 12
3799.787074667502111
 22
2036.4333923669150863
 13
0.0
 23
0.0
 14
1.0
 24
1.0
 15
0.0
 25
0.0
 16
0.0
 26
0.0
 36
9.5192988075487186
 17
4815.2983398437490905
 27
247.8086242675780966
 37
0.0
 40
28.9922181375320704
 41
2.0798479087452471
 42
50.0
 43
0.0
 44
0.0
 50
0.0
 51
0.0
 71
     0
 72
   100
 73
     1
 74
     1
 75
     0
 76
     0
 77
     0
 78
     0
  0
ENDTAB
  0
TABLE
  2
LTYPE
 70
     2
  0
LTYPE
  2
CONTINUOUS
 70
     0
  3
Solid line
 72
    65
 73
     0
 40
0.0
  0
LTYPE
  2
PHANTOM2
 70
     0
  3
___ _ _ ___ _ _ ___ _ _ ___ _ _
 72
    65
 73
     6
 40
1.25
 49
0.625
 49
-0.125
 49
0.125
 49
-0.125
 49
0.125
 49
-0.125
  0
ENDTAB
  0
TABLE
  2
LAYER
 70
     2
  0
LAYER
  2
0
 70
     0
 62
   255
  6
CONTINUOUS
  0
LAYER
  2
DEFPOINTS
 70
     0
 62
     7
  6
CONTINUOUS
  0
ENDTAB
  0
TABLE
  2
STYLE
 70
     1
  0
STYLE
  2
STANDARD
 70
     0
 40
0.0
 41
0.8
 50
0.0
 71
     0
 42
0.2
  3
txt
  4

  0
ENDTAB
  0
TABLE
  2
VIEW
 70
     0
  0
ENDTAB
  0
TABLE
  2
UCS
 70
     0
  0
ENDTAB
  0
TABLE
  2
APPID
 70
    10
  0
APPID
  2
ACAD
 70
     0
  0
APPID
  2
ACAD_MLEADERVER
 70
     0
  0
APPID
  2
ACAD_EXEMPT_FROM_CAD_STANDARDS
 70
     0
  0
APPID
  2
ACAD_NAV_VCDISPLAY
 70
     0
  0
APPID
  2
ACAECLAYERSTANDARD
 70
     0
  0
APPID
  2
ACCMTRANSPARENCY
 70
     0
  0
APPID
  2
ACAD_DSTYLE_DIMJAG
 70
     0
  0
APPID
  2
ACAD_DSTYLE_DIMTALN
 70
     0
  0
APPID
  2
ACDBATTR
 70
     0
  0
APPID
  2
ACADANNOTATIVE
 70
     0
  0
ENDTAB
  0
TABLE
  2
DIMSTYLE
 70
     1
  0
DIMSTYLE
  2
STANDARD
 70
     0
  3

  4

  5

  6

  7

 40
1.0
 41
0.1875
 42
0.0625
 43
0.38
 44
0.125
 45
0.0
 46
0.0
 47
0.01
 48
0.01
140
0.15625
141
0.09
142
0.0
143
25.3999999999999986
144
1.0
145
0.0
146
1.0
147
0.09
 71
     1
 72
     0
 73
     1
 74
     1
 75
     0
 76
     0
 77
     0
 78
     4
170
     0
171
     2
172
     0
173
     0
174
     0
175
     0
176
     0
177
     0
178
     0
  0
ENDTAB
  0
ENDSEC
  0
SECTION
  2
BLOCKS
  0
BLOCK
  8
0
  2
$MODEL_SPACE
 70
     0
 10
0.0
 20
0.0
 30
0.0
  3
$MODEL_SPACE
  1

  0
ENDBLK
  5
21
  8
0
  0
BLOCK
 67
     1
  8
0
  2
$PAPER_SPACE
 70
     0
 10
0.0
 20
0.0
 30
0.0
  3
$PAPER_SPACE
  1

  0
ENDBLK
  5
1D
 67
     1
  8
0
  0
BLOCK
  8
0
  2
_FILLED
 70
     0
 10
0.0
 20
0.0
 30
0.0
  3
_FILLED
  1

  0
SOLID
  5
11810
  8
0
  6
BYBLOCK
 62
     0
 10
0.0
 20
0.0
 30
0.0
 11
-1.0
 21
0.1666666667
 31
0.0
 12
-1.0
 22
-0.1666666667
 32
0.0
 13
-1.0
 23
-0.1666666667
 33
0.0
  0
ENDBLK
  5
11811
  8
0
  6
BYBLOCK
 62
     0
  0
ENDSEC
  0
SECTION
  2
ENTITIES
  0
ATTDEF
  5
3930
  8
DEFPOINTS
 10
8614.9058693279548606
 20
2270.0072500844448768
 30
0.0
 40
0.001
  1
K-76815X-S
  3

  2
MODELNUMBER
 70
     0
1001
ACDBATTR
1070
     0
1070
     1
  0
ATTDEF
  5
3931
  8
DEFPOINTS
 10
8614.9058693279548606
 20
2270.0055834177787801
 30
0.0
 40
0.001
  1
REACH
  3

  2
TRADENAME
 70
     0
1001
ACDBATTR
1070
     0
1070
     1
  0
ATTDEF
  5
3932
  8
DEFPOINTS
 10
8614.9058693279548606
 20
2270.0039167511117739
 30
0.0
 40
0.001
  1
TOILET
  3

  2
PRODUCT
 70
     0
1001
ACDBATTR
1070
     0
1070
     1
  0
ARC
  5
1187B
  8
0
 10
8608.1307104948737106
 20
2296.6534761651309964
 30
0.0
 40
0.0702667946875209
 50
184.9265468691853016
 51
261.8375811754784763
  0
ARC
  5
1187C
  8
0
 10
35743.2809179784308071
 20
-908.6355980329940394
 30
0.0
 40
27323.8726293442414317
 50
173.2600395463857126
 51
173.2632895649321938
  0
ARC
  5
1187D
  8
0
 10
8608.4784927986947878
 20
2298.1573517434298992
 30
0.0
 40
0.2377420965708843
 50
92.0287190119282741
 51
172.9230937754765876
  0
ARC
  5
1187E
  8
0
 10
8608.1950534609513852
 20
2286.8338361185119538
 30
0.0
 40
0.3257917450986554
 50
95.5557627811103742
 51
173.0420891675084931
  0
ARC
  5
1187F
  8
0
 10
8616.5752322692096641
 20
2204.3560553501702088
 30
0.0
 40
83.2282116245445138
 50
91.1518287139719945
 51
95.8006817718316341
  0
LINE
  5
11880
  8
0
 10
8607.7533430443127145
 20
2285.8770950239850208
 30
0.0
 11
8607.8716610390056303
 21
2286.8733025929332143
 31
0.0
  0
ARC
  5
11881
  8
0
 10
8607.8027370499567041
 20
2285.6313535427020724
 30
0.0
 40
0.0786244461246238
 50
190.772128532833193
 51
268.9569787581274909
  0
ARC
  5
11882
  8
0
 10
8618.2651388457197754
 20
2285.3016914588110922
 30
0.0
 40
10.4185846711925105
 50
191.6208478212379873
 51
228.5902119044930032
  0
ARC
  5
11883
  8
0
 10
8611.4347399649723229
 20
2277.5745673834580884
 30
0.0
 40
0.1060113570929164
 50
234.9576614350876014
 51
299.1763959123807126
  0
ARC
  5
11884
  8
0
 10
8612.8748968279414839
 20
2275.8909477881129533
 30
0.0
 40
2.0799509892604462
 50
103.5327778824898957
 51
124.3847716247910995
  0
ARC
  5
11885
  8
0
 10
8614.7076981935897493
 20
2284.1406088643580006
 30
0.0
 40
6.0102836735675274
 50
264.2533590786204059
 51
271.8544182014688886
  0
ARC
  5
11886
  8
0
 10
8613.8566301487680903
 20
2274.6296217910139603
 30
0.0
 40
3.5396958994598728
 50
85.9619769481427056
 51
105.6757835406941979
  0
ARC
  5
11887
  8
0
 10
8625.5831460173067171
 20
2224.7649326689947884
 30
0.0
 40
54.7616668624499567
 50
103.3914143348640948
 51
103.9427650472443929
  0
ARC
  5
11888
  8
0
 10
8610.7471676648565335
 20
2278.9870269700982135
 30
0.0
 40
1.6767771409721779
 50
296.1598643312528907
 51
304.6387920247349825
  0
LINE
  5
11889
  8
0
 10
8610.2622162434763595
 20
2270.0087308063330056
 30
0.0
 11
8611.0179388246906456
 21
2277.8167065953639394
 31
0.0
  0
ARC
  5
1188A
  8
0
 10
8613.9994505547219887
 20
2298.4425515507168711
 30
0.0
 40
0.0391409789453981
 50
90.0491641257070654
 51
178.1178354745937042
  0
ARC
  5
1188B
  8
0
 10
8608.1493881584483461
 20
2285.5756547912719725
 30
0.0
 40
0.0781361745030386
 50
197.0520419318654888
 51
269.8296960541509861
  0
ARC
  5
1188C
  8
0
 10
8609.0548293782576366
 20
2283.8190414539499216
 30
0.0
 40
1.8688024255418381
 50
57.9511433149593174
 51
63.9168277964264604
  0
ARC
  5
1188D
  8
0
 10
8608.522281978657702
 20
2285.5014596740388697
 30
0.0
 40
0.0590588222137656
 50
210.9535559794036885
 51
269.9931610716192267
  0
ARC
  5
1188E
  8
0
 10
8608.3710622865510231
 20
2285.4098801494310464
 30
0.0
 40
0.1177305811055406
 50
31.3226376625568612
 51
48.107711734050973
  0
LINE
  5
1188F
  8
0
 10
8608.5222749292897788
 20
2285.4424008522451004
 30
0.0
 11
8609.7872377482271986
 21
2285.4424014334290405
 31
0.0
  0
ARC
  5
11890
  8
0
 10
8609.7872322311395692
 20
2285.5014581653399546
 30
0.0
 40
0.0590567321690899
 50
270.0053525809915982
 51
329.0469346597889739
  0
ARC
  5
11891
  8
0
 10
8609.9384503909677733
 20
2285.409880149430137
 30
0.0
 40
0.1177305811066723
 50
131.8922882654472915
 51
148.6773623374209023
  0
ARC
  5
11892
  8
0
 10
8610.4859794830190367
 20
2285.4620606869798394
 30
0.0
 40
0.0590299379737139
 50
181.8229872726645056
 51
270.0442197071221813
  0
ARC
  5
11893
  8
0
 10
8610.3229262135282625
 20
2285.4565917404838729
 30
0.0
 40
0.1041151577334724
 50
1.97661613825891
 51
23.1472609454870515
  0
ARC
  5
11894
  8
0
 10
8613.214220223686425
 20
2203.9865867066168903
 30
0.0
 40
83.5979060711556343
 50
84.2106351157525097
 51
88.8430309378678942
  0
ARC
  5
11895
  8
0
 10
8611.5392437366936065
 20
2285.3016914588110922
 30
0.0
 40
10.4185846711925105
 50
311.4097880955071105
 51
348.379152178761899
  0
ARC
  5
11896
  8
0
 10
8618.36964261743924
 20
2277.5745673834580884
 30
0.0
 40
0.1060113570929164
 50
240.8236040876192874
 51
305.042338564912427
  0
ARC
  5
11897
  8
0
 10
8616.929485754473717
 20
2275.8909477881129533
 30
0.0
 40
2.0799509892604462
 50
55.6152283752088792
 51
76.4672221175100617
  0
ARC
  5
11898
  8
0
 10
8615.0966843888236326
 20
2284.1406088643580006
 30
0.0
 40
6.0102836735675274
 50
268.1455817985311114
 51
275.7466409213797078
  0
ARC
  5
11899
  8
0
 10
8615.9477524336434726
 20
2274.6296217910139603
 30
0.0
 40
3.5396958994598728
 50
74.3242164593058021
 51
94.0380230518572944
  0
ARC
  5
1189A
  8
0
 10
8604.2212365651066648
 20
2224.7649326689947884
 30
0.0
 40
54.7616668624499567
 50
76.0572349527556355
 51
76.6085856651358625
  0
ARC
  5
1189B
  8
0
 10
8619.0572149175568484
 20
2278.9870269700982135
 30
0.0
 40
1.6767771409721779
 50
235.361207975264989
 51
243.8401356687469956
  0
LINE
  5
1189C
  8
0
 10
8619.548172959306612
 20
2270.0087308063330056
 30
0.0
 11
8618.7864437577227363
 21
2277.8167065953639394
 31
0.0
  0
ARC
  5
1189D
  8
0
 10
8615.8109446914731961
 20
2298.4425183333041787
 30
0.0
 40
0.0391742059878867
 50
3.1817550655201119
 51
90.0634739486372524
  0
ARC
  5
1189E
  8
0
 10
8621.6549944239632168
 20
2285.575654791271063
 30
0.0
 40
0.0781361745029689
 50
270.1703039458489002
 51
342.9479580683145059
  0
ARC
  5
1189F
  8
0
 10
8620.7495532041612023
 20
2283.8190414539421909
 30
0.0
 40
1.8688024255514251
 50
116.0831722037014941
 51
122.048856685040704
  0
ARC
  5
118A0
  8
0
 10
8621.2821006037556799
 20
2285.5014596740388697
 30
0.0
 40
0.0590588222137656
 50
270.0068389283807733
 51
329.0464440205961978
  0
ARC
  5
118A1
  8
0
 10
8621.4333202958623588
 20
2285.4098801494310464
 30
0.0
 40
0.1177305811055719
 50
131.8922882658540061
 51
148.6773623374209023
  0
LINE
  5
118A2
  8
0
 10
8621.2821076531199651
 20
2285.4424008522451004
 30
0.0
 11
8620.0171448341843643
 21
2285.4424014334290405
 31
0.0
  0
ARC
  5
118A3
  8
0
 10
8620.0171503512701747
 20
2285.5014581653399546
 30
0.0
 40
0.0590567321690899
 50
210.9530653402109976
 51
269.9946474190084018
  0
ARC
  5
118A4
  8
0
 10
8619.8659321914437896
 20
2285.4098801494310464
 30
0.0
 40
0.1177305811055554
 50
31.3226376625568612
 51
48.107711734050973
  0
ARC
  5
118A5
  8
0
 10
8619.3184030993943452
 20
2285.4620606869798394
 30
0.0
 40
0.0590299379737139
 50
269.9557802928778187
 51
358.1770127273355229
  0
ARC
  5
118A6
  8
0
 10
8619.4814563688833005
 20
2285.4565917404838729
 30
0.0
 40
0.1041151577339814
 50
156.8527390545129947
 51
178.0233838617411095
  0
LINE
  5
118A7
  8
0
 10
8610.2622162434763595
 20
2270.0087308063330056
 30
0.0
 11
8619.548172959306612
 21
2270.0087308063330056
 31
0.0
  0
LINE
  5
118A8
  8
0
 10
8607.8013058374162938
 20
2285.5527421239439718
 30
0.0
 11
8622.0090833653684967
 21
2285.5527421239439718
 31
0.0
  0
LINE
  5
118A9
  8
0
 10
8608.149155909590263
 20
2285.4975189619331104
 30
0.0
 11
8621.6552266728194809
 21
2285.4975189619331104
 31
0.0
  0
LINE
  5
118AA
  8
0
 10
8607.8863416314816277
 20
2285.4030307628331684
 30
0.0
 11
8621.9240475712995249
 21
2285.4030307628331684
 31
0.0
  0
LINE
  5
118AB
  8
0
 10
8607.6951946008903178
 20
2283.203028679532963
 30
0.0
 11
8622.1151946018908347
 21
2283.203028679532963
 31
0.0
  0
LINE
  5
118AC
  8
0
 10
8613.9994169687961403
 20
2298.4816925152531439
 30
0.0
 11
8615.8109012931417965
 21
2298.4816925152531439
 31
0.0
  0
ARC
  5
118AD
  8
0
 10
8608.1774531445735192
 20
2296.5109719478000443
 30
0.0
 40
0.0450481920488572
 50
269.233736266802623
 51
347.835283088096503
  0
ARC
  5
118AE
  8
0
 10
9845.4701941995135712
 20
1926.6529490293780782
 30
0.0
 40
1291.3451482124069116
 50
163.3532935377103001
 51
163.3571113814813884
  0
ARC
  5
118AF
  8
0
 10
8608.1705866117536061
 20
2296.3656273797710128
 30
0.0
 40
0.0997396765247107
 50
93.2581923839028946
 51
178.5237340494327043
  0
ARC
  5
118B0
  8
0
 10
8608.0718340866351355
 20
2298.1027263428209153
 30
0.0
 40
1.6401640190204769
 50
273.2534393190841797
 51
273.6710519455252779
  0
LINE
  5
118B1
  8
0
 10
8607.7745361732613674
 20
2286.0588553230481921
 30
0.0
 11
8608.0708800405554939
 21
2296.3681969581680278
 31
0.0
  0
LINE
  5
118B2
  8
0
 10
8607.7526240563402098
 20
2285.351685386040117
 30
0.0
 11
8607.760362106761022
 21
2285.5651253937198817
 31
0.0
  0
ARC
  5
118B3
  8
0
 10
8607.8855617196968524
 20
2285.2052703892341015
 30
0.0
 40
0.1977619114700291
 50
89.774042588613824
 51
154.3100842417323122
  0
ARC
  5
118B4
  8
0
 10
8600.3544966819845285
 20
2283.9970316393228131
 30
0.0
 40
7.3835145179504194
 50
353.8266309260474145
 51
2.6783531585754181
  0
ARC
  5
118B5
  8
0
 10
8683.4796081657968898
 20
2288.6250709638338776
 30
0.0
 40
75.8706505521660119
 50
182.8652060259584005
 51
183.236155043840796
  0
ARC
  5
118B6
  8
0
 10
8608.0447147665581724
 20
2285.6269689029168148
 30
0.0
 40
0.2405579850994369
 50
197.9725226740060009
 51
248.5773141793305001
  0
ARC
  5
118B7
  8
0
 10
8611.6113516358691413
 20
2285.4621296995737794
 30
0.0
 40
0.0590524583484347
 50
270.3919225876171026
 51
346.6118703094110174
  0
ARC
  5
118B8
  8
0
 10
8611.7514125976595096
 20
2285.4281368734918942
 30
0.0
 40
0.0850754992470486
 50
125.3596562429724059
 51
166.1819054021642046
  0
ARC
  5
118B9
  8
0
 10
8618.210849105991656
 20
2285.4621311699329453
 30
0.0
 40
0.059053931399989
 50
193.4990596299145125
 51
269.6076939253205182
  0
ARC
  5
118BA
  8
0
 10
8618.0684934745513601
 20
2285.4265222533631459
 30
0.0
 40
0.0876922156408446
 50
14.4106754717502099
 51
54.0580829401814427
  0
ARC
  5
118BB
  8
0
 10
8599.6445109609376232
 20
1996.8317583385230591
 30
0.0
 40
290.1582040747586007
 50
87.8617365158989969
 51
88.3752168497642856
  0
ARC
  5
118BC
  8
0
 10
8621.6799086348528363
 20
2296.6532588703307738
 30
0.0
 40
0.0700193326388382
 50
278.0014240917683992
 51
355.2344478636927079
  0
ARC
  5
118BD
  8
0
 10
-18513.4711637332802638
 20
-908.6356730468364731
 30
0.0
 40
27323.8732687175906904
 50
6.7367104350936797
 51
6.7399604535625226
  0
ARC
  5
118BE
  8
0
 10
8621.3318951475557697
 20
2298.1573466069598908
 30
0.0
 40
0.2377439764053064
 50
7.0780973640103557
 51
87.993581946676656
  0
ARC
  5
118BF
  8
0
 10
8621.6153357418315863
 20
2286.8338361185119538
 30
0.0
 40
0.3257917450986554
 50
6.9579108324914989
 51
84.4442372188896115
  0
LINE
  5
118C0
  8
0
 10
8622.0570461584702571
 20
2285.8770950239850208
 30
0.0
 11
8621.9387281637773413
 21
2286.8733025929332143
 31
0.0
  0
ARC
  5
118C1
  8
0
 10
8621.6329360582094523
 20
2296.5109719478000443
 30
0.0
 40
0.0450481920488572
 50
192.1647169119034118
 51
270.766263733197377
  0
ARC
  5
118C2
  8
0
 10
7384.3409517569380114
 20
1926.6531752621031046
 30
0.0
 40
1291.3443583659920932
 50
16.6428886177848909
 51
16.6467064638569795
  0
ARC
  5
118C3
  8
0
 10
8621.6396880139564018
 20
2296.3653731418189636
 30
0.0
 40
0.1000000655065341
 50
1.6181416266471671
 51
86.6845450309113943
  0
ARC
  5
118C4
  8
0
 10
8621.7385551161496551
 20
2298.1027263428209153
 30
0.0
 40
1.6401640190204769
 50
266.3289480544747221
 51
266.7465606809158203
  0
LINE
  5
118C5
  8
0
 10
8622.0358530295216042
 20
2286.0588553230468278
 30
0.0
 11
8621.7396482018448296
 21
2296.3681969581680278
 31
0.0
  0
LINE
  5
118C6
  8
0
 10
8622.0577651464427618
 20
2285.351685386040117
 30
0.0
 11
8622.0500270960201306
 21
2285.5651253937198817
 31
0.0
  0
ARC
  5
118C7
  8
0
 10
8621.7656744362247991
 20
2285.6269689029168148
 30
0.0
 40
0.2405579850993979
 50
291.4226858206695283
 51
342.0274773260434813
  0
LINE
  5
118C8
  8
0
 10
8613.9603306927892845
 20
2298.4438370993848366
 30
0.0
 11
8613.9603306927892845
 21
2298.3949448252537877
 31
0.0
  0
LINE
  5
118C9
  8
0
 10
8615.850058509991868
 20
2298.444692641372967
 30
0.0
 11
8615.850058509991868
 21
2298.3949448252537877
 31
0.0
  0
ARC
  5
118CA
  8
0
 10
8629.455892520796624
 20
2283.9970316393228131
 30
0.0
 40
7.3835145179504194
 50
177.3216468414244957
 51
186.1733690739526139
  0
ARC
  5
118CB
  8
0
 10
8552.7723589284832997
 20
2288.2817684080459912
 30
0.0
 40
69.4199679676420658
 50
356.7466101172461208
 51
357.1520288129582923
  0
ARC
  5
118CC
  8
0
 10
8630.1398760628326272
 20
1997.6232869535360805
 30
0.0
 40
289.3662564540881021
 50
91.6240804900937746
 51
92.1389661441934891
  0
LINE
  5
118CD
  8
0
 10
8608.4700766266578285
 20
2298.3949448252537877
 30
0.0
 11
8621.3402189075677597
 21
2298.3949448252537877
 31
0.0
  0
LINE
  5
118CE
  8
0
 10
8608.1207340368837322
 20
2296.5839212032537944
 30
0.0
 11
8621.6896551658992394
 21
2296.5839212032537944
 31
0.0
  0
LINE
  5
118CF
  8
0
 10
8608.1554468801950861
 20
2296.4642113115328357
 30
0.0
 11
8621.654887662276451
 21
2296.4642113115328357
 31
0.0
  0
LINE
  5
118D1
  8
0
 10
8619.3397635095880105
 20
2286.7879250804871845
 30
0.0
 11
8610.4706256931913231
 21
2286.7879250804871845
 31
0.0
  0
LINE
  5
118D4
  8
0
 10
8607.6861671533588378
 20
2285.2030957004922129
 30
0.0
 11
8607.7073479140835843
 21
2285.2910002738522053
 31
0.0
  0
LINE
  5
118D5
  8
0
 10
8607.7038037737365812
 20
2284.8325673125491448
 30
0.0
 11
8607.6861671533588378
 21
2285.2030957004922129
 31
0.0
  0
LINE
  5
118D6
  8
0
 10
8622.1242220494241337
 20
2285.2030957004922129
 30
0.0
 11
8622.1030412886993872
 21
2285.2910002738522053
 31
0.0
  0
LINE
  5
118D7
  8
0
 10
8622.1065854290463903
 20
2284.8325673125491448
 30
0.0
 11
8622.1242220494241337
 21
2285.2030957004922129
 31
0.0
  0
ARC
  5
118D8
  8
0
 10
8621.9248274830861192
 20
2285.2052703892341015
 30
0.0
 40
0.1977619114700291
 50
25.6899157582677304
 51
90.2259574113861902
  0
LINE
  5
118D9
  8
0
 10
8607.7254981013393262
 20
2285.6166583616882235
 30
0.0
 11
8607.7241134479172615
 21
2285.6309892203689742
 31
0.0
  0
LINE
  5
118DA
  8
0
 10
8607.7241134479172615
 20
2285.6309892203689742
 30
0.0
 11
8607.7533430443127145
 21
2285.8770950239850208
 31
0.0
  0
ARC
  5
118DB
  8
0
 10
8622.0076521528262674
 20
2285.6313535427020724
 30
0.0
 40
0.0786244461246238
 50
271.0430212418726228
 51
349.2278714671667785
  0
LINE
  5
118DC
  8
0
 10
8622.0848911014436453
 20
2285.6166583616882235
 30
0.0
 11
8622.08627575486571
 21
2285.6309892203689742
 31
0.0
  0
LINE
  5
118DD
  8
0
 10
8622.08627575486571
 20
2285.6309892203689742
 30
0.0
 11
8622.0570461584702571
 21
2285.8770950239850208
 31
0.0
  0
ENDSEC
  0
EOF
