  0
SECTION
  2
HEADER
  9
$ACADVER
  1
AC1009
  9
$INSBASE
 10
8614.9047819205698033
 20
2270.0024841846338859
 30
0.0
  9
$EXTMIN
 10
8607.5422877825694741
 20
2240.5307834503760205
 30
-0.0000000349181948
  9
$EXTMAX
 10
8622.6725432597413601
 20
2270.1468130778212071
 30
0.0000000814935746
  9
$LIMMIN
 10
0.0
 20
0.0
  9
$LIMMAX
 10
11.6929133858000007
 20
8.2677165353999982
  9
$ORTHOMODE
 70
     0
  9
$REGENMODE
 70
     1
  9
$FILLMODE
 70
     1
  9
$QTEXTMODE
 70
     0
  9
$MIRRTEXT
 70
     0
  9
$DRAGMODE
 70
     2
  9
$LTSCALE
 40
0.6431102362
  9
$OSMODE
 70
  4063
  9
$ATTMODE
 70
     1
  9
$TEXTSIZE
 40
0.2
  9
$TRACEWID
 40
0.05
  9
$TEXTSTYLE
  7
STANDARD
  9
$CLAYER
  8
0
  9
$CELTYPE
  6
BYLAYER
  9
$CECOLOR
 62
     1
  9
$DIMSCALE
 40
1.0
  9
$DIMASZ
 40
0.1875
  9
$DIMEXO
 40
0.0625
  9
$DIMDLI
 40
0.4443307087
  9
$DIMRND
 40
0.0
  9
$DIMDLE
 40
0.0
  9
$DIMEXE
 40
0.125
  9
$DIMTP
 40
0.01
  9
$DIMTM
 40
0.01
  9
$DIMTXT
 40
2.0
  9
$DIMCEN
 40
0.1052362205
  9
$DIMTSZ
 40
0.0
  9
$DIMTOL
 70
     1
  9
$DIMLIM
 70
     0
  9
$DIMTIH
 70
     1
  9
$DIMTOH
 70
     1
  9
$DIMSE1
 70
     0
  9
$DIMSE2
 70
     0
  9
$DIMTAD
 70
     0
  9
$DIMZIN
 70
     0
  9
$DIMBLK
  1

  9
$DIMASO
 70
     1
  9
$DIMSHO
 70
     1
  9
$DIMPOST
  1
\X
  9
$DIMAPOST
  1

  9
$DIMALT
 70
     1
  9
$DIMALTD
 70
     2
  9
$DIMALTF
 40
25.3999999999999986
  9
$DIMLFAC
 40
1.0
  9
$DIMTOFL
 70
     0
  9
$DIMTVP
 40
0.0
  9
$DIMTIX
 70
     0
  9
$DIMSOXD
 70
     0
  9
$DIMSAH
 70
     0
  9
$DIMBLK1
  1

  9
$DIMBLK2
  1

  9
$DIMSTYLE
  2
STANDARD
  9
$DIMCLRD
 70
     0
  9
$DIMCLRE
 70
     0
  9
$DIMCLRT
 70
     0
  9
$DIMTFAC
 40
1.0
  9
$DIMGAP
 40
0.09
  9
$LUNITS
 70
     2
  9
$LUPREC
 70
     4
  9
$SKETCHINC
 40
0.1
  9
$FILLETRAD
 40
0.0
  9
$AUNITS
 70
     0
  9
$AUPREC
 70
     0
  9
$MENU
  1
.
  9
$ELEVATION
 40
0.0
  9
$PELEVATION
 40
0.0
  9
$THICKNESS
 40
0.0
  9
$LIMCHECK
 70
     0
  9
$BLIPMODE
 70
     0
  9
$CHAMFERA
 40
0.0
  9
$CHAMFERB
 40
0.0
  9
$SKPOLY
 70
     0
  9
$TDCREATE
 40
2458060.468368056230247
  9
$TDUPDATE
 40
2459433.9139699069783092
  9
$TDINDWG
 40
0.4550880787
  9
$TDUSRTIMER
 40
0.4550880787
  9
$USRTIMER
 70
     1
  9
$ANGBASE
 50
0.0
  9
$ANGDIR
 70
     0
  9
$PDMODE
 70
     0
  9
$PDSIZE
 40
0.3125
  9
$PLINEWID
 40
0.0
  9
$COORDS
 70
     1
  9
$SPLFRAME
 70
     0
  9
$SPLINETYPE
 70
     6
  9
$SPLINESEGS
 70
     8
  9
$ATTDIA
 70
     1
  9
$ATTREQ
 70
     1
  9
$HANDLING
 70
     1
  9
$HANDSEED
  5
116D4
  9
$SURFTAB1
 70
     6
  9
$SURFTAB2
 70
     6
  9
$SURFTYPE
 70
     6
  9
$SURFU
 70
     6
  9
$SURFV
 70
     6
  9
$UCSNAME
  2

  9
$UCSORG
 10
0.0
 20
0.0
 30
0.0
  9
$UCSXDIR
 10
1.0
 20
0.0
 30
0.0
  9
$UCSYDIR
 10
0.0
 20
1.0
 30
0.0
  9
$PUCSNAME
  2

  9
$PUCSORG
 10
0.0
 20
0.0
 30
0.0
  9
$PUCSXDIR
 10
1.0
 20
0.0
 30
0.0
  9
$PUCSYDIR
 10
0.0
 20
1.0
 30
0.0
  9
$USERI1
 70
     0
  9
$USERI2
 70
     0
  9
$USERI3
 70
     0
  9
$USERI4
 70
     0
  9
$USERI5
 70
     0
  9
$USERR1
 40
0.0
  9
$USERR2
 40
0.0
  9
$USERR3
 40
0.0
  9
$USERR4
 40
0.0
  9
$USERR5
 40
0.0
  9
$WORLDVIEW
 70
     1
  9
$SHADEDGE
 70
     3
  9
$SHADEDIF
 70
    70
  9
$TILEMODE
 70
     1
  9
$MAXACTVP
 70
    64
  9
$PLIMCHECK
 70
     0
  9
$PEXTMIN
 10
1.0000000000000000E+20
 20
1.0000000000000000E+20
 30
1.0000000000000000E+20
  9
$PEXTMAX
 10
-1.0000000000000000E+20
 20
-1.0000000000000000E+20
 30
-1.0000000000000000E+20
  9
$PLIMMIN
 10
0.0
 20
0.0
  9
$PLIMMAX
 10
12.0
 20
9.0
  9
$UNITMODE
 70
     0
  9
$VISRETAIN
 70
     1
  9
$PLINEGEN
 70
     0
  9
$PSLTSCALE
 70
     1
  0
ENDSEC
  0
SECTION
  2
TABLES
  0
TABLE
  2
VPORT
 70
     1
  0
VPORT
  2
*ACTIVE
 70
     0
 10
0.0
 20
0.0
 11
1.0
 21
1.0
 12
3799.8090756774049623
 22
2007.5301739965200341
 13
0.0
 23
0.0
 14
1.0
 24
1.0
 15
0.0
 25
0.0
 16
0.0
 26
0.0
 36
9.5192988075487186
 17
4815.2983398437490905
 27
247.8086242675780966
 37
0.0
 40
29.8687972029708604
 41
2.0798479087452471
 42
50.0
 43
0.0
 44
0.0
 50
0.0
 51
0.0
 71
     0
 72
   100
 73
     1
 74
     1
 75
     0
 76
     0
 77
     0
 78
     0
  0
ENDTAB
  0
TABLE
  2
LTYPE
 70
     2
  0
LTYPE
  2
CONTINUOUS
 70
     0
  3
Solid line
 72
    65
 73
     0
 40
0.0
  0
LTYPE
  2
PHANTOM2
 70
     0
  3
___ _ _ ___ _ _ ___ _ _ ___ _ _
 72
    65
 73
     6
 40
1.25
 49
0.625
 49
-0.125
 49
0.125
 49
-0.125
 49
0.125
 49
-0.125
  0
ENDTAB
  0
TABLE
  2
LAYER
 70
     2
  0
LAYER
  2
0
 70
     0
 62
   255
  6
CONTINUOUS
  0
LAYER
  2
DEFPOINTS
 70
     0
 62
     7
  6
CONTINUOUS
  0
ENDTAB
  0
TABLE
  2
STYLE
 70
     1
  0
STYLE
  2
STANDARD
 70
     0
 40
0.0
 41
0.8
 50
0.0
 71
     0
 42
0.2
  3
txt
  4

  0
ENDTAB
  0
TABLE
  2
VIEW
 70
     0
  0
ENDTAB
  0
TABLE
  2
UCS
 70
     0
  0
ENDTAB
  0
TABLE
  2
APPID
 70
    10
  0
APPID
  2
ACAD
 70
     0
  0
APPID
  2
ACAD_MLEADERVER
 70
     0
  0
APPID
  2
ACAD_EXEMPT_FROM_CAD_STANDARDS
 70
     0
  0
APPID
  2
ACAD_NAV_VCDISPLAY
 70
     0
  0
APPID
  2
ACAECLAYERSTANDARD
 70
     0
  0
APPID
  2
ACCMTRANSPARENCY
 70
     0
  0
APPID
  2
ACAD_DSTYLE_DIMJAG
 70
     0
  0
APPID
  2
ACAD_DSTYLE_DIMTALN
 70
     0
  0
APPID
  2
ACDBATTR
 70
     0
  0
APPID
  2
ACADANNOTATIVE
 70
     0
  0
ENDTAB
  0
TABLE
  2
DIMSTYLE
 70
     1
  0
DIMSTYLE
  2
STANDARD
 70
     0
  3

  4

  5

  6

  7

 40
1.0
 41
0.1875
 42
0.0625
 43
0.38
 44
0.125
 45
0.0
 46
0.0
 47
0.01
 48
0.01
140
0.15625
141
0.09
142
0.0
143
25.3999999999999986
144
1.0
145
0.0
146
1.0
147
0.09
 71
     1
 72
     0
 73
     1
 74
     1
 75
     0
 76
     0
 77
     0
 78
     4
170
     0
171
     2
172
     0
173
     0
174
     0
175
     0
176
     0
177
     0
178
     0
  0
ENDTAB
  0
ENDSEC
  0
SECTION
  2
BLOCKS
  0
BLOCK
  8
0
  2
$MODEL_SPACE
 70
     0
 10
0.0
 20
0.0
 30
0.0
  3
$MODEL_SPACE
  1

  0
ENDBLK
  5
21
  8
0
  0
BLOCK
 67
     1
  8
0
  2
$PAPER_SPACE
 70
     0
 10
0.0
 20
0.0
 30
0.0
  3
$PAPER_SPACE
  1

  0
ENDBLK
  5
1D
 67
     1
  8
0
  0
BLOCK
  8
0
  2
_FILLED
 70
     0
 10
0.0
 20
0.0
 30
0.0
  3
_FILLED
  1

  0
SOLID
  5
1145B
  8
0
  6
BYBLOCK
 62
     0
 10
0.0
 20
0.0
 30
0.0
 11
-1.0
 21
0.1666666667
 31
0.0
 12
-1.0
 22
-0.1666666667
 32
0.0
 13
-1.0
 23
-0.1666666667
 33
0.0
  0
ENDBLK
  5
1145C
  8
0
  6
BYBLOCK
 62
     0
  0
ENDSEC
  0
SECTION
  2
ENTITIES
  0
ATTDEF
  5
3930
  8
DEFPOINTS
 10
8614.9058693279548606
 20
2270.0072500844448768
 30
0.0
 40
0.001
  1
K-76815X-S
  3

  2
MODELNUMBER
 70
     0
1001
ACDBATTR
1070
     0
1070
     1
  0
ATTDEF
  5
3931
  8
DEFPOINTS
 10
8614.9058693279548606
 20
2270.0055834177787801
 30
0.0
 40
0.001
  1
REACH
  3

  2
TRADENAME
 70
     0
1001
ACDBATTR
1070
     0
1070
     1
  0
ATTDEF
  5
3932
  8
DEFPOINTS
 10
8614.9058693279548606
 20
2270.0039167511117739
 30
0.0
 40
0.001
  1
TOILET
  3

  2
PRODUCT
 70
     0
1001
ACDBATTR
1070
     0
1070
     1
  0
CIRCLE
  5
114FA
  8
0
 10
8614.9047819205698033
 20
2266.3705208431338178
 30
0.0
 40
0.9448639086000012
  0
ARC
  5
114FB
  8
0
 10
8614.9047819205698033
 20
2266.3705208431338178
 30
0.0
 40
0.6677621342000016
 50
97.685985803084904
 51
262.3284289301466856
  0
ARC
  5
114FC
  8
0
 10
8614.9047819205698033
 20
2266.3705208431338178
 30
0.0
 40
0.6677621342000016
 50
267.6407176565573991
 51
92.3613811562293563
  0
CIRCLE
  5
114FD
  8
0
 10
8614.9047819205698033
 20
2266.3705208431338178
 30
0.0
 40
0.6888738875544789
  0
ARC
  5
114FE
  8
0
 10
8608.6145803787385375
 20
2259.4727125532431273
 30
0.0
 40
0.9048042575498849
 50
93.0031526264793342
 51
169.935065759033705
  0
ARC
  5
114FF
  8
0
 10
8611.2807661710703542
 20
2260.4585153329348941
 30
0.0
 40
0.0196850394000094
 50
180.0000032233029117
 51
270.0
  0
ARC
  5
11500
  8
0
 10
8611.2807661710703542
 20
2260.466389348634948
 30
0.0
 40
0.0196850394000006
 50
90.0000021872738643
 51
179.999999999947903
  0
ARC
  5
11501
  8
0
 10
8611.4185614466696279
 20
2260.466389348634948
 30
0.0
 40
0.0196850394000032
 50
0.000002187404142
 51
90.0
  0
ARC
  5
11502
  8
0
 10
8611.3547819190698647
 20
2260.4191452541349463
 30
0.0
 40
0.0196850394000023
 50
0.0000000000260551
 51
90.0
  0
LINE
  5
11503
  8
0
 10
8611.2807661710703542
 20
2260.4388302935340107
 30
0.0
 11
8611.3547819190680457
 21
2260.4388302935340107
 31
0.0
  0
LINE
  5
11504
  8
0
 10
8611.2807661751703563
 20
2260.4860743880349219
 30
0.0
 11
8611.4185614466696279
 21
2260.4860743880349219
 31
0.0
  0
LINE
  5
11505
  8
0
 10
8611.4382464859700121
 20
2260.4663893445340364
 30
0.0
 11
8611.4382473102177755
 21
2260.3987521172180095
 31
0.0
  0
LINE
  5
11506
  8
0
 10
8611.2610811316699255
 20
2260.4585153318271296
 30
0.0
 11
8611.2610811316699255
 21
2260.466389348634948
 31
0.0
  0
LINE
  5
11507
  8
0
 10
8611.3744669584702933
 20
2260.4191452541349463
 30
0.0
 11
8611.3744669584702933
 21
2260.3987521172180095
 31
0.0
  0
ARC
  5
11508
  8
0
 10
8611.6902149899706274
 20
2260.367628344934019
 30
0.0
 40
0.039370078700106
 50
90.0
 51
127.7636389051617982
  0
LINE
  5
11509
  8
0
 10
8608.5671768653173785
 20
2260.3762742010549118
 30
0.0
 11
8610.6654255905705213
 21
2260.3010670162339011
 31
0.0
  0
LINE
  5
1150A
  8
0
 10
8610.6654255905705213
 20
2260.3010670162339011
 30
0.0
 11
8610.6840320672727103
 21
2260.2962979483349955
 31
0.0
  0
LINE
  5
1150B
  8
0
 10
8610.6895722146673506
 20
2260.2206753688819845
 30
0.0
 11
8610.6840320672727103
 21
2260.2962979483349955
 31
0.0
  0
ARC
  5
1150C
  8
0
 10
8610.691520934809887
 20
2260.2210281529669373
 30
0.0
 40
0.001980395618415
 50
190.2613332253916951
 51
237.7699531391826895
  0
ARC
  5
1150D
  8
0
 10
8610.7236308526407811
 20
2260.32039626493588
 30
0.0
 40
0.1068983617126625
 50
253.6215425314534002
 51
265.8020055223896065
  0
ARC
  5
1150E
  8
0
 10
8610.6970988721404865
 20
2260.2288015258250198
 30
0.0
 40
0.0115450389938348
 50
234.9262987475092075
 51
251.7718891693398859
  0
ARC
  5
1150F
  8
0
 10
8610.7783718797563779
 20
2260.979217040840922
 30
0.0
 40
0.7679851587543701
 50
265.3270393255730824
 51
271.0795027900986156
  0
ARC
  5
11510
  8
0
 10
8610.794505015555842
 20
2260.2339862012549929
 30
0.0
 40
0.0786997938089276
 50
90.0292106765831761
 51
181.4211242636621932
  0
LINE
  5
11511
  8
0
 10
8611.1882464859718311
 20
2260.2960928565348695
 30
0.0
 11
8611.1384818573696975
 21
2260.3097397537349025
 31
0.0
  0
ARC
  5
11512
  8
0
 10
8611.1084400540603383
 20
2260.1596065100789019
 30
0.0
 40
0.1531094405860266
 50
78.684506590775058
 51
88.8664077349914834
  0
LINE
  5
11513
  8
0
 10
8611.1882464859718311
 20
2259.9909199299618194
 30
0.0
 11
8611.1882464859718311
 21
2260.2960928565348695
 31
0.0
  0
ARC
  5
11514
  8
0
 10
8610.7926147498328646
 20
2259.9759592691511898
 30
0.0
 40
0.2354090263632203
 50
43.5836897380485269
 51
89.9450457254612559
  0
ARC
  5
11515
  8
0
 10
8611.3895173213131784
 20
2260.5441489549980361
 30
0.0
 40
0.588685750151429
 50
223.5901033488227085
 51
269.9577584711378222
  0
LINE
  5
11516
  8
0
 10
8611.1882464859718311
 20
2260.2203401500341897
 30
0.0
 11
8611.2122056369735219
 21
2260.2203401500341897
 31
0.0
  0
LINE
  5
11517
  8
0
 10
8611.2009647663708165
 20
2260.2203401500341897
 30
0.0
 11
8611.2009649594292569
 21
2260.3679770386002019
 31
0.0
  0
ARC
  5
11518
  8
0
 10
8611.2403315643205133
 20
2260.3679815395871628
 30
0.0
 40
0.0393666051479952
 50
90.002691679002055
 51
180.0065509226853919
  0
LINE
  5
11519
  8
0
 10
8611.2403297149285208
 20
2260.4073481446921505
 30
0.0
 11
8611.3516323127696523
 21
2260.4070044203349426
 31
0.0
  0
ARC
  5
1151A
  8
0
 10
8611.3512325133215199
 20
2260.3869468916659571
 30
0.0
 40
0.0200615128294822
 50
36.0471925420760471
 51
88.858095196249721
  0
LINE
  5
1151B
  8
0
 10
8612.3226705116430821
 20
2259.9554634060868921
 30
0.0
 11
8612.3261237778478971
 21
2260.3987521172180095
 31
0.0
  0
LINE
  5
1151C
  8
0
 10
8612.3358842812704097
 20
2259.9554634066707877
 30
0.0
 11
8612.3358842812704097
 21
2260.3987521172180095
 31
0.0
  0
ARC
  5
1151D
  8
0
 10
8614.9164757948092301
 20
2245.6271018616621404
 30
0.0
 40
4.9723790602290521
 50
228.424635880635293
 51
269.8652535838878066
  0
ARC
  5
1151E
  8
0
 10
8620.4607654682276916
 20
2250.9016157777168701
 30
0.0
 40
12.6139965822736606
 50
193.270822661546589
 51
225.4826990356885119
  0
ARC
  5
1151F
  8
0
 10
8626.7736857785657776
 20
2252.02857773705
 30
0.0
 40
19.0202975774333503
 50
180.9887770263163134
 51
192.2095431155850918
  0
LINE
  5
11520
  8
0
 10
8611.2122056369735219
 20
2260.2203401500341897
 30
0.0
 11
8611.2138566460507718
 21
2259.9822640445790967
 31
0.0
  0
LINE
  5
11521
  8
0
 10
8610.7158055410691304
 20
2260.2137847072340264
 30
0.0
 11
8610.7158294287037279
 21
2260.232034386999203
 31
0.0
  0
ARC
  5
11523
  8
0
 10
8618.6142126754693891
 20
2260.4585153329348941
 30
0.0
 40
0.0196850394000094
 50
270.0
 51
359.999996776697003
  0
ARC
  5
11524
  8
0
 10
8618.6142126754693891
 20
2260.466389348634948
 30
0.0
 40
0.0196850394000006
 50
0.0000000000521102
 51
89.9999978127261357
  0
ARC
  5
11525
  8
0
 10
8618.4764173998701153
 20
2260.466389348634948
 30
0.0
 40
0.0196850394000032
 50
90.0
 51
179.999997812595808
  0
ARC
  5
11526
  8
0
 10
8618.5401969274716976
 20
2260.4191452541349463
 30
0.0
 40
0.0196850394000023
 50
90.0
 51
179.9999999999739089
  0
LINE
  5
11527
  8
0
 10
8618.6142126754693891
 20
2260.4388302935340107
 30
0.0
 11
8618.5401969274716976
 21
2260.4388302935340107
 31
0.0
  0
LINE
  5
11528
  8
0
 10
8618.614212671369387
 20
2260.4860743880349219
 30
0.0
 11
8618.4764173998701153
 21
2260.4860743880349219
 31
0.0
  0
LINE
  5
11529
  8
0
 10
8618.4567323605697311
 20
2260.4663893445340364
 30
0.0
 11
8618.4567315363237867
 21
2260.3987521172180095
 31
0.0
  0
LINE
  5
1152A
  8
0
 10
8618.6338977148698177
 20
2260.4585153318271296
 30
0.0
 11
8618.6338977148698177
 21
2260.466389348634948
 31
0.0
  0
LINE
  5
1152B
  8
0
 10
8618.5205118880694499
 20
2260.4191452541349463
 30
0.0
 11
8618.5205118880694499
 21
2260.3987521172180095
 31
0.0
  0
ARC
  5
1152C
  8
0
 10
8618.2047638565691159
 20
2260.367628344934019
 30
0.0
 40
0.039370078700106
 50
52.2363610948381378
 51
90.0
  0
LINE
  5
1152D
  8
0
 10
8621.2423869758222281
 20
2260.3762742010549118
 30
0.0
 11
8619.2295532559692219
 21
2260.3010670162339011
 31
0.0
  0
LINE
  5
1152E
  8
0
 10
8619.2295532559692219
 20
2260.3010670162339011
 30
0.0
 11
8619.210946779270671
 21
2260.2962979483349955
 31
0.0
  0
LINE
  5
1152F
  8
0
 10
8619.2054066318723926
 20
2260.2206753688819845
 30
0.0
 11
8619.210946779270671
 21
2260.2962979483349955
 31
0.0
  0
ARC
  5
11530
  8
0
 10
8619.2034579117298563
 20
2260.2210281529669373
 30
0.0
 40
0.001980395618415
 50
302.2300468608173105
 51
349.7386667746083049
  0
ARC
  5
11531
  8
0
 10
8619.1713479939007811
 20
2260.32039626493588
 30
0.0
 40
0.1068983617126625
 50
274.1979944776103935
 51
286.3784574685465145
  0
ARC
  5
11532
  8
0
 10
8619.1978799743974378
 20
2260.2288015258250198
 30
0.0
 40
0.0115450389938348
 50
288.2281108306600004
 51
305.0737012524908209
  0
ARC
  5
11533
  8
0
 10
8619.1166069667815464
 20
2260.979217040840922
 30
0.0
 40
0.7679851587543701
 50
268.9204972099013844
 51
274.6729606744269176
  0
ARC
  5
11534
  8
0
 10
8619.1004451279877685
 20
2260.2339581872179224
 30
0.0
 40
0.0787277984464486
 50
358.5997753271778947
 51
89.991688918316683
  0
LINE
  5
11535
  8
0
 10
8618.7067323605697311
 20
2260.2960928565348695
 30
0.0
 11
8618.7564969891682267
 21
2260.3097397537349025
 31
0.0
  0
ARC
  5
11536
  8
0
 10
8618.7957678048387606
 20
2260.0749896103379797
 30
0.0
 40
0.2380122408355895
 50
92.9521450848456539
 51
99.4969405894021293
  0
LINE
  5
11537
  8
0
 10
8618.7067323605697311
 20
2259.9909199299618194
 30
0.0
 11
8618.7067323605697311
 21
2260.2960928565348695
 31
0.0
  0
ARC
  5
11538
  8
0
 10
8619.1023640967086976
 20
2259.9759592691511898
 30
0.0
 40
0.2354090263632203
 50
90.0549542745387868
 51
136.4163102619515087
  0
ARC
  5
11539
  8
0
 10
8618.5057460614061711
 20
2260.5434859156807761
 30
0.0
 40
0.5880225698446792
 50
270.0145645119691267
 51
316.4375736681324724
  0
LINE
  5
1153A
  8
0
 10
8618.7067323605697311
 20
2260.2203401500341897
 30
0.0
 11
8618.6827732095662213
 21
2260.2203401500341897
 31
0.0
  0
LINE
  5
1153B
  8
0
 10
8618.6940140801707457
 20
2260.2203401500341897
 30
0.0
 11
8618.6940138871104864
 21
2260.3679770386002019
 31
0.0
  0
ARC
  5
1153C
  8
0
 10
8618.654647282221049
 20
2260.3679815395871628
 30
0.0
 40
0.0393666051479952
 50
359.9934490773144944
 51
89.9973083209979308
  0
LINE
  5
1153D
  8
0
 10
8618.6546491316112224
 20
2260.4073481446921505
 30
0.0
 11
8618.5433465337700909
 21
2260.4070044203349426
 31
0.0
  0
ARC
  5
1153E
  8
0
 10
8618.5437463332182233
 20
2260.3869468916659571
 30
0.0
 40
0.0200615128294822
 50
91.1419048037502648
 51
143.9528074579239103
  0
LINE
  5
1153F
  8
0
 10
8617.5723083348984801
 20
2259.9554634060868921
 30
0.0
 11
8617.5688550686918461
 21
2260.3987521172180095
 31
0.0
  0
LINE
  5
11540
  8
0
 10
8617.5590945652711525
 20
2259.9554634066707877
 30
0.0
 11
8617.5590945652711525
 21
2260.3987521172180095
 31
0.0
  0
LINE
  5
11541
  8
0
 10
8618.6827732095662213
 20
2260.2203401500341897
 30
0.0
 11
8618.6811222004907904
 21
2259.9822640445790967
 31
0.0
  0
LINE
  5
11542
  8
0
 10
8619.1791733054724318
 20
2260.2137847072340264
 30
0.0
 11
8619.1791494178378343
 21
2260.232034386999203
 31
0.0
  0
ARC
  5
11543
  8
0
 10
8614.8181611796535435
 20
2265.7282717536340897
 30
0.0
 40
0.0196983681901219
 50
262.6447434557836118
 51
9.5961967591085298
  0
ARC
  5
11544
  8
0
 10
8614.8180933058247319
 20
2267.0127737520119808
 30
0.0
 40
0.019685202329845
 50
350.2906392156505149
 51
97.649722247034731
  0
ARC
  5
11545
  8
0
 10
8618.6172150699658232
 20
2266.370763116112812
 30
0.0
 40
3.8333011922223479
 50
170.4088545995851973
 51
189.5989804577343989
  0
ARC
  5
11546
  8
0
 10
8614.8781665738824813
 20
2265.7229866129318907
 30
0.0
 40
0.0196812597897007
 50
189.7766413477988863
 51
267.4562782098511775
  0
ARC
  5
11547
  8
0
 10
8618.6152120206443215
 20
2266.3707178903659951
 30
0.0
 40
3.8124460042100479
 50
170.1731803698556007
 51
189.8329255800697979
  0
ARC
  5
11548
  8
0
 10
8614.8781312240644183
 20
2267.0180141084451861
 30
0.0
 40
0.0197206977954394
 50
92.506904225145135
 51
170.1406846787940026
  0
LINE
  5
11549
  8
0
 10
8611.3890833105742786
 20
2259.9554633648349409
 30
0.0
 11
8618.5058955359691026
 21
2259.9554633648349409
 31
0.0
  0
LINE
  5
1154A
  8
0
 10
8611.3674529000836628
 20
2260.3987521172180095
 30
0.0
 11
8618.5275259464560804
 21
2260.3987521172180095
 31
0.0
  0
LINE
  5
1154B
  8
0
 10
8618.2047638565691159
 20
2260.4069984236348319
 30
0.0
 11
8611.6902149899706274
 21
2260.4069984236348319
 31
0.0
  0
LINE
  5
1154C
  8
0
 10
8610.7944648926331865
 20
2260.3126859848362074
 30
0.0
 11
8611.1114691140683135
 21
2260.3126859848362074
 31
0.0
  0
LINE
  5
1154D
  8
0
 10
8618.7835097324696108
 20
2260.3126859848362074
 30
0.0
 11
8619.1004565479033772
 21
2260.3126859848362074
 31
0.0
  0
ARC
  5
1154E
  8
0
 10
8614.7367507932012813
 20
2266.9974374023531709
 30
0.0
 40
0.0333123577326614
 50
51.0619511032100419
 51
158.9464635293479944
  0
ARC
  5
1154F
  8
0
 10
8614.4458138731006329
 20
2266.8294269033840465
 30
0.0
 40
0.0333218583764262
 50
81.0695991702105232
 51
188.9381395950329932
  0
ARC
  5
11550
  8
0
 10
8614.2778576116852491
 20
2266.5384660851368608
 30
0.0
 40
0.0333271255134305
 50
111.0732424054782967
 51
218.9333439802711041
  0
ARC
  5
11551
  8
0
 10
8614.2778749379303918
 20
2266.2025107994850259
 30
0.0
 40
0.0333270941616934
 50
141.0725421860853999
 51
248.9384258465024971
  0
ARC
  5
11552
  8
0
 10
8614.4458612153212016
 20
2265.9115672422158241
 30
0.0
 40
0.033321716399178
 50
171.0676713321003888
 51
278.936435511444472
  0
ARC
  5
11553
  8
0
 10
8614.7368156586562691
 20
2265.7435868353109072
 30
0.0
 40
0.0333122456385241
 50
201.0594780812170939
 51
308.9439666536940194
  0
ARC
  5
11554
  8
0
 10
8614.961246180731905
 20
2267.0166473680178569
 30
0.0
 40
0.033767859724552
 50
31.4375164030358611
 51
138.5738335094854108
  0
ARC
  5
11555
  8
0
 10
8615.3129459270421648
 20
2266.8746339072158662
 30
0.0
 40
0.0337219393700044
 50
357.3975906403279055
 51
104.6104690882642956
  0
ARC
  5
11556
  8
0
 10
8614.9613300474757125
 20
2265.724371392428111
 30
0.0
 40
0.0337377202109891
 50
221.4088696891323025
 51
328.5941882762060118
  0
ARC
  5
11557
  8
0
 10
8615.3129974519579264
 20
2265.866450855417952
 30
0.0
 40
0.0337225575203611
 50
255.3969099855673051
 51
2.6068936021703482
  0
ARC
  5
11558
  8
0
 10
8615.5250908053403691
 20
2266.1809044989399808
 30
0.0
 40
0.0337140746221307
 50
289.3907436831419773
 51
36.6145128241048212
  0
ARC
  5
11559
  8
0
 10
8615.5250711359312845
 20
2266.5602014104979389
 30
0.0
 40
0.0337141071397318
 50
323.3914466874916798
 51
70.6151628923071257
  0
CIRCLE
  5
1155A
  8
0
 10
8614.9047819205698033
 20
2266.3705208431338178
 30
0.0
 40
0.6823568629783492
  0
CIRCLE
  5
1155B
  8
0
 10
8614.9047819205698033
 20
2266.3705208431338178
 30
0.0
 40
0.66919432135603
  0
CIRCLE
  5
1155C
  8
0
 10
8614.9047819205698033
 20
2266.3705208431338178
 30
0.0
 40
0.9055118110000002
  0
LINE
  5
1155D
  8
0
 10
8614.8260320481185772
 20
2266.9374458537640749
 30
0.0
 11
8614.8451241130132985
 21
2266.9374468412388524
 31
0.0
  0
LINE
  5
1155E
  8
0
 10
8614.8248634367682826
 20
2266.929571777889123
 30
0.0
 11
8614.8439488683234231
 21
2266.9295727650551271
 31
0.0
  0
ARC
  5
1155F
  8
0
 10
8614.7777627980321995
 20
2266.7672972641548768
 30
0.0
 40
0.0357682829424192
 50
312.2636185646803142
 51
35.9433107316393006
  0
LINE
  5
11560
  8
0
 10
8614.819829103167649
 20
2265.8472577680417999
 30
0.0
 11
8614.838873176377092
 21
2265.8472587531928184
 31
0.0
  0
LINE
  5
11561
  8
0
 10
8614.8193381684359338
 20
2265.8508313214288137
 30
0.0
 11
8614.8383795495738013
 21
2265.8508323063369971
 31
0.0
  0
ARC
  5
11562
  8
0
 10
8614.7778029194341798
 20
2265.973723132492978
 30
0.0
 40
0.0357736647304911
 50
324.0835436709418786
 51
47.7245870906167795
  0
LINE
  5
11563
  8
0
 10
8614.7916569779263227
 20
2266.6142858352159237
 30
0.0
 11
8614.8105545177368185
 21
2266.6142868140527753
 31
0.0
  0
LINE
  5
11564
  8
0
 10
8614.7907063622187707
 20
2266.5988620854991495
 30
0.0
 11
8614.8095982527811429
 21
2266.598859041544074
 31
0.0
  0
LINE
  5
11565
  8
0
 10
8614.7916886061648256
 20
2266.1267440491451453
 30
0.0
 11
8614.8105803990565619
 21
2266.1267450250088586
 31
0.0
  0
LINE
  5
11566
  8
0
 10
8614.7907359438177082
 20
2266.1421684367142007
 30
0.0
 11
8614.8096226932466379
 21
2266.1421694136388396
 31
0.0
  0
ARC
  5
11568
  8
0
 10
8608.8252714511490922
 20
2268.4398746214160383
 30
0.0
 40
1.1540949818721971
 50
98.0900480044355447
 51
170.883584965890492
  0
ARC
  5
11569
  8
0
 10
8672.4201210939590965
 20
2253.5584143014880283
 30
0.0
 40
64.6946368204532831
 50
177.835060275342812
 51
179.1754454000347891
  0
ARC
  5
1156A
  8
0
 10
8669.3180950156965991
 20
2253.6276969555519827
 30
0.0
 40
61.5920372939210665
 50
180.8080894105549135
 51
181.7931978973570892
  0
ARC
  5
1156B
  8
0
 10
8580.2795554992608231
 20
2255.8049690884267875
 30
0.0
 40
27.4928150216577016
 50
0.4113312137142671
 51
4.5492656169357701
  0
LINE
  5
1156C
  8
0
 10
8607.6857544725371554
 20
2268.6227305281790905
 30
0.0
 11
8607.6857544725371554
 21
2257.9855964413409311
 31
0.0
  0
LINE
  5
1156D
  8
0
 10
8607.7321834953690995
 20
2254.4894151454031999
 30
0.0
 11
8607.7321834953690995
 21
2252.7590426939850659
 31
0.0
  0
LINE
  5
1156F
  8
0
 10
8621.1467073314906884
 20
2269.5824841846338131
 30
0.0
 11
8608.6628565096489183
 21
2269.5824841846338131
 31
0.0
  0
ARC
  5
11570
  8
0
 10
8608.9142659852641373
 20
2268.7660062728427874
 30
0.0
 40
0.3290254508913278
 50
90.0001618674375123
 51
179.9968481938020943
  0
ARC
  5
11571
  8
0
 10
8609.2848200804946828
 20
2263.9753572796198569
 30
0.0
 40
0.6998029571523482
 50
180.0320863165983098
 51
269.9263812708160799
  0
LINE
  5
11572
  8
0
 10
8608.9142650557278102
 20
2269.0950317237329728
 30
0.0
 11
8620.8952987854117964
 21
2269.0950317237329728
 31
0.0
  0
LINE
  5
11573
  8
0
 10
8608.5852405348687171
 20
2268.766024372333959
 30
0.0
 11
8608.5850172330774512
 21
2263.974965381678885
 31
0.0
  0
LINE
  5
11574
  8
0
 10
8621.2245387882703653
 20
2263.9749695353339121
 30
0.0
 11
8621.224322925112574
 21
2268.7660164503549822
 31
0.0
  0
LINE
  5
11575
  8
0
 10
8609.283920911471796
 20
2263.2755549001340114
 30
0.0
 11
8620.5256443130056141
 21
2263.2755491567831996
 31
0.0
  0
ARC
  5
11576
  8
0
 10
8608.9447391537887597
 20
2268.6967078025418232
 30
0.0
 40
0.8871629294313294
 50
93.2037592077207506
 51
175.5168561590444938
  0
LINE
  5
11577
  8
0
 10
8608.0602906120948319
 20
2268.7660536059947844
 30
0.0
 11
8608.0602906120948319
 21
2263.9553754010080411
 31
0.0
  0
LINE
  5
11578
  8
0
 10
8609.2839179448692448
 20
2262.786394290933913
 30
0.0
 11
8620.5256459428692324
 21
2262.7863942838348521
 31
0.0
  0
ARC
  5
11579
  8
0
 10
8609.3145248575929145
 20
2264.0433365844660329
 30
0.0
 40
1.257314881951122
 50
184.0116639129323914
 51
268.605106650782318
  0
LINE
  5
1157A
  8
0
 10
8621.7492732290447748
 20
2268.7660536059947844
 30
0.0
 11
8621.7492732290447748
 21
2263.9553754010080411
 31
0.0
  0
ARC
  5
1157B
  8
0
 10
8614.8930880463303765
 20
2245.6271018616621404
 30
0.0
 40
4.9723790602290521
 50
270.1347464161123071
 51
311.5753641193646786
  0
ARC
  5
1157C
  8
0
 10
8609.3487983729137341
 20
2250.9016157777168701
 30
0.0
 40
12.6139965822736606
 50
314.5173009643114028
 51
346.7291773384533826
  0
ARC
  5
1157D
  8
0
 10
8603.0358780625756481
 20
2252.02857773705
 30
0.0
 40
19.0202975774333503
 50
347.7904568844148798
 51
359.0112229736835729
  0
ARC
  5
1157F
  8
0
 10
8620.9839007745376875
 20
2268.4394759271722251
 30
0.0
 40
1.154544867735096
 50
9.1328716182626142
 51
81.8934954113994564
  0
ARC
  5
11580
  8
0
 10
8560.6556968541099195
 20
2253.6245320770958642
 30
0.0
 40
61.4277724296706324
 50
0.8067326067410657
 51
2.2184174141121371
  0
ARC
  5
11581
  8
0
 10
8560.4914688254430075
 20
2253.6276969555519827
 30
0.0
 40
61.5920372939210665
 50
358.2068021026428255
 51
359.191910589445115
  0
ARC
  5
11582
  8
0
 10
8649.8954923579913157
 20
2255.7825206186939795
 30
0.0
 40
27.8589288944031317
 50
175.4643309939719984
 51
179.5479047616792911
  0
LINE
  5
11583
  8
0
 10
8622.0773803457686881
 20
2254.4894151454031999
 30
0.0
 11
8622.0773803457686881
 21
2252.7590426939850659
 31
0.0
  0
ARC
  5
11585
  8
0
 10
8620.8648333869823546
 20
2268.6967166986328266
 30
0.0
 40
0.8871535610849484
 50
4.4826149730191212
 51
86.7967696599936858
  0
ARC
  5
11586
  8
0
 10
8620.4950389672212623
 20
2264.04333659269696
 30
0.0
 40
1.2573148988089919
 50
271.3948961989275972
 51
355.9883357649611071
  0
ARC
  5
11587
  8
0
 10
8620.8952981040638406
 20
2268.7660069025469056
 30
0.0
 40
0.3290248211869808
 50
0.0016626377775822
 51
89.9998813507887263
  0
ARC
  5
11588
  8
0
 10
8620.524738984697251
 20
2263.9753484773427772
 30
0.0
 40
0.6997999061706021
 50
270.0741233389056788
 51
359.9689743044320949
  0
LINE
  5
11589
  8
0
 10
8622.1238093686024513
 20
2268.6227305281790905
 30
0.0
 11
8622.1238093686024513
 21
2257.9855964413409311
 31
0.0
  0
LINE
  5
1158A
  8
0
 10
8607.7237007670955791
 20
2259.6308399134331921
 30
0.0
 11
8607.7237007670955791
 21
2257.4401352368849984
 31
0.0
  0
ARC
  5
1158B
  8
0
 10
8621.1949834623992501
 20
2259.4727125532431273
 30
0.0
 40
0.9048042575498849
 50
10.0649342409662808
 51
86.99684737352068
  0
LINE
  5
1158C
  8
0
 10
8622.0858630740440276
 20
2259.6308399134331921
 30
0.0
 11
8622.0858630740440276
 21
2257.4391552292381675
 31
0.0
  0
ENDSEC
  0
EOF
