  0
SECTION
  2
HEADER
  9
$ACADVER
  1
AC1009
  9
$INSBASE
 10
3320.3990896705508931
 20
272.4170434157080081
 30
0.0
  9
$EXTMIN
 10
3315.9724742124899421
 20
256.1270168240619114
 30
-0.0015258207003583
  9
$EXTMAX
 10
3326.3092000712181289
 20
296.5240329366184824
 30
0.0000000349246037
  9
$LIMMIN
 10
0.0
 20
0.0
  9
$LIMMAX
 10
11.6929133858000007
 20
8.2677165353999982
  9
$ORTHOMODE
 70
     0
  9
$REGENMODE
 70
     1
  9
$FILLMODE
 70
     1
  9
$QTEXTMODE
 70
     0
  9
$MIRRTEXT
 70
     0
  9
$DRAGMODE
 70
     2
  9
$LTSCALE
 40
0.6431102362
  9
$OSMODE
 70
  4095
  9
$ATTMODE
 70
     1
  9
$TEXTSIZE
 40
0.2
  9
$TRACEWID
 40
0.05
  9
$TEXTSTYLE
  7
STANDARD
  9
$CLAYER
  8
0
  9
$CELTYPE
  6
BYLAYER
  9
$CECOLOR
 62
   256
  9
$DIMSCALE
 40
1.0
  9
$DIMASZ
 40
0.1875
  9
$DIMEXO
 40
0.0625
  9
$DIMDLI
 40
0.4443307087
  9
$DIMRND
 40
0.0
  9
$DIMDLE
 40
0.0
  9
$DIMEXE
 40
0.125
  9
$DIMTP
 40
0.01
  9
$DIMTM
 40
0.01
  9
$DIMTXT
 40
2.0
  9
$DIMCEN
 40
0.1052362205
  9
$DIMTSZ
 40
0.0
  9
$DIMTOL
 70
     1
  9
$DIMLIM
 70
     0
  9
$DIMTIH
 70
     1
  9
$DIMTOH
 70
     1
  9
$DIMSE1
 70
     0
  9
$DIMSE2
 70
     0
  9
$DIMTAD
 70
     0
  9
$DIMZIN
 70
     0
  9
$DIMBLK
  1

  9
$DIMASO
 70
     1
  9
$DIMSHO
 70
     1
  9
$DIMPOST
  1
\X
  9
$DIMAPOST
  1

  9
$DIMALT
 70
     1
  9
$DIMALTD
 70
     2
  9
$DIMALTF
 40
25.3999999999999986
  9
$DIMLFAC
 40
1.0
  9
$DIMTOFL
 70
     0
  9
$DIMTVP
 40
0.0
  9
$DIMTIX
 70
     0
  9
$DIMSOXD
 70
     0
  9
$DIMSAH
 70
     0
  9
$DIMBLK1
  1

  9
$DIMBLK2
  1

  9
$DIMSTYLE
  2
STANDARD
  9
$DIMCLRD
 70
     0
  9
$DIMCLRE
 70
     0
  9
$DIMCLRT
 70
     0
  9
$DIMTFAC
 40
1.0
  9
$DIMGAP
 40
0.09
  9
$LUNITS
 70
     2
  9
$LUPREC
 70
     4
  9
$SKETCHINC
 40
0.1
  9
$FILLETRAD
 40
0.0
  9
$AUNITS
 70
     0
  9
$AUPREC
 70
     0
  9
$MENU
  1
.
  9
$ELEVATION
 40
0.0
  9
$PELEVATION
 40
0.0
  9
$THICKNESS
 40
0.0
  9
$LIMCHECK
 70
     0
  9
$BLIPMODE
 70
     0
  9
$CHAMFERA
 40
0.0
  9
$CHAMFERB
 40
0.0
  9
$SKPOLY
 70
     0
  9
$TDCREATE
 40
2458060.468368056230247
  9
$TDUPDATE
 40
2458907.5003240741789341
  9
$TDINDWG
 40
0.5072177083
  9
$TDUSRTIMER
 40
0.5072177083
  9
$USRTIMER
 70
     1
  9
$ANGBASE
 50
0.0
  9
$ANGDIR
 70
     0
  9
$PDMODE
 70
     0
  9
$PDSIZE
 40
0.3125
  9
$PLINEWID
 40
0.0
  9
$COORDS
 70
     1
  9
$SPLFRAME
 70
     0
  9
$SPLINETYPE
 70
     6
  9
$SPLINESEGS
 70
     8
  9
$ATTDIA
 70
     1
  9
$ATTREQ
 70
     1
  9
$HANDLING
 70
     1
  9
$HANDSEED
  5
9BC1
  9
$SURFTAB1
 70
     6
  9
$SURFTAB2
 70
     6
  9
$SURFTYPE
 70
     6
  9
$SURFU
 70
     6
  9
$SURFV
 70
     6
  9
$UCSNAME
  2

  9
$UCSORG
 10
0.0
 20
0.0
 30
0.0
  9
$UCSXDIR
 10
1.0
 20
0.0
 30
0.0
  9
$UCSYDIR
 10
0.0
 20
1.0
 30
0.0
  9
$PUCSNAME
  2

  9
$PUCSORG
 10
0.0
 20
0.0
 30
0.0
  9
$PUCSXDIR
 10
1.0
 20
0.0
 30
0.0
  9
$PUCSYDIR
 10
0.0
 20
1.0
 30
0.0
  9
$USERI1
 70
     0
  9
$USERI2
 70
     0
  9
$USERI3
 70
     0
  9
$USERI4
 70
     0
  9
$USERI5
 70
     0
  9
$USERR1
 40
0.0
  9
$USERR2
 40
0.0
  9
$USERR3
 40
0.0
  9
$USERR4
 40
0.0
  9
$USERR5
 40
0.0
  9
$WORLDVIEW
 70
     1
  9
$SHADEDGE
 70
     3
  9
$SHADEDIF
 70
    70
  9
$TILEMODE
 70
     1
  9
$MAXACTVP
 70
    64
  9
$PLIMCHECK
 70
     0
  9
$PEXTMIN
 10
1.0000000000000000E+20
 20
1.0000000000000000E+20
 30
1.0000000000000000E+20
  9
$PEXTMAX
 10
-1.0000000000000000E+20
 20
-1.0000000000000000E+20
 30
-1.0000000000000000E+20
  9
$PLIMMIN
 10
0.0
 20
0.0
  9
$PLIMMAX
 10
12.0
 20
9.0
  9
$UNITMODE
 70
     0
  9
$VISRETAIN
 70
     1
  9
$PLINEGEN
 70
     0
  9
$PSLTSCALE
 70
     1
  0
ENDSEC
  0
SECTION
  2
TABLES
  0
TABLE
  2
VPORT
 70
     1
  0
VPORT
  2
*ACTIVE
 70
     0
 10
0.0
 20
0.0
 11
1.0
 21
1.0
 12
21.6224045246663117
 22
13.5184951562190996
 13
0.0
 23
0.0
 14
1.0
 24
1.0
 15
0.0
 25
0.0
 16
0.0
 26
0.0
 36
118.2869513038609028
 17
3299.5184326171870453
 27
262.8070297241210938
 37
0.0
 40
40.6559713440473232
 41
2.0470588235294112
 42
50.0
 43
0.0
 44
0.0
 50
0.0
 51
0.0
 71
     0
 72
   100
 73
     1
 74
     1
 75
     0
 76
     0
 77
     0
 78
     0
  0
ENDTAB
  0
TABLE
  2
LTYPE
 70
     2
  0
LTYPE
  2
CONTINUOUS
 70
     0
  3
Solid line
 72
    65
 73
     0
 40
0.0
  0
LTYPE
  2
PHANTOM2
 70
     0
  3
___ _ _ ___ _ _ ___ _ _ ___ _ _
 72
    65
 73
     6
 40
1.25
 49
0.625
 49
-0.125
 49
0.125
 49
-0.125
 49
0.125
 49
-0.125
  0
ENDTAB
  0
TABLE
  2
LAYER
 70
     2
  0
LAYER
  2
0
 70
     0
 62
   255
  6
CONTINUOUS
  0
LAYER
  2
DEFPOINTS
 70
     0
 62
     7
  6
CONTINUOUS
  0
ENDTAB
  0
TABLE
  2
STYLE
 70
     1
  0
STYLE
  2
STANDARD
 70
     0
 40
0.0
 41
0.8
 50
0.0
 71
     0
 42
0.2
  3
txt
  4

  0
ENDTAB
  0
TABLE
  2
VIEW
 70
     0
  0
ENDTAB
  0
TABLE
  2
UCS
 70
     0
  0
ENDTAB
  0
TABLE
  2
APPID
 70
     9
  0
APPID
  2
ACAD
 70
     0
  0
APPID
  2
ACAD_MLEADERVER
 70
     0
  0
APPID
  2
ACAD_EXEMPT_FROM_CAD_STANDARDS
 70
     0
  0
APPID
  2
ACAD_NAV_VCDISPLAY
 70
     0
  0
APPID
  2
ACAECLAYERSTANDARD
 70
     0
  0
APPID
  2
ACCMTRANSPARENCY
 70
     0
  0
APPID
  2
ACAD_DSTYLE_DIMJAG
 70
     0
  0
APPID
  2
ACAD_DSTYLE_DIMTALN
 70
     0
  0
APPID
  2
ACDBATTR
 70
     0
  0
ENDTAB
  0
TABLE
  2
DIMSTYLE
 70
     1
  0
DIMSTYLE
  2
STANDARD
 70
     0
  3

  4

  5

  6

  7

 40
1.0
 41
0.1875
 42
0.0625
 43
0.38
 44
0.125
 45
0.0
 46
0.0
 47
0.01
 48
0.01
140
0.15625
141
0.09
142
0.0
143
25.3999999999999986
144
1.0
145
0.0
146
1.0
147
0.09
 71
     1
 72
     0
 73
     1
 74
     1
 75
     0
 76
     0
 77
     0
 78
     4
170
     0
171
     2
172
     0
173
     0
174
     0
175
     0
176
     0
177
     0
178
     0
  0
ENDTAB
  0
ENDSEC
  0
SECTION
  2
BLOCKS
  0
BLOCK
  8
0
  2
$MODEL_SPACE
 70
     0
 10
0.0
 20
0.0
 30
0.0
  3
$MODEL_SPACE
  1

  0
ENDBLK
  5
21
  8
0
  0
BLOCK
 67
     1
  8
0
  2
$PAPER_SPACE
 70
     0
 10
0.0
 20
0.0
 30
0.0
  3
$PAPER_SPACE
  1

  0
ENDBLK
  5
1D
 67
     1
  8
0
  0
BLOCK
  8
0
  2
_FILLED
 70
     0
 10
0.0
 20
0.0
 30
0.0
  3
_FILLED
  1

  0
SOLID
  5
6F59
  8
0
  6
BYBLOCK
 62
     0
 10
0.0
 20
0.0
 30
0.0
 11
-1.0
 21
0.1666666667
 31
0.0
 12
-1.0
 22
-0.1666666667
 32
0.0
 13
-1.0
 23
-0.1666666667
 33
0.0
  0
ENDBLK
  5
6F5A
  8
0
  6
BYBLOCK
 62
     0
  0
ENDSEC
  0
SECTION
  2
ENTITIES
  0
ATTDEF
  5
3930
  8
DEFPOINTS
 10
3320.3952871766191492
 20
272.4135265519490758
 30
0.0
 40
0.001
  1
K-7686M-4
  3

  2
MODELNUMBER
 70
     0
1001
ACDBATTR
1070
     0
1070
     1
  0
ATTDEF
  5
3931
  8
DEFPOINTS
 10
3320.3952871766191492
 20
272.4118598852824107
 30
0.0
 40
0.001
  1
JULY
  3

  2
TRADENAME
 70
     0
1001
ACDBATTR
1070
     0
1070
     1
  0
ATTDEF
  5
3932
  8
DEFPOINTS
 10
3320.3952871766191492
 20
272.4101932186158024
 30
0.0
 40
0.001
  1
BATH AND SHOWER FAUCET
  3

  2
PRODUCT
 70
     0
1001
ACDBATTR
1070
     0
1070
     1
  0
ARC
  5
92D2
  8
0
 10
3317.4458564076508083
 20
272.4170434157080081
 30
0.0
 40
1.299212672326963
 50
22.2673668677519103
 51
331.5909361168855867
  0
LINE
  5
92D3
  8
0
 10
3317.774254250723061
 20
272.9093524432781805
 30
0.0
 11
3317.5512963532942194
 21
273.0380772525213047
 31
0.0
  0
ARC
  5
92D4
  8
0
 10
3317.4458564074170681
 20
272.4170432641652155
 30
0.0
 40
0.62992126244474
 50
80.3641348255526253
 51
99.6358651272996809
  0
LINE
  5
92D5
  8
0
 10
3317.3404164620519623
 20
273.0380772526081046
 30
0.0
 11
3316.9607451773558751
 21
272.8188739224361825
 31
0.0
  0
ARC
  5
92D6
  8
0
 10
3317.4458561303549686
 20
272.4170433939125928
 30
0.0
 40
0.6299209556549831
 50
140.3641279344302006
 51
159.635867252767099
  0
LINE
  5
92D7
  8
0
 10
3316.8553052265510814
 20
272.636246588207996
 30
0.0
 11
3316.85530517954885
 21
272.1978399454517898
 31
0.0
  0
ARC
  5
92D8
  8
0
 10
3317.4458578676390061
 20
272.4170442618398056
 30
0.0
 40
0.6299230188947452
 50
200.3641719547757134
 51
219.6358501814827946
  0
LINE
  5
92D9
  8
0
 10
3316.9607451722308724
 20
272.0152126024510721
 30
0.0
 11
3317.3404165702681894
 21
271.7960094684451064
 31
0.0
  0
ARC
  5
92DA
  8
0
 10
3317.4458570137999232
 20
272.4170360821221948
 30
0.0
 40
0.6299140751144054
 50
260.3639779182536245
 51
279.6359202288953725
  0
LINE
  5
92DB
  8
0
 10
3317.5512963533510629
 20
271.7960092810080823
 30
0.0
 11
3317.6738136247031434
 21
271.866744289584517
 31
0.0
  0
ARC
  5
92DC
  8
0
 10
3317.4458564076508083
 20
272.4170432557079948
 30
0.0
 40
0.5708661417000009
 50
59.5859830998195221
 51
287.0411723549137264
  0
LINE
  5
92DD
  8
0
 10
3319.0747654814508678
 20
271.7628842830080771
 30
0.0
 11
3317.4092516858818271
 21
271.8863576721382174
 31
0.0
  0
ARC
  5
92DE
  8
0
 10
3317.4291170213978148
 20
272.3978263192400959
 30
0.0
 40
0.5118542844632583
 50
87.947620944595414
 51
267.7757618739867098
  0
LINE
  5
92DF
  8
0
 10
3317.4474481162510529
 20
272.9093522516080839
 30
0.0
 11
3319.0752582496870673
 21
272.9093532063102998
 31
0.0
  0
ARC
  5
92E0
  8
0
 10
3319.0831054097520791
 20
273.5421153989458958
 30
0.0
 40
0.6328108487930127
 50
269.2894864596439106
 51
293.2679721777727195
  0
ARC
  5
92E1
  8
0
 10
3319.2190217632610256
 20
273.176753465232423
 30
0.0
 40
0.2442505228146371
 50
297.8395263735833964
 51
353.2816931848512922
  0
LINE
  5
92E2
  8
0
 10
3319.4615950961110684
 20
273.1481790696170719
 30
0.0
 11
3319.4615950961110684
 21
274.188697842508077
 31
0.0
  0
ARC
  5
92E3
  8
0
 10
3319.5022485578260785
 20
274.1874031176266726
 30
0.0
 40
0.0406740735831087
 50
91.2232830321563739
 51
178.1758698322722978
  0
LINE
  5
92E4
  8
0
 10
3319.5013802194512209
 20
274.228067921208094
 30
0.0
 11
3321.3004332445511864
 21
274.228067921208094
 31
0.0
  0
ARC
  5
92E5
  8
0
 10
3320.4945375530510319
 20
274.1593748238080934
 30
0.0
 40
0.9448818897997897
 50
170.3013886736137863
 51
175.8309076600378944
  0
LINE
  5
92E6
  8
0
 10
3321.296969239603186
 20
274.3185548135080012
 30
0.0
 11
3319.5020758569307873
 21
274.3185548135080012
 31
0.0
  0
ARC
  5
92E7
  8
0
 10
3320.4014767176590794
 20
268.2550307406564798
 30
0.0
 40
7.4973213608971996
 50
90.0182422121899606
 51
96.930022368779774
  0
ARC
  5
92E8
  8
0
 10
3319.5022400503530662
 20
275.6572788583645774
 30
0.0
 40
0.0406556371448105
 50
97.5869076834925266
 51
178.6864960078158049
  0
LINE
  5
92E9
  8
0
 10
3319.4615950961110684
 20
275.6582108059656093
 30
0.0
 11
3319.4615950961110684
 21
274.3587643538489829
 31
0.0
  0
ARC
  5
92EA
  8
0
 10
3319.502122127675193
 20
274.3590830718902112
 30
0.0
 40
0.0405282847955595
 50
180.4505837573221925
 51
269.934585958278376
  0
CIRCLE
  5
92EB
  8
0
 10
3320.3986126651511768
 20
274.9406663464080793
 30
0.0
 40
0.131889763700001
  0
ARC
  5
92EC
  8
0
 10
3320.3990896705508931
 20
272.3644367330263094
 30
0.0
 40
1.429865243246629
 50
78.3507144754591138
 51
101.6492855245409004
  0
ARC
  5
92ED
  8
0
 10
3320.115148098363079
 20
273.7417156130636045
 30
0.0
 40
0.0236220473325309
 50
101.6683994913092022
 51
198.50332097147529
  0
ARC
  5
92EE
  8
0
 10
3320.1898178031888165
 20
273.7667045594341744
 30
0.0
 40
0.1023622039213741
 50
198.50332097147529
 51
268.8467208286994037
  0
ARC
  5
92EF
  8
0
 10
3320.1860142456080212
 20
273.5777664692519124
 30
0.0
 40
0.0866141675434436
 50
359.9999963327244927
 51
88.8467208286993753
  0
LINE
  5
92F0
  8
0
 10
3320.2726284131508692
 20
273.5777664637080875
 30
0.0
 11
3320.2726283859360592
 21
273.1525696133080032
 31
0.0
  0
ARC
  5
92F1
  8
0
 10
3320.2923134240759282
 20
273.1525696120481257
 30
0.0
 40
0.0196850381400605
 50
179.9999963327246064
 51
270.0000828803737249
  0
LINE
  5
92F2
  8
0
 10
3320.2923134525508431
 20
273.1328845739080862
 30
0.0
 11
3320.5049118777510557
 21
273.1328848814392245
 31
0.0
  0
LINE
  5
92F3
  8
0
 10
3320.3198725076508708
 20
273.1328845739080862
 30
0.0
 11
3320.3198725076508708
 21
272.9714672511080948
 31
0.0
  0
LINE
  5
92F4
  8
0
 10
3320.6062595893508842
 20
272.9714672511080948
 30
0.0
 11
3320.1919197517509019
 21
272.9714672511080948
 31
0.0
  0
LINE
  5
92F5
  8
0
 10
3320.1919197517509019
 20
272.9714672511080948
 30
0.0
 11
3320.1919197517509019
 21
272.9479692052515247
 31
0.0
  0
ARC
  5
92F6
  8
0
 10
3320.4579409073990064
 20
265.6322685800961949
 30
0.0
 40
7.3205356970750897
 50
90.4606170848147002
 51
95.741252577098976
  0
ARC
  5
92F7
  8
0
 10
3319.7296342276817995
 20
272.8761828736144821
 30
0.0
 40
0.0401013067682729
 50
95.741252577098976
 51
179.0615890700481998
  0
LINE
  5
92F8
  8
0
 10
3319.689538299394826
 20
272.8768396379081196
 30
0.0
 11
3319.6919730067720593
 21
272.3234007869418178
 31
0.0
  0
ARC
  5
92F9
  8
0
 10
3321.6881262159699872
 20
272.3003036711824052
 30
0.0
 40
1.996286830930563
 50
179.337070826289505
 51
188.3769489488138049
  0
ARC
  5
92FA
  8
0
 10
3320.0091002338158432
 20
272.0508323111076265
 30
0.0
 40
0.2988382009400536
 50
187.9549835851279056
 51
219.7570021812582013
  0
ARC
  5
92FB
  8
0
 10
3319.9415432966447952
 20
272.0242524748804271
 30
0.0
 40
0.2310291586933811
 50
225.4135165933649887
 51
266.1849942463653065
  0
ARC
  5
92FC
  8
0
 10
3320.9075638895751581
 20
249.9691172801587129
 30
0.0
 40
21.8853607054333601
 50
91.3313030931179952
 51
92.3633840080589863
  0
ARC
  5
92FD
  8
0
 10
3320.0870685842951389
 20
270.1805125773676082
 30
0.0
 40
1.6573789118929481
 50
92.8357097219433314
 51
95.5709970732546452
  0
ARC
  5
92FE
  8
0
 10
3319.953631343977122
 20
271.5485409480390899
 30
0.0
 40
0.2828582245018399
 50
95.5709970732546452
 51
99.4717002154743284
  0
ARC
  5
92FF
  8
0
 10
3319.9633947250290475
 20
271.9045938978604795
 30
0.0
 40
0.0954344573597713
 50
233.839776695669002
 51
247.0431752944122081
  0
LINE
  5
9300
  8
0
 10
3319.9261717202512045
 20
271.8300631394080824
 30
0.0
 11
3319.9261717202512045
 21
271.3100499281081284
 31
0.0
  0
LINE
  5
9301
  8
0
 10
3319.9261717202512045
 20
271.3100499281081284
 30
0.0
 11
3319.9458567594510896
 21
271.2903648397079905
 31
0.0
  0
LINE
  5
9302
  8
0
 10
3319.9458567594510896
 20
271.2903648397079905
 30
0.0
 11
3320.8523225816511513
 21
271.2903648397079905
 31
0.0
  0
LINE
  5
9303
  8
0
 10
3319.9655417990511523
 20
271.7538791876079927
 30
0.0
 11
3319.9655417990511523
 21
271.5579615649079983
 31
0.0
  0
ARC
  5
9304
  8
0
 10
3320.4737036652618372
 20
269.2009609107337837
 30
0.0
 40
2.50627591633548
 50
91.7059968199507836
 51
98.1115180362054815
  0
ARC
  5
9305
  8
0
 10
3320.1980557858460088
 20
271.1072768393131014
 30
0.0
 40
0.5801512632225152
 50
97.7255161088991144
 51
113.6270529671112968
  0
ARC
  5
9306
  8
0
 10
3320.4098669918121232
 20
269.8811649234773995
 30
0.0
 40
1.7753418302739079
 50
90.347819673286665
 51
99.1880389038968957
  0
ARC
  5
9307
  8
0
 10
3320.2204302995428407
 20
271.0667061677315814
 30
0.0
 40
0.5747677886617016
 50
99.416844704608522
 51
109.8689206391102005
  0
ARC
  5
9308
  8
0
 10
3320.0832722068098519
 20
271.4462443408560262
 30
0.0
 40
0.1712066814417057
 50
109.8689206391102005
 51
127.6096612391382052
  0
ARC
  5
9309
  8
0
 10
3319.9997873900738341
 20
271.5546137792752006
 30
0.0
 40
0.0344088385904249
 50
127.6096612391382052
 51
174.4166116496897132
  0
ARC
  5
930A
  8
0
 10
3319.9921459592819701
 20
271.558703464307996
 30
0.0
 40
0.0266145027435765
 50
181.5973701234327109
 51
217.4178983931481923
  0
ARC
  5
930B
  8
0
 10
3320.1260076333928737
 20
271.7307243979939244
 30
0.0
 40
0.2438058679404948
 50
230.5243693710945081
 51
261.5792853475289803
  0
ARC
  5
930C
  8
0
 10
3320.3602337065390202
 20
272.7803187534519225
 30
0.0
 40
1.3186939595677101
 50
258.1883942782225745
 51
267.9164501984860181
  0
ARC
  5
930D
  8
0
 10
3320.4652005039338292
 20
275.3233285976951947
 30
0.0
 40
3.8638588394756659
 50
267.7319559724131182
 51
269.0196182796374273
  0
ARC
  5
930E
  8
0
 10
3320.4225647010780449
 20
269.9624753536780872
 30
0.0
 40
1.68608725406678
 50
90.7977426005813442
 51
99.6752655273985511
  0
ARC
  5
930F
  8
0
 10
3320.2198511456322194
 20
271.1711674316281915
 30
0.0
 40
0.4605305321211251
 50
100.0867322698510975
 51
111.0371624622033977
  0
ARC
  5
9310
  8
0
 10
3320.1067932728738015
 20
271.4651232381809791
 30
0.0
 40
0.1455827605801429
 50
111.0371624622033977
 51
127.9288075395101032
  0
ARC
  5
9311
  8
0
 10
3320.0344206814070276
 20
271.557993556507995
 30
0.0
 40
0.0278428437216839
 50
127.9288075395101032
 51
225.6605066965977926
  0
ARC
  5
9312
  8
0
 10
3320.1690132498661114
 20
271.7651178045211964
 30
0.0
 40
0.2743687569153121
 50
235.8418901231102041
 51
260.6890397929471987
  0
ARC
  5
9313
  8
0
 10
3320.3549188748320375
 20
272.6184319975354242
 30
0.0
 40
1.147416887125728
 50
258.4215998360666049
 51
266.6379120173667729
  0
ARC
  5
9314
  8
0
 10
3320.4271636262710672
 20
273.7636112742923729
 30
0.0
 40
2.2948673554893171
 50
266.5140656978441029
 51
269.2990621891858041
  0
ARC
  5
9315
  8
0
 10
3320.0859186466218489
 20
271.5968755691715728
 30
0.0
 40
0.070778350755237
 50
193.8932402759299976
 51
239.3357511744962949
  0
ARC
  5
9316
  8
0
 10
3320.2236338065467862
 20
271.8440338573503254
 30
0.0
 40
0.3536937867498584
 50
240.565975546199212
 51
262.7536363072445056
  0
ARC
  5
9317
  8
0
 10
3320.3753167595891682
 20
272.6892082614583046
 30
0.0
 40
1.2120444293720161
 50
260.6796189228962248
 51
267.3689607842181886
  0
ARC
  5
9318
  8
0
 10
3320.4175484582501667
 20
273.5722936919505059
 30
0.0
 40
2.0961382139417131
 50
267.3238628745953065
 51
269.4954415254230184
  0
ARC
  5
9319
  8
0
 10
3320.4496459060410416
 20
269.5803550881897195
 30
0.0
 40
2.0622611351045039
 50
91.4047440895226799
 51
96.4341937859616962
  0
ARC
  5
931A
  8
0
 10
3320.3096161645730717
 20
270.8810877582571948
 30
0.0
 40
0.7540585006018633
 50
96.9368263148877389
 51
105.0088464437043001
  0
ARC
  5
931B
  8
0
 10
3320.1786700700799884
 20
271.3694835910462757
 30
0.0
 40
0.2484130030954901
 50
105.0088464437043001
 51
119.1505972450345041
  0
ARC
  5
931C
  8
0
 10
3320.0832859198121696
 20
271.5404995195660831
 30
0.0
 40
0.0525952716970996
 50
119.1505972450345041
 51
145.3918609956785986
  0
ARC
  5
931D
  8
0
 10
3320.0571078291391132
 20
271.5585640635836739
 30
0.0
 40
0.0207892945571875
 50
145.3918609956785986
 51
197.0615763659932895
  0
ARC
  5
931E
  8
0
 10
3320.0660195308969378
 20
271.5614193215247951
 30
0.0
 40
0.0301467418689849
 50
197.2799726164197125
 51
237.4989726991620103
  0
LINE
  5
931F
  8
0
 10
3320.0049118777510557
 20
271.2903648397079905
 30
0.0
 11
3320.0049118777510557
 21
271.2116247314081079
 31
0.0
  0
LINE
  5
9320
  8
0
 10
3320.8500481019509607
 20
271.2116247314081079
 30
0.0
 11
3319.9481312391508254
 21
271.2116247314081079
 31
0.0
  0
LINE
  5
9321
  8
0
 10
3319.9481312391508254
 20
271.2116247314081079
 30
0.0
 11
3319.9481312391508254
 21
270.8572940227081176
 31
0.0
  0
LINE
  5
9322
  8
0
 10
3319.9481312391508254
 20
270.8572940227081176
 30
0.0
 11
3320.8500481019509607
 21
270.8572940227081176
 31
0.0
  0
LINE
  5
9323
  8
0
 10
3320.0049118777510557
 20
270.8572940227081176
 30
0.0
 11
3320.0049196901509276
 21
270.7785538652080959
 31
0.0
  0
LINE
  5
9324
  8
0
 10
3320.0049196901509276
 20
270.7785538652080959
 30
0.0
 11
3320.7932596509508585
 21
270.7785538652080959
 31
0.0
  0
LINE
  5
9325
  8
0
 10
3320.1039895711510326
 20
270.7785538652080959
 30
0.0
 11
3320.1039895711510326
 21
270.189110430608082
 31
0.0
  0
LINE
  5
9326
  8
0
 10
3320.1039895711510326
 20
270.189110430608082
 30
0.0
 11
3320.6941897699512083
 21
270.189110430608082
 31
0.0
  0
ARC
  5
9327
  8
0
 10
3320.0032009065757848
 20
271.6707344322446147
 30
0.0
 40
0.0912757291075095
 50
114.3674006061237947
 51
142.2213457222310069
  0
ARC
  5
9328
  8
0
 10
3319.9519432302768109
 20
271.7115516266284203
 30
0.0
 40
0.0257717461391511
 50
144.1339396944644022
 51
206.0758345761144881
  0
ARC
  5
9329
  8
0
 10
3319.9989329526788424
 20
271.7453680121927846
 30
0.0
 40
0.0834110899335129
 50
212.7674420249630032
 51
246.4017956860805896
  0
ARC
  5
932A
  8
0
 10
3319.2972863738527849
 20
273.9471340502910266
 30
0.0
 40
2.1955544506919278
 50
264.1824894055528148
 51
271.9014378506366256
  0
LINE
  5
932B
  8
0
 10
3319.3701354409508895
 20
271.7527885079081216
 30
0.0
 11
3319.9261717202512045
 21
271.752542517761583
 31
0.0
  0
LINE
  5
932C
  8
0
 10
3321.3013070500510366
 20
275.697578585308122
 30
0.0
 11
3319.4968722910512042
 21
275.697578585308122
 31
0.0
  0
ARC
  5
932D
  8
0
 10
3319.8666270184830864
 20
275.6578844012921081
 30
0.0
 40
0.0426690675963625
 50
111.5214820528528037
 51
197.5116998089316098
  0
ARC
  5
932E
  8
0
 10
3319.956882673941891
 20
275.6909829826695955
 30
0.0
 40
0.1387712376902583
 50
199.3314285454048047
 51
244.7614247816958084
  0
ARC
  5
932F
  8
0
 10
3320.1665165206350139
 20
276.1357001609194981
 30
0.0
 40
0.6304212334286661
 50
244.7614247816958084
 51
265.8356103372267967
  0
ARC
  5
9330
  8
0
 10
3320.4097482418737854
 20
279.4763102614953141
 30
0.0
 40
3.9798745491633341
 50
265.8356103372267967
 51
269.8465549919059754
  0
ARC
  5
9331
  8
0
 10
3324.4430176240412038
 20
293.9534286033522221
 30
0.0
 40
2.5600377680934812
 50
90.9938719938994609
 51
112.7076598930248963
  0
ARC
  5
9332
  8
0
 10
3324.0985111293921364
 20
294.8606796228423832
 30
0.0
 40
1.5904518555536811
 50
113.8757727234896038
 51
137.2820960969253861
  0
ARC
  5
9333
  8
0
 10
3323.7185919834992092
 20
295.2114787913454279
 30
0.0
 40
1.0733458567114511
 50
137.2820960969253861
 51
153.0049225282778877
  0
ARC
  5
9334
  8
0
 10
3323.6208646837308152
 20
295.2499878096667771
 30
0.0
 40
0.9688386936405118
 50
152.4107760107293075
 51
176.5452908301197112
  0
LINE
  5
9335
  8
0
 10
3322.6537866181511163
 20
295.3083695651080802
 30
0.0
 11
3322.6328670114990018
 21
294.8464585054496183
 31
0.0
  0
ARC
  5
9336
  8
0
 10
3324.4481958702449447
 20
293.6536079995739783
 30
0.0
 40
2.4703722938549979
 50
91.1500714629456041
 51
117.6429632345428047
  0
ARC
  5
9337
  8
0
 10
3323.9773846011898968
 20
294.5838744273102066
 30
0.0
 40
1.4279264555089239
 50
118.2262267641982021
 51
147.4041032097169932
  0
ARC
  5
9338
  8
0
 10
3323.7985322330628151
 20
294.793989967459197
 30
0.0
 40
1.166845472306159
 50
151.368455739312509
 51
177.4227608939679897
  0
ARC
  5
9339
  8
0
 10
3323.6162028165331321
 20
294.8732968531130041
 30
0.0
 40
0.9837019885944952
 50
181.5633951162500921
 51
200.7697246752981073
  0
ARC
  5
933A
  8
0
 10
3324.0468383792999703
 20
295.1519059214379013
 30
0.0
 40
1.4890570866221979
 50
204.9210498355610923
 51
253.3119827899703012
  0
ARC
  5
933B
  8
0
 10
3323.4826135759990393
 20
293.3066557987298779
 30
0.0
 40
0.4406257594706916
 50
43.6876632594738226
 51
71.9362705329434959
  0
ARC
  5
933C
  8
0
 10
3323.5962850739820169
 20
293.4261734232923118
 30
0.0
 40
0.2759874276570863
 50
357.7132840411683219
 51
42.0454759944664289
  0
LINE
  5
933D
  8
0
 10
3323.8720527253508408
 20
293.4151614896081242
 30
0.0
 11
3323.7795411143001729
 21
289.1941262887081052
 31
0.0
  0
ARC
  5
933E
  8
0
 10
3323.9430203762090059
 20
289.1992259955525242
 30
0.0
 40
0.1635587847950614
 50
181.7867523496763908
 51
243.8562801828396118
  0
ARC
  5
933F
  8
0
 10
3324.3870025280289155
 20
290.4952893281907791
 30
0.0
 40
1.532395341092722
 50
250.3203751876378931
 51
252.0140795064579891
  0
ARC
  5
9340
  8
0
 10
3324.4262187843978609
 20
290.7055764248493119
 30
0.0
 40
1.6862895724898139
 50
252.4859189113917921
 51
269.0619699484873877
  0
ARC
  5
9341
  8
0
 10
3323.8751470547081226
 20
288.9667581962477811
 30
0.0
 40
0.1377802169054813
 50
71.5521122163920182
 51
83.2570916225738245
  0
LINE
  5
9342
  8
0
 10
3323.8913244475511419
 20
289.1035853870080814
 30
0.0
 11
3323.89102223835107
 21
289.090032956808102
 31
0.0
  0
ARC
  5
9343
  8
0
 10
3324.0235600437531502
 20
289.1155258079909913
 30
0.0
 40
0.1349672379586851
 50
190.8875329375740932
 51
211.2668201130352941
  0
ARC
  5
9344
  8
0
 10
3323.970998915383916
 20
289.0855025924706183
 30
0.0
 40
0.0744749114772634
 50
212.5115924938687044
 51
260.9492070464200992
  0
ARC
  5
9345
  8
0
 10
3324.3492379745439393
 20
297.4057008434688782
 30
0.0
 40
8.4027992261168372
 50
267.3400784742491965
 51
270.3366702068988161
  0
LINE
  5
9346
  8
0
 10
3323.9593769750508727
 20
289.0119505948908909
 30
0.0
 11
3323.9593769750508727
 21
288.8087799071080894
 31
0.0
  0
ARC
  5
9347
  8
0
 10
3323.9790620144508466
 20
288.8087799071080894
 30
0.0
 40
0.0196850393999979
 50
180.0000000000015916
 51
224.4266568344762049
  0
LINE
  5
9348
  8
0
 10
3324.8513683817927813
 20
288.7950004647080959
 30
0.0
 11
3323.9458567561050586
 21
288.7950004647080959
 31
0.0
  0
LINE
  5
9349
  8
0
 10
3323.9458567561050586
 20
288.7950004647080959
 30
0.0
 11
3323.9721038447510182
 21
288.1650769151081022
 31
0.0
  0
ARC
  5
934A
  8
0
 10
3324.3177906494611307
 20
286.9432698295566979
 30
0.0
 40
1.4258926435840369
 50
104.3063813100553006
 51
126.9674514879815064
  0
ARC
  5
934B
  8
0
 10
3323.4948248668511042
 20
288.0366740994061274
 30
0.0
 40
0.0573877745122817
 50
126.9674514879577032
 51
177.2104656340243878
  0
ARC
  5
934C
  8
0
 10
3329.694521201985026
 20
288.2039659336427917
 30
0.0
 40
6.2591780983916214
 50
181.505977189916706
 51
190.4125435476080099
  0
ARC
  5
934D
  8
0
 10
3325.0478585071109592
 20
287.2934931195300123
 30
0.0
 40
1.525499171912764
 50
188.3213001241728932
 51
217.1918204334087079
  0
ARC
  5
934E
  8
0
 10
3324.3596410512700459
 20
286.8240258960088909
 30
0.0
 40
0.6947405528035108
 50
220.6603655731532001
 51
250.2004227000589935
  0
ARC
  5
934F
  8
0
 10
3324.4509938169621819
 20
286.1498268388140218
 30
0.0
 40
2.1274441831083482
 50
103.0745291035454017
 51
107.5703479833860001
  0
ARC
  5
9350
  8
0
 10
3323.839540692583796
 20
288.1244033310617283
 30
0.0
 40
0.061819290853118
 50
119.8532122087070064
 51
144.7061135319015079
  0
LINE
  5
9351
  8
0
 10
3323.7890838341509152
 20
288.1601206960079935
 30
0.0
 11
3323.7844944239509459
 21
287.9765431051080782
 31
0.0
  0
LINE
  5
9352
  8
0
 10
3323.7844944163512082
 20
287.9765399463080939
 30
0.0
 11
3323.7849926682738442
 21
286.8024664715823064
 31
0.0
  0
ARC
  5
9353
  8
0
 10
3323.7655171136880199
 20
286.8024582065693266
 30
0.0
 40
0.019475556340069
 50
269.3845180929686762
 51
0.0243151142042894
  0
LINE
  5
9354
  8
0
 10
3323.7653079076671929
 20
286.7829837739050163
 30
0.0
 11
3323.7457863737267871
 21
286.7831934859156036
 31
0.0
  0
ARC
  5
9355
  8
0
 10
3323.7464353579421186
 20
286.8436057023794774
 30
0.0
 40
0.0604157022519022
 50
194.287274697906895
 51
269.3845180929686762
  0
LINE
  5
9356
  8
0
 10
3323.6878882791897922
 20
286.8286960864160733
 30
0.0
 11
3323.6390509412508436
 21
287.9325810381080828
 31
0.0
  0
ARC
  5
9357
  8
0
 10
3323.3142694965799819
 20
286.6569730123463842
 30
0.0
 40
1.3163049882874931
 50
75.7154781954032217
 51
79.1503038675774491
  0
ARC
  5
9358
  8
0
 10
3323.578569557298124
 20
288.1039827593704103
 30
0.0
 40
0.1551175837356919
 50
204.5769599678434929
 51
263.8835510520207208
  0
ARC
  5
9359
  8
0
 10
3323.6907572474519839
 20
287.8917704279165832
 30
0.0
 40
0.0658714506079389
 50
109.1572092816547013
 51
141.7167715851416858
  0
LINE
  5
935A
  8
0
 10
3323.6691407893508767
 20
287.9539940307080883
 30
0.0
 11
3323.7583939315518364
 21
287.9803302343080986
 31
0.0
  0
ARC
  5
935B
  8
0
 10
3323.7650485127201136
 20
287.9599538663904923
 30
0.0
 40
0.0214354804016094
 50
24.8606494578511104
 51
108.0861724872931973
  0
LINE
  5
935C
  8
0
 10
3324.9301087281510263
 20
288.1650768711081128
 30
0.0
 11
3323.867210957151201
 21
288.1650768693081091
 31
0.0
  0
ARC
  5
935D
  8
0
 10
3323.8672109571839428
 20
288.1452972487330157
 30
0.0
 40
0.0197796205751022
 50
90.0000000970292149
 51
179.7260197222007889
  0
LINE
  5
935E
  8
0
 10
3323.8474315627508986
 20
288.145391831708082
 30
0.0
 11
3323.8473029453189156
 21
288.1184950787238108
 31
0.0
  0
ARC
  5
935F
  8
0
 10
3323.9443934518758397
 20
288.1180308021760084
 30
0.0
 40
0.0970916166119191
 50
179.7260197222024942
 51
201.1276586185736051
  0
ARC
  5
9360
  8
0
 10
3324.9445936880520094
 20
288.504530777386492
 30
0.0
 40
1.16937084483668
 50
201.1276586185736051
 51
213.0251873573492958
  0
ARC
  5
9361
  8
0
 10
3323.8376287154378588
 20
288.0772114873522014
 30
0.0
 40
0.1030019824879642
 50
31.1412332818798809
 51
58.5444808158062386
  0
LINE
  5
9362
  8
0
 10
3323.9257876112801569
 20
288.1304789021598936
 30
0.0
 11
3323.9726765191508093
 21
288.0710162071080731
 31
0.0
  0
ARC
  5
9363
  8
0
 10
3323.9947111968190256
 20
288.0928524732174196
 30
0.0
 40
0.031021759098508
 50
224.740874791471299
 51
270.8814989149532266
  0
LINE
  5
9364
  8
0
 10
3323.9951884495671948
 20
288.0618343854720251
 30
0.0
 11
3324.0322660420511056
 21
288.0618343115081075
 31
0.0
  0
LINE
  5
9365
  8
0
 10
3324.0322660420511056
 20
288.0618343115081075
 30
0.0
 11
3324.0442819565510035
 21
288.057042343237697
 31
0.0
  0
ARC
  5
9366
  8
0
 10
3323.2535672006360983
 20
287.6904816105461009
 30
0.0
 40
0.7322380456413728
 50
9.4582303652656616
 51
13.9667757225704303
  0
ARC
  5
9367
  8
0
 10
3323.8693878407389093
 20
287.8788283067913198
 30
0.0
 40
0.1263368143144499
 50
327.4255664947472155
 51
354.724862229174903
  0
LINE
  5
9368
  8
0
 10
3323.9951895790509298
 20
287.8672130888081142
 30
0.0
 11
3323.9951884495671948
 21
288.0618343854720251
 31
0.0
  0
LINE
  5
9369
  8
0
 10
3323.8473939102518671
 20
288.1375178604080816
 30
0.0
 11
3323.835620539151023
 21
288.1375178604080816
 31
0.0
  0
ARC
  5
936A
  8
0
 10
3323.835620539151023
 20
288.0981477817081213
 30
0.0
 40
0.0393700786999993
 50
90.0
 51
180.0000001455306915
  0
LINE
  5
936B
  8
0
 10
3323.7962504604511196
 20
288.0981477816080769
 30
0.0
 11
3323.7962504639108374
 21
286.7359443731081114
 31
0.0
  0
ARC
  5
936C
  8
0
 10
3323.8356218586332034
 20
286.735944373208099
 30
0.0
 40
0.0393713947221146
 50
180.0000001455323968
 51
269.9980798049663235
  0
LINE
  5
936D
  8
0
 10
3323.835620539151023
 20
286.6965729785080725
 30
0.0
 11
3324.0852847678129365
 21
286.6965646113296202
 31
0.0
  0
ARC
  5
936E
  8
0
 10
3324.0853032221780268
 20
287.2472155906738749
 30
0.0
 40
0.5506509796534618
 50
269.9980798049663235
 51
274.0621902002060892
  0
ARC
  5
936F
  8
0
 10
3323.9174582836890295
 20
288.0642317300972195
 30
0.0
 40
0.103092219231447
 50
34.9050715820181523
 51
78.0153331212419374
  0
LINE
  5
9370
  8
0
 10
3324.00200433935197
 20
288.1232230018081282
 30
0.0
 11
3324.0442819565510035
 21
288.0763448628081278
 31
0.0
  0
LINE
  5
9371
  8
0
 10
3324.0442819565510035
 20
288.0763448628081278
 30
0.0
 11
3324.0442819565510035
 21
286.836167878408105
 31
0.0
  0
ARC
  5
9372
  8
0
 10
3324.0212192932531252
 20
286.8360371737509809
 30
0.0
 40
0.023063033670855
 50
326.1768276556809951
 51
0.3247129328077733
  0
ARC
  5
9373
  8
0
 10
3324.2728389828371292
 20
286.667445064278013
 30
0.0
 40
0.2798160966154207
 50
146.1768276556809099
 51
162.1973215308433112
  0
ARC
  5
9374
  8
0
 10
3324.0478287314667796
 20
286.7396995559089987
 30
0.0
 40
0.043489363504815
 50
162.1973215308447891
 51
207.5316655698906061
  0
ARC
  5
9375
  8
0
 10
3324.0448179804839128
 20
286.7438409961781076
 30
0.0
 40
0.043032911083374
 50
214.2899170507639894
 51
257.5981339475956133
  0
ARC
  5
9376
  8
0
 10
3324.0811564270829876
 20
286.8835271656312784
 30
0.0
 40
0.1873443199156131
 50
255.918725848274903
 51
266.339030048013683
  0
LINE
  5
9377
  8
0
 10
3323.9758511106510923
 20
287.8108069026080784
 30
0.0
 11
3324.0442819565510035
 21
287.8107483717080868
 31
0.0
  0
LINE
  5
9378
  8
0
 10
3323.7849926682738442
 20
286.8024664715823064
 30
0.0
 11
3323.7889039766710084
 21
286.6296019266322901
 31
0.0
  0
ARC
  5
9379
  8
0
 10
3323.8850680088157787
 20
286.6420854091318802
 30
0.0
 40
0.096970915298374
 50
187.3964582428347114
 51
218.272357125752194
  0
LINE
  5
937A
  8
0
 10
3323.8089385386620052
 20
286.5820215915051108
 30
0.0
 11
3323.857584682551078
 21
286.5820211224079799
 31
0.0
  0
ARC
  5
937B
  8
0
 10
3324.6640498631732044
 20
287.5647275667777762
 30
0.0
 40
1.271258448688934
 50
230.6257370641328919
 51
244.8765133224133024
  0
LINE
  5
937C
  8
0
 10
3324.0049118777510557
 20
288.1650768695412808
 30
0.0
 11
3324.0049118777510557
 21
288.1607484070465262
 31
0.0
  0
LINE
  5
937D
  8
0
 10
3324.7960381432508257
 20
288.1607484152079905
 30
0.0
 11
3324.0011871871511175
 21
288.1607484070081
 31
0.0
  0
ARC
  5
937E
  8
0
 10
3324.0005994001808176
 20
288.1256824861143855
 30
0.0
 40
0.0350708468908382
 50
89.0396784649942532
 51
136.7203328678920116
  0
LINE
  5
937F
  8
0
 10
3324.0352686935361817
 20
288.0863389217080908
 30
0.0
 11
3324.761956444362113
 21
288.0863389217080908
 31
0.0
  0
LINE
  5
9380
  8
0
 10
3324.0442819565510035
 20
287.6138979942080027
 30
0.0
 11
3324.7529433738509397
 21
287.6138979942080027
 31
0.0
  0
LINE
  5
9381
  8
0
 10
3324.1243109037509385
 20
287.6138979693080842
 30
0.0
 11
3324.1243109037509385
 21
258.6372955359013872
 31
0.0
  0
LINE
  5
9382
  8
0
 10
3324.6754824392510272
 20
287.6138979942080027
 30
0.0
 11
3324.6754824392510272
 21
258.7716050707081195
 31
0.0
  0
ARC
  5
9383
  8
0
 10
3324.4017235486699064
 20
293.7361220997585178
 30
0.0
 40
2.285667390889063
 50
90.0779842526186911
 51
113.038336228622498
  0
ARC
  5
9384
  8
0
 10
3324.1362203885178133
 20
294.3716073744780033
 30
0.0
 40
1.596968503030195
 50
113.1950414922657018
 51
135.703528012978893
  0
ARC
  5
9385
  8
0
 10
3323.70306149723001
 20
294.7942573629007939
 30
0.0
 40
0.9917746185476261
 50
135.703528012978893
 51
173.8758502294265043
  0
ARC
  5
9386
  8
0
 10
3323.600197891127209
 20
294.8364775005003935
 30
0.0
 40
0.8855368335176647
 50
175.8823622253800067
 51
210.5649504624772987
  0
ARC
  5
9387
  8
0
 10
3323.9426782171908599
 20
295.0485992416755039
 30
0.0
 40
1.288325662252813
 50
210.9426099320303933
 51
237.9621193099075072
  0
ARC
  5
9388
  8
0
 10
3324.3540539236601035
 20
295.7223143049170062
 30
0.0
 40
2.0776768810617638
 50
238.2012131975455134
 51
267.2168219699328802
  0
ARC
  5
9389
  8
0
 10
3324.2492951762660596
 20
293.5552366909926718
 30
0.0
 40
0.0919331443093172
 50
59.1183472558466505
 51
87.5848863489942033
  0
ARC
  5
938A
  8
0
 10
3324.2725118246999045
 20
293.5963395222215127
 30
0.0
 40
0.0447564975669317
 50
6.1578515546496826
 51
57.6184652208542119
  0
ARC
  5
938B
  8
0
 10
3323.7693668118458845
 20
293.5420549486627806
 30
0.0
 40
0.5508214330106899
 50
1.647237966453458
 51
6.1578515546496826
  0
LINE
  5
938C
  8
0
 10
3324.3199606207040233
 20
293.5578887325424944
 30
0.0
 11
3324.3180362598718602
 21
293.3057643738616775
 31
0.0
  0
ARC
  5
938D
  8
0
 10
3324.4507001256001786
 20
293.3027064542245057
 30
0.0
 40
0.1326991037727035
 50
178.679558531146597
 51
185.7159596428726047
  0
ARC
  5
938E
  8
0
 10
3324.7786946118289961
 20
293.3197416762839111
 30
0.0
 40
0.4610273874540482
 50
183.7623312852032882
 51
193.4279445115091107
  0
ARC
  5
938F
  8
0
 10
3324.354301497175129
 20
293.2175601989089841
 30
0.0
 40
0.0245214063478507
 50
191.4775653594356015
 51
266.1501122081907056
  0
LINE
  5
9390
  8
0
 10
3324.3526550645510724
 20
293.1930941279352965
 30
0.0
 11
3324.4445700733472222
 21
293.1930941279352965
 31
0.0
  0
ARC
  5
9391
  8
0
 10
3324.3987524642639073
 20
295.4632703672496064
 30
0.0
 40
1.3011901999929101
 50
266.5886792052922942
 51
269.9938399388943253
  0
ARC
  5
9392
  8
0
 10
3323.8067348149302234
 20
293.9487648856460282
 30
0.0
 40
0.55794034335233
 50
21.2302679259332585
 51
22.73432506240826
  0
ARC
  5
9393
  8
0
 10
3323.8041701667930283
 20
294.0387914477183244
 30
0.0
 40
0.5345077373031436
 50
358.8367215487854196
 51
12.0967551542013094
  0
ARC
  5
9394
  8
0
 10
3313.90757383786422
 20
294.2054601063898076
 30
0.0
 40
10.4325043589579902
 50
356.4412212912586142
 51
359.0250049379396842
  0
ARC
  5
9395
  8
0
 10
3324.4026841472100386
 20
294.4092029704964943
 30
0.0
 40
0.4325800649754951
 50
90.5392936795331167
 51
119.4851281872809068
  0
ARC
  5
9396
  8
0
 10
3324.3033007633421221
 20
294.5814757158831867
 30
0.0
 40
0.2337095442292398
 50
119.0636102518596005
 51
156.6553457408585928
  0
ARC
  5
9397
  8
0
 10
3324.2366893943649302
 20
294.6160813137490777
 30
0.0
 40
0.1589292635056294
 50
158.5942596357367904
 51
189.0621020034899971
  0
ARC
  5
9398
  8
0
 10
3324.2876418122091309
 20
294.6325276659155747
 30
0.0
 40
0.211995345473172
 50
191.2831389574573109
 51
230.7238416450506975
  0
ARC
  5
9399
  8
0
 10
3324.3752205514201705
 20
294.7380620162933837
 30
0.0
 40
0.3491337604309002
 50
230.5621001605107949
 51
259.2372141935878744
  0
ARC
  5
939A
  8
0
 10
3324.4117529260370247
 20
294.9575275566702999
 30
0.0
 40
0.5715835020335928
 50
259.7478445406927108
 51
268.6826888217589158
  0
ARC
  5
939B
  8
0
 10
3324.3994267101397782
 20
295.7662710425245223
 30
0.0
 40
0.072769019930687
 50
90.6410396539869083
 51
142.348646213056611
  0
ARC
  5
939C
  8
0
 10
3324.3880569523857957
 20
295.7778052317430024
 30
0.0
 40
0.0567635222377504
 50
144.5565314423432994
 51
186.6225824968333029
  0
LINE
  5
939D
  8
0
 10
3324.3316721911510285
 20
295.7712587703081226
 30
0.0
 11
3324.3345482905201607
 21
295.7473019555176847
 31
0.0
  0
ARC
  5
939E
  8
0
 10
3324.4014512249950712
 20
295.717375948616791
 30
0.0
 40
0.0853188157580601
 50
91.9066489761305405
 51
125.2459776787329986
  0
ARC
  5
939F
  8
0
 10
3324.3819326746997831
 20
295.7492403691006757
 30
0.0
 40
0.048094144815246
 50
128.1637464582900066
 51
164.2581771271746902
  0
ARC
  5
93A0
  8
0
 10
3324.3745068844968955
 20
295.7519180441752269
 30
0.0
 40
0.0402243397345427
 50
165.0595828774025904
 51
186.5897012995523028
  0
ARC
  5
93A1
  8
0
 10
3324.3854803582121349
 20
295.7537560677764077
 30
0.0
 40
0.0513393716794718
 50
187.222029035095602
 51
226.3595012789969019
  0
ARC
  5
93A2
  8
0
 10
3324.4021792499579533
 20
295.779382971275993
 30
0.0
 40
0.081602046088254
 50
230.2954048281279995
 51
267.4949048260621112
  0
ARC
  5
93A3
  8
0
 10
3324.3987188992728079
 20
295.7331960626254954
 30
0.0
 40
0.0230238032153533
 50
90.2646087770624348
 51
136.4284526165548925
  0
ARC
  5
93A4
  8
0
 10
3324.391696888961178
 20
295.7407359089875172
 30
0.0
 40
0.0127545550090622
 50
139.2270098376490921
 51
204.9155463472887106
  0
ARC
  5
93A5
  8
0
 10
3324.3988748217220746
 20
295.7475097289039923
 30
0.0
 40
0.0223370169678612
 50
212.9433501578203902
 51
269.3272905561826178
  0
ARC
  5
93A6
  8
0
 10
3324.3977984277580617
 20
295.7662710425245223
 30
0.0
 40
0.072769019930687
 50
37.6513537869433819
 51
89.3589603460130775
  0
ARC
  5
93A7
  8
0
 10
3324.4091681855129536
 20
295.7778052317430024
 30
0.0
 40
0.0567635222377504
 50
353.3774175031667255
 51
35.4434685576567432
  0
LINE
  5
93A8
  8
0
 10
3324.4655529467468114
 20
295.7712587703081226
 30
0.0
 11
3324.462676847378134
 21
295.7473019555176847
 31
0.0
  0
ARC
  5
93A9
  8
0
 10
3324.3957739129032234
 20
295.717375948616791
 30
0.0
 40
0.0853188157580601
 50
54.754022321266973
 51
88.0933510238694737
  0
ARC
  5
93AA
  8
0
 10
3324.4152924631989663
 20
295.7492403691006757
 30
0.0
 40
0.048094144815246
 50
15.7418228728252707
 51
51.8362535417099508
  0
ARC
  5
93AB
  8
0
 10
3324.4227182534018539
 20
295.7519180441752269
 30
0.0
 40
0.0402243397345427
 50
353.4102987004476972
 51
14.9404171225974007
  0
ARC
  5
93AC
  8
0
 10
3324.4117447796861597
 20
295.7537560677764077
 30
0.0
 40
0.0513393716794718
 50
313.6404987210029844
 51
352.7779709649028064
  0
ARC
  5
93AD
  8
0
 10
3324.3950458879407961
 20
295.779382971275993
 30
0.0
 40
0.081602046088254
 50
272.5050951739377751
 51
309.7045951718719152
  0
ARC
  5
93AE
  8
0
 10
3324.3985062386259415
 20
295.7331960626254954
 30
0.0
 40
0.0230238032153533
 50
43.5715473834451075
 51
89.7353912229375652
  0
ARC
  5
93AF
  8
0
 10
3324.4055282489371166
 20
295.7407359089875172
 30
0.0
 40
0.0127545550090622
 50
335.0844536527113178
 51
40.7729901623509008
  0
ARC
  5
93B0
  8
0
 10
3324.3983503161762201
 20
295.7475097289039923
 30
0.0
 40
0.0223370169678612
 50
270.6727094438173822
 51
327.0566498421795245
  0
LINE
  5
93B1
  8
0
 10
3323.0239250903791799
 20
272.9093524432781805
 30
0.0
 11
3323.2468829878080214
 21
273.0380772525213047
 31
0.0
  0
ARC
  5
93B2
  8
0
 10
3323.3523229336851728
 20
272.4170432641652155
 30
0.0
 40
0.62992126244474
 50
80.3641348727003049
 51
99.6358651744473747
  0
LINE
  5
93B3
  8
0
 10
3323.4577628790511881
 20
273.0380772526081046
 30
0.0
 11
3323.8374341637459111
 21
272.8188739224361825
 31
0.0
  0
ARC
  5
93B4
  8
0
 10
3323.3523232107468175
 20
272.4170433939125928
 30
0.0
 40
0.6299209556549831
 50
20.3641327472329614
 51
39.6358720655698065
  0
LINE
  5
93B5
  8
0
 10
3323.9428741145511594
 20
272.636246588207996
 30
0.0
 11
3323.9428741615520266
 21
272.1978399454517898
 31
0.0
  0
ARC
  5
93B6
  8
0
 10
3323.35232147346278
 20
272.4170442618398056
 30
0.0
 40
0.6299230188947452
 50
320.3641498185172054
 51
339.6358280452242866
  0
LINE
  5
93B7
  8
0
 10
3323.8374341688709137
 20
272.0152126024510721
 30
0.0
 11
3323.4577627708340515
 21
271.7960094684451064
 31
0.0
  0
ARC
  5
93B8
  8
0
 10
3323.352322327301863
 20
272.4170360821221948
 30
0.0
 40
0.6299140751144054
 50
260.3640797711046275
 51
279.6360220817463755
  0
LINE
  5
93B9
  8
0
 10
3323.246882987751178
 20
271.7960092810080823
 30
0.0
 11
3323.1243657163990974
 21
271.866744289584517
 31
0.0
  0
ARC
  5
93BA
  8
0
 10
3323.3523229334509779
 20
272.4170432557079948
 30
0.0
 40
0.5708661417000009
 50
252.958827645086302
 51
120.4140169001803997
  0
LINE
  5
93BB
  8
0
 10
3321.7234138596509183
 20
271.7628842830080771
 30
0.0
 11
3323.388927655219959
 21
271.8863576721382174
 31
0.0
  0
ARC
  5
93BC
  8
0
 10
3323.3690623197039713
 20
272.3978263192400959
 30
0.0
 40
0.5118542844632583
 50
272.2242381260131765
 51
92.0523790554046144
  0
LINE
  5
93BD
  8
0
 10
3323.350731224851188
 20
272.9093522516080839
 30
0.0
 11
3321.7229210914151736
 21
272.9093532063102998
 31
0.0
  0
ARC
  5
93BE
  8
0
 10
3321.7150739313501617
 20
273.5421153989458958
 30
0.0
 40
0.6328108487930127
 50
246.7320278222271952
 51
270.7105135403560894
  0
ARC
  5
93BF
  8
0
 10
3321.5791575778412152
 20
273.176753465232423
 30
0.0
 40
0.2442505228146371
 50
186.7183068151470025
 51
242.1604736264166036
  0
LINE
  5
93C0
  8
0
 10
3321.3365842449911725
 20
273.1481790696170719
 30
0.0
 11
3321.3365842449911725
 21
274.188697842508077
 31
0.0
  0
ARC
  5
93C1
  8
0
 10
3321.2954492229441712
 20
274.1872088123308231
 30
0.0
 40
0.0411619636268798
 50
2.0731217789872218
 51
83.0453796957767452
  0
ARC
  5
93C2
  8
0
 10
3320.303641788051209
 20
274.1593748238080934
 30
0.0
 40
0.9448818897997897
 50
4.1690923399621029
 51
9.6986113263862261
  0
ARC
  5
93C3
  8
0
 10
3320.3967026234431614
 20
268.2550307406564798
 30
0.0
 40
7.4973213608971996
 50
83.069977631220226
 51
89.9817577878100536
  0
ARC
  5
93C4
  8
0
 10
3321.2959392907491747
 20
275.6572788583645774
 30
0.0
 40
0.0406556371448105
 50
1.31350399218422
 51
82.4130923165074876
  0
LINE
  5
93C5
  8
0
 10
3321.3365842449911725
 20
275.6582108059656093
 30
0.0
 11
3321.3365842449911725
 21
274.3587643538489829
 31
0.0
  0
ARC
  5
93C6
  8
0
 10
3321.2960383415429533
 20
274.3590913481448865
 30
0.0
 40
0.0405472219956363
 50
271.3155331971840951
 51
359.5379314477365824
  0
ARC
  5
93C7
  8
0
 10
3320.6830312427400713
 20
273.7417156130636045
 30
0.0
 40
0.0236220473325309
 50
341.49667902852309
 51
78.3316005086907552
  0
ARC
  5
93C8
  8
0
 10
3320.6083615379129697
 20
273.7667045594341744
 30
0.0
 40
0.1023622039213741
 50
271.1532791713005963
 51
341.49667902852309
  0
ARC
  5
93C9
  8
0
 10
3320.6121650954942197
 20
273.5777664692519124
 30
0.0
 40
0.0866141675434436
 50
91.1532791713006105
 51
180.0000036672753936
  0
LINE
  5
93CA
  8
0
 10
3320.525550927950917
 20
273.5777664637080875
 30
0.0
 11
3320.5255509551661817
 21
273.1525696133080032
 31
0.0
  0
ARC
  5
93CB
  8
0
 10
3320.5058299516422267
 20
273.1525845094113834
 30
0.0
 40
0.0197210091504478
 50
267.3317401233392161
 51
359.9567220964311218
  0
LINE
  5
93CC
  8
0
 10
3320.4783068334509153
 20
273.1328845739080862
 30
0.0
 11
3320.4783068334509153
 21
272.9714672511080948
 31
0.0
  0
LINE
  5
93CD
  8
0
 10
3320.6062595893508842
 20
272.9714672511080948
 30
0.0
 11
3320.6062595893508842
 21
272.9479692052515247
 31
0.0
  0
ARC
  5
93CE
  8
0
 10
3320.3402384337027797
 20
265.6322685800961949
 30
0.0
 40
7.3205356970750897
 50
84.258747422901024
 51
89.539382915185314
  0
ARC
  5
93CF
  8
0
 10
3321.0685451134199866
 20
272.8761828736144821
 30
0.0
 40
0.0401013067682729
 50
0.9384109299501519
 51
84.258747422901024
  0
LINE
  5
93D0
  8
0
 10
3321.1086410417069601
 20
272.8768396379081196
 30
0.0
 11
3321.1062063343301816
 21
272.3234007869418178
 31
0.0
  0
ARC
  5
93D1
  8
0
 10
3319.1100531251317989
 20
272.3003036711824052
 30
0.0
 40
1.996286830930563
 50
351.6230510511862235
 51
0.6629291737104813
  0
ARC
  5
93D2
  8
0
 10
3320.7890791072859429
 20
272.0508323111076265
 30
0.0
 40
0.2988382009400536
 50
320.2429978187417987
 51
352.0450164148720091
  0
ARC
  5
93D3
  8
0
 10
3320.8566360444569909
 20
272.0242524748804271
 30
0.0
 40
0.2310291586933811
 50
273.8150057536348072
 51
314.586483406635125
  0
ARC
  5
93D4
  8
0
 10
3319.8906154515270828
 20
249.9691172801570076
 30
0.0
 40
21.8853607054350014
 50
87.6366159919410279
 51
88.668696906882019
  0
ARC
  5
93D5
  8
0
 10
3320.711110756807102
 20
270.1805125773676082
 30
0.0
 40
1.6573789118929481
 50
84.4290029267453832
 51
87.1642902780566544
  0
ARC
  5
93D6
  8
0
 10
3320.8445479971260283
 20
271.5485409480390899
 30
0.0
 40
0.2828582245018399
 50
80.5282997845256858
 51
84.4290029267453832
  0
ARC
  5
93D7
  8
0
 10
3320.8347846160731933
 20
271.9045938978604795
 30
0.0
 40
0.0954344573597713
 50
292.9568247055877919
 51
306.160223304330998
  0
LINE
  5
93D8
  8
0
 10
3320.8720076208510363
 20
271.8300631394080824
 30
0.0
 11
3320.8720076208510363
 21
271.3100499281081284
 31
0.0
  0
LINE
  5
93D9
  8
0
 10
3320.8720076208510363
 20
271.3100499281081284
 30
0.0
 11
3320.8523225816511513
 21
271.2903648397079905
 31
0.0
  0
LINE
  5
93DA
  8
0
 10
3320.832637542050179
 20
271.7538791876079927
 30
0.0
 11
3320.832637542050179
 21
271.5579615649079983
 31
0.0
  0
ARC
  5
93DB
  8
0
 10
3320.324475675839949
 20
269.2009609107338974
 30
0.0
 40
2.5062759163354231
 50
81.8884819637945327
 51
88.2940031800492164
  0
ARC
  5
93DC
  8
0
 10
3320.6001235552557773
 20
271.1072768393131014
 30
0.0
 40
0.5801512632225152
 50
66.3729470328886748
 51
82.2744838911008998
  0
ARC
  5
93DD
  8
0
 10
3320.3883123492901177
 20
269.8811649234773995
 30
0.0
 40
1.775341830273883
 50
80.8119610961031327
 51
89.6521803267133492
  0
ARC
  5
93DE
  8
0
 10
3320.577749041559855
 20
271.0667061677315814
 30
0.0
 40
0.5747677886617016
 50
70.1310793608897285
 51
80.583155295391478
  0
ARC
  5
93DF
  8
0
 10
3320.7149071342919342
 20
271.4462443408560262
 30
0.0
 40
0.1712066814417057
 50
52.3903387608617521
 51
70.1310793608897285
  0
ARC
  5
93E0
  8
0
 10
3320.798391951027952
 20
271.5546137792752006
 30
0.0
 40
0.0344088385904249
 50
5.583388350310309
 51
52.3903387608617521
  0
ARC
  5
93E1
  8
0
 10
3320.8060333818211802
 20
271.558703464307996
 30
0.0
 40
0.0266145027435765
 50
322.5821016068517224
 51
358.4026298765655838
  0
ARC
  5
93E2
  8
0
 10
3320.6721717077089124
 20
271.7307243979939244
 30
0.0
 40
0.2438058679404948
 50
278.4207146524710197
 51
309.4756306289056056
  0
ARC
  5
93E3
  8
0
 10
3320.4379456345632207
 20
272.7803187534519225
 30
0.0
 40
1.3186939595677101
 50
272.0835498015139819
 51
281.8116057217774255
  0
ARC
  5
93E4
  8
0
 10
3320.332978837167957
 20
275.3233285976953084
 30
0.0
 40
3.8638588394757161
 50
270.9803817203625727
 51
272.2680440275868818
  0
ARC
  5
93E5
  8
0
 10
3320.375614640024196
 20
269.9624753536780872
 30
0.0
 40
1.6860872540667979
 50
80.3247344726014347
 51
89.2022573994186558
  0
ARC
  5
93E6
  8
0
 10
3320.578328195470931
 20
271.1711674316281915
 30
0.0
 40
0.4605305321211251
 50
68.9628375377965313
 51
79.9132677301488457
  0
ARC
  5
93E7
  8
0
 10
3320.6913860682288941
 20
271.4651232381809791
 30
0.0
 40
0.1455827605801429
 50
52.0711924604899323
 51
68.9628375377965313
  0
ARC
  5
93E8
  8
0
 10
3320.7637586596952133
 20
271.557993556507995
 30
0.0
 40
0.0278428437216839
 50
314.3394933034022074
 51
52.0711924604899323
  0
ARC
  5
93E9
  8
0
 10
3320.6291660912370389
 20
271.7651178045211964
 30
0.0
 40
0.2743687569153121
 50
279.3109602070526876
 51
304.1581098768888864
  0
ARC
  5
93EA
  8
0
 10
3320.4432604662702033
 20
272.6184319975354242
 30
0.0
 40
1.147416887125728
 50
273.3620879826332271
 51
281.5784001639333951
  0
ARC
  5
93EB
  8
0
 10
3320.3710157148311737
 20
273.7636112742923729
 30
0.0
 40
2.29486735548931
 50
270.7009378108143096
 51
273.4859343021560107
  0
ARC
  5
93EC
  8
0
 10
3320.7122606944799372
 20
271.5968755691715728
 30
0.0
 40
0.070778350755237
 50
300.6642488255037051
 51
346.1067597240700024
  0
ARC
  5
93ED
  8
0
 10
3320.5745455345549999
 20
271.8440338573503254
 30
0.0
 40
0.3536937867498584
 50
277.2463636927553807
 51
299.4340244538008164
  0
ARC
  5
93EE
  8
0
 10
3320.4228625815130727
 20
272.6892082614583046
 30
0.0
 40
1.2120444293720161
 50
272.6310392157818114
 51
279.3203810771037752
  0
ARC
  5
93EF
  8
0
 10
3320.3806308828520741
 20
273.572293691950108
 30
0.0
 40
2.0961382139413449
 50
270.5045584745769247
 51
272.6761371254045798
  0
ARC
  5
93F0
  8
0
 10
3320.3485334350611993
 20
269.5803550881897195
 30
0.0
 40
2.062261135104472
 50
83.5658062140383464
 51
88.5952559104773343
  0
ARC
  5
93F1
  8
0
 10
3320.4885631765291691
 20
270.8810877582571948
 30
0.0
 40
0.7540585006018633
 50
74.9911535562956715
 51
83.0631736851122753
  0
ARC
  5
93F2
  8
0
 10
3320.6195092710217978
 20
271.3694835910462757
 30
0.0
 40
0.2484130030954901
 50
60.8494027549654675
 51
74.9911535562956715
  0
ARC
  5
93F3
  8
0
 10
3320.7148934212900713
 20
271.5404995195660831
 30
0.0
 40
0.0525952716970996
 50
34.6081390043214085
 51
60.8494027549654675
  0
ARC
  5
93F4
  8
0
 10
3320.7410715119631277
 20
271.5585640635836739
 30
0.0
 40
0.0207892945571875
 50
342.9384236340067105
 51
34.6081390043214085
  0
ARC
  5
93F5
  8
0
 10
3320.7321598102048483
 20
271.5614193215247951
 30
0.0
 40
0.0301467418689849
 50
302.5010273008380182
 51
342.7200273835787243
  0
LINE
  5
93F6
  8
0
 10
3320.7932674633511851
 20
271.2903648397079905
 30
0.0
 11
3320.7932674633511851
 21
271.2116247314081079
 31
0.0
  0
LINE
  5
93F7
  8
0
 10
3320.8500481019509607
 20
271.2116247314081079
 30
0.0
 11
3320.8500481019509607
 21
270.8572940227081176
 31
0.0
  0
LINE
  5
93F8
  8
0
 10
3320.7932674633511851
 20
270.8572940227081176
 30
0.0
 11
3320.7932596509508585
 21
270.7785538652080959
 31
0.0
  0
LINE
  5
93F9
  8
0
 10
3320.6941897699512083
 20
270.7785538652080959
 30
0.0
 11
3320.6941897699512083
 21
270.189110430608082
 31
0.0
  0
ARC
  5
93FA
  8
0
 10
3320.7949784345250919
 20
271.6707344322446147
 30
0.0
 40
0.0912757291075095
 50
37.7786542777689931
 51
65.6325993938761769
  0
ARC
  5
93FB
  8
0
 10
3320.8462361108249752
 20
271.7115516266284203
 30
0.0
 40
0.0257717461391511
 50
333.9241654238854835
 51
35.8660603055355409
  0
ARC
  5
93FC
  8
0
 10
3320.7992463884229437
 20
271.7453680121927846
 30
0.0
 40
0.0834110899335129
 50
293.598204313919382
 51
327.2325579750370252
  0
ARC
  5
93FD
  8
0
 10
3321.5008929672490012
 20
273.9471340502910266
 30
0.0
 40
2.1955544506919278
 50
268.0985621493633744
 51
275.8175105944471852
  0
LINE
  5
93FE
  8
0
 10
3321.4280439001518062
 20
271.7527885079081216
 30
0.0
 11
3320.8720076208510363
 21
271.752542517761583
 31
0.0
  0
ARC
  5
93FF
  8
0
 10
3320.931552204160198
 20
275.6578843480094747
 30
0.0
 40
0.0426691645330404
 50
342.4884162857480874
 51
68.4783828974240265
  0
ARC
  5
9400
  8
0
 10
3320.8412966671598952
 20
275.6909829826695955
 30
0.0
 40
0.1387712376902583
 50
295.23857521830422
 51
340.6685714545952237
  0
ARC
  5
9401
  8
0
 10
3320.631662820467227
 20
276.1357001609194981
 30
0.0
 40
0.6304212334286661
 50
274.1643896627730896
 51
295.23857521830422
  0
ARC
  5
9402
  8
0
 10
3320.3884310992280007
 20
279.4763102614953141
 30
0.0
 40
3.9798745491633341
 50
270.1534450080940246
 51
274.1643896627730896
  0
ARC
  5
9403
  8
0
 10
3323.3523229334509779
 20
272.4170434157080081
 30
0.0
 40
1.299212672326963
 50
208.4090638831144133
 51
306.4553926416024865
  0
ARC
  5
9404
  8
0
 10
3323.3523229334509779
 20
272.4170434157080081
 30
0.0
 40
1.299212672326963
 50
53.5446073583975135
 51
157.7326331322479973
  0
LINE
  5
9405
  8
0
 10
3320.1877575427779448
 20
273.664363091208088
 30
0.0
 11
3320.6104217983238414
 21
273.664363091208088
 31
0.0
  0
ARC
  5
9406
  8
0
 10
3324.6987140085070678
 20
294.8606796228423832
 30
0.0
 40
1.5904518555536811
 50
42.71790390307455
 51
66.124227276510382
  0
ARC
  5
9407
  8
0
 10
3325.078633154399995
 20
295.2114787913454279
 30
0.0
 40
1.0733458567114511
 50
26.9950774717220412
 51
42.71790390307455
  0
ARC
  5
9408
  8
0
 10
3325.1763604541670247
 20
295.2499878096667771
 30
0.0
 40
0.9688386936405118
 50
3.4547091698803132
 51
27.5892239892706499
  0
LINE
  5
9409
  8
0
 10
3326.1434385197480879
 20
295.3083695651080802
 30
0.0
 11
3326.1643581263988381
 21
294.8464585054496183
 31
0.0
  0
ARC
  5
940A
  8
0
 10
3324.3490292676528952
 20
293.6536079995739783
 30
0.0
 40
2.4703722938549881
 50
62.3570367654572095
 51
88.8499285370544101
  0
ARC
  5
940B
  8
0
 10
3324.8198405367079431
 20
294.5838744273102066
 30
0.0
 40
1.4279264555089239
 50
32.595896790283021
 51
61.7737732358018121
  0
ARC
  5
940C
  8
0
 10
3324.9986929048350248
 20
294.793989967459197
 30
0.0
 40
1.166845472306159
 50
2.5772391060319881
 51
28.6315442606875088
  0
ARC
  5
940D
  8
0
 10
3325.181022321366072
 20
294.8732968531130041
 30
0.0
 40
0.9837019885944952
 50
339.2302753247018927
 51
358.4366048837499079
  0
ARC
  5
940E
  8
0
 10
3324.7503867585978696
 20
295.1519059214379013
 30
0.0
 40
1.4890570866221979
 50
286.6880172100297273
 51
335.0789501644388224
  0
ARC
  5
940F
  8
0
 10
3325.3146115619001648
 20
293.3066557987298779
 30
0.0
 40
0.4406257594706916
 50
108.0637294670565041
 51
136.3123367405262059
  0
ARC
  5
9410
  8
0
 10
3325.200940063915823
 20
293.4261734232923118
 30
0.0
 40
0.2759874276570863
 50
137.9545240055336137
 51
182.2867159588317065
  0
LINE
  5
9411
  8
0
 10
3324.9251724125469991
 20
293.4151614896081242
 30
0.0
 11
3325.0176840235981217
 21
289.1941262887081052
 31
0.0
  0
ARC
  5
9412
  8
0
 10
3324.8542047616901982
 20
289.1992259955525242
 30
0.0
 40
0.1635587847950614
 50
296.1437198171605019
 51
358.2132476503235239
  0
ARC
  5
9413
  8
0
 10
3324.4102226098689243
 20
290.4952893281907791
 30
0.0
 40
1.532395341092722
 50
287.9859204935419825
 51
289.6796248123620217
  0
ARC
  5
9414
  8
0
 10
3324.3144966905119873
 20
291.0534751122211219
 30
0.0
 40
2.0357008656162372
 50
272.368156050139703
 51
286.083955089992628
  0
ARC
  5
9415
  8
0
 10
3324.922078083190172
 20
288.9667581962477811
 30
0.0
 40
0.1377802169054813
 50
96.7429083774261755
 51
108.447887783607996
  0
LINE
  5
9416
  8
0
 10
3324.9059006903471527
 20
289.1035853870080814
 30
0.0
 11
3324.9062028995481342
 21
289.090032956808102
 31
0.0
  0
ARC
  5
9417
  8
0
 10
3324.7736650941451444
 20
289.1155258079909913
 30
0.0
 40
0.1349672379586851
 50
328.7331798869647059
 51
349.1124670624258215
  0
ARC
  5
9418
  8
0
 10
3324.8262262225148334
 20
289.0855025924706183
 30
0.0
 40
0.0744749114772634
 50
279.0507929535797871
 51
327.4884075061311819
  0
ARC
  5
9419
  8
0
 10
3324.44798716335481
 20
297.4057008434688782
 30
0.0
 40
8.4027992261168372
 50
269.6633297931011839
 51
272.6599215257508035
  0
LINE
  5
941A
  8
0
 10
3324.8378481628478767
 20
289.0119505948908909
 30
0.0
 11
3324.8378481628478767
 21
288.8087799071080894
 31
0.0
  0
ARC
  5
941B
  8
0
 10
3324.8181631234479028
 20
288.8087799071080894
 30
0.0
 40
0.0196850393999979
 50
315.5733431655237951
 51
359.9999999999984084
  0
LINE
  5
941C
  8
0
 10
3324.8513683817927813
 20
288.7950004647080959
 30
0.0
 11
3324.8251212931468217
 21
288.1650769151081022
 31
0.0
  0
ARC
  5
941D
  8
0
 10
3324.479434488437164
 20
286.9432698295566979
 30
0.0
 40
1.4258926435840369
 50
53.032548512018522
 51
75.6936186899446426
  0
ARC
  5
941E
  8
0
 10
3325.3024002710481
 20
288.0366740994061274
 30
0.0
 40
0.0573877745122817
 50
2.7895343659755611
 51
53.0325485120422684
  0
ARC
  5
941F
  8
0
 10
3319.1027039359141781
 20
288.2039659336427917
 30
0.0
 40
6.2591780983916214
 50
349.5874564523920185
 51
358.4940228100833224
  0
ARC
  5
9420
  8
0
 10
3323.7493666307868807
 20
287.2934931195300123
 30
0.0
 40
1.525499171912764
 50
322.8081795665913205
 51
351.6786998758270784
  0
ARC
  5
9421
  8
0
 10
3324.437584086627794
 20
286.8240258960088909
 30
0.0
 40
0.6947405528035108
 50
290.0248468720774895
 51
319.3396344268468283
  0
ARC
  5
9422
  8
0
 10
3324.3462313209361128
 20
286.1498268388140218
 30
0.0
 40
2.1274441831083482
 50
72.4296520166140283
 51
76.9254708964545841
  0
ARC
  5
9423
  8
0
 10
3324.9576844453149533
 20
288.1244033310617283
 30
0.0
 40
0.061819290853118
 50
35.2938864680984921
 51
60.1467877912929723
  0
LINE
  5
9424
  8
0
 10
3325.0081413037478342
 20
288.1601206960079935
 30
0.0
 11
3325.012730713946894
 21
287.9765431051080782
 31
0.0
  0
LINE
  5
9425
  8
0
 10
3325.0127307215470864
 20
287.9765399463080939
 30
0.0
 11
3325.0122324696239957
 21
286.8024664715823064
 31
0.0
  0
ARC
  5
9426
  8
0
 10
3325.0317080242111842
 20
286.8024582065693266
 30
0.0
 40
0.019475556340069
 50
179.9756848857956868
 51
270.6154819070313238
  0
LINE
  5
9427
  8
0
 10
3325.0319172302301922
 20
286.7829837739050163
 30
0.0
 11
3325.0514387641710528
 21
286.7831934859156036
 31
0.0
  0
ARC
  5
9428
  8
0
 10
3325.0507897799570856
 20
286.8436057023794774
 30
0.0
 40
0.0604157022519022
 50
270.6154819070313238
 51
345.7127253020931903
  0
LINE
  5
9429
  8
0
 10
3325.1093368587089572
 20
286.8286960864160733
 30
0.0
 11
3325.1581741966479058
 21
287.9325810381080828
 31
0.0
  0
ARC
  5
942A
  8
0
 10
3325.4829556413192222
 20
286.6569730123463842
 30
0.0
 40
1.3163049882874931
 50
100.8496961324224941
 51
104.2845218045966931
  0
ARC
  5
942B
  8
0
 10
3325.2186555806010801
 20
288.1039827593704103
 30
0.0
 40
0.1551175837356919
 50
276.1164489479792792
 51
335.4230400321565071
  0
ARC
  5
942C
  8
0
 10
3325.106467890445856
 20
287.8917704279165832
 30
0.0
 40
0.0658714506079389
 50
38.2832284148582715
 51
70.8427907183452561
  0
LINE
  5
942D
  8
0
 10
3325.1280843485478727
 20
287.9539940307080883
 30
0.0
 11
3325.0388312063469129
 21
287.9803302343080986
 31
0.0
  0
ARC
  5
942E
  8
0
 10
3325.032176625178181
 20
287.9599538663904923
 30
0.0
 40
0.0214354804016094
 50
71.9138275127067175
 51
155.1393505421488896
  0
ARC
  5
942F
  8
0
 10
3324.9300137871841798
 20
288.1452970840715011
 30
0.0
 40
0.0197800148887655
 50
0.2744517881045922
 51
89.7249881942478851
  0
LINE
  5
9430
  8
0
 10
3324.9497935751478508
 20
288.145391831708082
 30
0.0
 11
3324.9499221925798338
 21
288.1184950787238108
 31
0.0
  0
ARC
  5
9431
  8
0
 10
3324.8528316860220002
 20
288.1180308021760084
 30
0.0
 40
0.0970916166119191
 50
338.8723413814265086
 51
0.2739802777975451
  0
ARC
  5
9432
  8
0
 10
3323.8526314498471947
 20
288.504530777386492
 30
0.0
 40
1.16937084483668
 50
326.9748126426505905
 51
338.8723413814265086
  0
ARC
  5
9433
  8
0
 10
3324.9595964224599811
 20
288.0772114873522014
 30
0.0
 40
0.1030019824879642
 50
121.4555191841937045
 51
148.8587667181201084
  0
LINE
  5
9434
  8
0
 10
3324.8714375266181378
 20
288.1304789021598936
 30
0.0
 11
3324.8245486187470306
 21
288.0710162071080731
 31
0.0
  0
ARC
  5
9435
  8
0
 10
3324.8025139410788142
 20
288.0928524732174196
 30
0.0
 40
0.031021759098508
 50
269.1185010850467734
 51
315.259125208528701
  0
LINE
  5
9436
  8
0
 10
3324.8020366883310999
 20
288.0618343854720251
 30
0.0
 11
3324.7649590958480985
 21
288.0618343115081075
 31
0.0
  0
LINE
  5
9437
  8
0
 10
3324.7649590958480985
 20
288.0618343115081075
 30
0.0
 11
3324.7529431813482006
 21
288.057042343237697
 31
0.0
  0
ARC
  5
9438
  8
0
 10
3325.5436579372621964
 20
287.6904816105461009
 30
0.0
 40
0.7322380456413728
 50
166.0332242774296105
 51
170.541769634734294
  0
ARC
  5
9439
  8
0
 10
3324.9278372971598401
 20
287.8788283067913198
 30
0.0
 40
0.1263368143144499
 50
185.2751377708233917
 51
212.5744335052528129
  0
LINE
  5
943A
  8
0
 10
3324.8020355588469101
 20
287.8672130888081142
 30
0.0
 11
3324.8020366883310999
 21
288.0618343854720251
 31
0.0
  0
LINE
  5
943B
  8
0
 10
3324.9498312276468823
 20
288.1375178604080816
 30
0.0
 11
3324.9616045987481812
 21
288.1375178604080816
 31
0.0
  0
ARC
  5
943C
  8
0
 10
3324.9616045987481812
 20
288.0981477817081213
 30
0.0
 40
0.0393700786999993
 50
359.9999998544691948
 51
90.0
  0
LINE
  5
943D
  8
0
 10
3325.0009746774471751
 20
288.0981477816080769
 30
0.0
 11
3325.000974673987912
 21
286.7359443731081114
 31
0.0
  0
ARC
  5
943E
  8
0
 10
3324.9616032792650913
 20
286.735944373208099
 30
0.0
 40
0.0393713947221146
 50
270.0019201950336765
 51
359.9999998544676032
  0
LINE
  5
943F
  8
0
 10
3324.9616045987481812
 20
286.6965729785080725
 30
0.0
 11
3324.7119403700858129
 21
286.6965646113296202
 31
0.0
  0
ARC
  5
9440
  8
0
 10
3324.7119219157198131
 20
287.2472155906738749
 30
0.0
 40
0.5506509796534618
 50
266.2056636204526967
 51
270.0019201950336765
  0
ARC
  5
9441
  8
0
 10
3324.8797668542101746
 20
288.0642317300972195
 30
0.0
 40
0.103092219231447
 50
101.9846668787580057
 51
145.0949284179818051
  0
LINE
  5
9442
  8
0
 10
3324.7952207985467794
 20
288.1232230018081282
 30
0.0
 11
3324.7529431813482006
 21
288.0763448628081278
 31
0.0
  0
LINE
  5
9443
  8
0
 10
3324.7529431813482006
 20
288.0763448628081278
 30
0.0
 11
3324.7529431813482006
 21
286.836167878408105
 31
0.0
  0
ARC
  5
9444
  8
0
 10
3324.7760058446460789
 20
286.8360371737509809
 30
0.0
 40
0.023063033670855
 50
179.6752870671921869
 51
213.8231723443190049
  0
ARC
  5
9445
  8
0
 10
3324.5243861550611655
 20
286.667445064278013
 30
0.0
 40
0.2798160966154207
 50
17.8026784691567102
 51
33.8231723443190404
  0
ARC
  5
9446
  8
0
 10
3324.7493964064319698
 20
286.7396995559089987
 30
0.0
 40
0.043489363504815
 50
332.4683344301093939
 51
17.8026784691551612
  0
ARC
  5
9447
  8
0
 10
3324.7524071574148365
 20
286.7438409961781076
 30
0.0
 40
0.043032911083374
 50
282.401866052404273
 51
325.7100829492359253
  0
ARC
  5
9448
  8
0
 10
3324.7160687108162165
 20
286.8835271656312784
 30
0.0
 40
0.1873443199156131
 50
273.6609699519862033
 51
284.081274151725097
  0
LINE
  5
9449
  8
0
 10
3324.8213740272481118
 20
287.8108069026080784
 30
0.0
 11
3324.7529431813482006
 21
287.8107483717080868
 31
0.0
  0
LINE
  5
944A
  8
0
 10
3325.0122324696239957
 20
286.8024664715823064
 30
0.0
 11
3325.0083211612281957
 21
286.6296019266322901
 31
0.0
  0
ARC
  5
944B
  8
0
 10
3324.9121571290820611
 20
286.6420854091318802
 30
0.0
 40
0.096970915298374
 50
321.7276428742479197
 51
352.603541757165317
  0
LINE
  5
944C
  8
0
 10
3324.9882865992358347
 20
286.5820215915051108
 30
0.0
 11
3324.9396404553472166
 21
286.5820211224079799
 31
0.0
  0
ARC
  5
944D
  8
0
 10
3324.1331752747241808
 20
287.5647275667777762
 30
0.0
 40
1.271258448688934
 50
295.2513977735006847
 51
309.3742629358670797
  0
LINE
  5
944E
  8
0
 10
3324.7923132601467842
 20
288.1650768695412808
 30
0.0
 11
3324.7923132601467842
 21
288.1607484070465262
 31
0.0
  0
ARC
  5
944F
  8
0
 10
3324.796625720719021
 20
288.1256824616568792
 30
0.0
 40
0.0350708760331753
 50
43.2796771826693814
 51
90.9599784222464649
  0
ARC
  5
9450
  8
0
 10
3324.3955015892279334
 20
293.7361220997585178
 30
0.0
 40
2.285667390889067
 50
66.961663771377502
 51
89.9220157473812947
  0
ARC
  5
9451
  8
0
 10
3324.6610047493800266
 20
294.3716073744780033
 30
0.0
 40
1.596968503030195
 50
44.2964719870198991
 51
66.804958507734284
  0
ARC
  5
9452
  8
0
 10
3325.0941636406678299
 20
294.7942573629007939
 30
0.0
 40
0.9917746185476261
 50
6.1241497705734842
 51
44.2964719870210715
  0
ARC
  5
9453
  8
0
 10
3325.1970272467710856
 20
294.8364775005003935
 30
0.0
 40
0.8855368335176647
 50
329.4350495375226728
 51
4.1176377746199666
  0
ARC
  5
9454
  8
0
 10
3324.85454692070698
 20
295.0485992416755039
 30
0.0
 40
1.288325662252813
 50
302.0378806900926065
 51
329.057390067969493
  0
ARC
  5
9455
  8
0
 10
3324.4431712142381912
 20
295.7223143049170062
 30
0.0
 40
2.0776768810617638
 50
272.7831780300671198
 51
301.7987868024545719
  0
ARC
  5
9456
  8
0
 10
3324.5479299616317803
 20
293.5552366909926718
 30
0.0
 40
0.0919331443093172
 50
92.4151136510057967
 51
120.8816527441532997
  0
ARC
  5
9457
  8
0
 10
3324.5247133131979353
 20
293.5963395222215127
 30
0.0
 40
0.0447564975669317
 50
122.3815347791457953
 51
173.8421484453486983
  0
ARC
  5
9458
  8
0
 10
3325.0278583260519554
 20
293.5420549486627806
 30
0.0
 40
0.5508214330106899
 50
173.8421484453486983
 51
178.3527620335464974
  0
LINE
  5
9459
  8
0
 10
3324.4772645171951808
 20
293.5578887325424944
 30
0.0
 11
3324.4791888780259796
 21
293.3057643738616775
 31
0.0
  0
ARC
  5
945A
  8
0
 10
3324.3465250122990255
 20
293.3027064542245057
 30
0.0
 40
0.1326991037727035
 50
354.2840403571274237
 51
1.320441468853329
  0
ARC
  5
945B
  8
0
 10
3324.018530526070208
 20
293.3197416762839111
 30
0.0
 40
0.4610273874540482
 50
346.5720554884892977
 51
356.2376687147967118
  0
ARC
  5
945C
  8
0
 10
3324.4429236407240751
 20
293.2175601989089841
 30
0.0
 40
0.0245214063478489
 50
273.8498877918094081
 51
348.5224346405706797
  0
ARC
  5
945D
  8
0
 10
3324.3984726736339326
 20
295.4632703672496064
 30
0.0
 40
1.3011901999929101
 50
270.0061600611056747
 51
273.4113207947077058
  0
ARC
  5
945E
  8
0
 10
3324.9904903229689808
 20
293.9487648856460282
 30
0.0
 40
0.55794034335233
 50
157.2656749375917116
 51
158.7697320740666953
  0
ARC
  5
945F
  8
0
 10
3324.9930549711061758
 20
294.0387914477183244
 30
0.0
 40
0.5345077373031436
 50
167.9032448457986959
 51
181.1632784512146088
  0
ARC
  5
9460
  8
0
 10
3334.8896513000340747
 20
294.2054601063898076
 30
0.0
 40
10.4325043589579902
 50
180.9749950620602874
 51
183.5587787087397942
  0
ARC
  5
9461
  8
0
 10
3324.3945409906878012
 20
294.4092029704964943
 30
0.0
 40
0.4325800649754841
 50
60.5148718127190506
 51
89.4607063204668833
  0
ARC
  5
9462
  8
0
 10
3324.4939243745561726
 20
294.5814757158831867
 30
0.0
 40
0.2337095442292398
 50
23.3446542591413895
 51
60.9363897481403427
  0
ARC
  5
9463
  8
0
 10
3324.5605357435338192
 20
294.6160813137490777
 30
0.0
 40
0.1589292635056294
 50
350.9378979965100029
 51
21.4057403642631705
  0
ARC
  5
9464
  8
0
 10
3324.5095833256900733
 20
294.6325276659155747
 30
0.0
 40
0.211995345473172
 50
309.2761583549493025
 51
348.7168610425425754
  0
ARC
  5
9465
  8
0
 10
3324.4220045864772146
 20
294.7380620162933837
 30
0.0
 40
0.3491337604309002
 50
280.7627858064120119
 51
309.4378998394892051
  0
ARC
  5
9466
  8
0
 10
3324.3854722118608152
 20
294.9575275566702999
 30
0.0
 40
0.5715835020335928
 50
271.3173111782410842
 51
280.2521554593072892
  0
ARC
  5
9467
  8
0
 10
3324.3995909505702002
 20
295.5462808878589271
 30
0.0
 40
0.072769019930687
 50
90.6410396539869083
 51
142.348646213056611
  0
ARC
  5
9468
  8
0
 10
3324.3882211928162178
 20
295.5578150770772936
 30
0.0
 40
0.0567635222377504
 50
144.5565314423432994
 51
186.6225824968333029
  0
LINE
  5
9469
  8
0
 10
3324.3318364315809958
 20
295.5512686156424138
 30
0.0
 11
3324.334712530950128
 21
295.5273118008519759
 31
0.0
  0
ARC
  5
946A
  8
0
 10
3324.4016154654259481
 20
295.4973857939510822
 30
0.0
 40
0.0853188157580601
 50
91.9066489761305405
 51
125.2459776787329986
  0
ARC
  5
946B
  8
0
 10
3324.3820969151302052
 20
295.5292502144350237
 30
0.0
 40
0.048094144815246
 50
128.1637464582900066
 51
164.2581771271746902
  0
ARC
  5
946C
  8
0
 10
3324.3746711249259533
 20
295.5319278895095181
 30
0.0
 40
0.0402243397345427
 50
165.0595828774025904
 51
186.5897012995523028
  0
ARC
  5
946D
  8
0
 10
3324.3856445986421022
 20
295.5337659131106989
 30
0.0
 40
0.0513393716794718
 50
187.222029035095602
 51
226.3595012789969019
  0
ARC
  5
946E
  8
0
 10
3324.4023434903870111
 20
295.5593928166103979
 30
0.0
 40
0.081602046088254
 50
230.2954048281279995
 51
267.4949048260621112
  0
ARC
  5
946F
  8
0
 10
3324.3988831397027752
 20
295.5132059079597866
 30
0.0
 40
0.0230238032153533
 50
90.2646087770624348
 51
136.4284526165548925
  0
ARC
  5
9470
  8
0
 10
3324.3918611293920549
 20
295.5207457543218084
 30
0.0
 40
0.0127545550090622
 50
139.2270098376490921
 51
204.9155463472887106
  0
ARC
  5
9471
  8
0
 10
3324.3990390621520419
 20
295.5275195742383971
 30
0.0
 40
0.0223370169678612
 50
212.9433501578203902
 51
269.3272905561826178
  0
ARC
  5
9472
  8
0
 10
3324.3979626681880291
 20
295.5462808878589271
 30
0.0
 40
0.072769019930687
 50
37.6513537869433819
 51
89.3589603460130775
  0
ARC
  5
9473
  8
0
 10
3324.4093324259420115
 20
295.5578150770772936
 30
0.0
 40
0.0567635222377504
 50
353.3774175031667255
 51
35.4434685576567432
  0
LINE
  5
9474
  8
0
 10
3324.4657171871767787
 20
295.5512686156424138
 30
0.0
 11
3324.4628410878081013
 21
295.5273118008519759
 31
0.0
  0
ARC
  5
9475
  8
0
 10
3324.3959381533331907
 20
295.4973857939510822
 30
0.0
 40
0.0853188157580601
 50
54.754022321266973
 51
88.0933510238694737
  0
ARC
  5
9476
  8
0
 10
3324.4154567036280241
 20
295.5292502144350237
 30
0.0
 40
0.048094144815246
 50
15.7418228728252707
 51
51.8362535417099508
  0
ARC
  5
9477
  8
0
 10
3324.4228824938309117
 20
295.5319278895095181
 30
0.0
 40
0.0402243397345427
 50
353.4102987004476972
 51
14.9404171225974007
  0
ARC
  5
9478
  8
0
 10
3324.4119090201161271
 20
295.5337659131106989
 30
0.0
 40
0.0513393716794718
 50
313.6404987210029844
 51
352.7779709649028064
  0
ARC
  5
9479
  8
0
 10
3324.3952101283712182
 20
295.5593928166103979
 30
0.0
 40
0.081602046088254
 50
272.5050951739377751
 51
309.7045951718719152
  0
ARC
  5
947A
  8
0
 10
3324.3986704790559088
 20
295.5132059079597866
 30
0.0
 40
0.0230238032153533
 50
43.5715473834451075
 51
89.7353912229375652
  0
ARC
  5
947B
  8
0
 10
3324.4056924893661744
 20
295.5207457543218084
 30
0.0
 40
0.0127545550090622
 50
335.0844536527113178
 51
40.7729901623509008
  0
ARC
  5
947C
  8
0
 10
3324.3985145566070969
 20
295.5275195742383971
 30
0.0
 40
0.0223370169678612
 50
270.6727094438173822
 51
327.0566498421795245
  0
ARC
  5
947D
  8
0
 10
3324.0873816393132074
 20
295.5177272269040145
 30
0.0
 40
0.072769019930687
 50
90.6410396539869083
 51
142.348646213056611
  0
ARC
  5
947E
  8
0
 10
3324.076011881559225
 20
295.5292614161224947
 30
0.0
 40
0.0567635222377504
 50
144.5565314423432994
 51
186.6225824968333029
  0
LINE
  5
947F
  8
0
 10
3324.0196271203230935
 20
295.5227149546876149
 30
0.0
 11
3324.0225032196931352
 21
295.498758139897177
 31
0.0
  0
ARC
  5
9480
  8
0
 10
3324.0894061541671363
 20
295.4688321329962832
 30
0.0
 40
0.0853188157580601
 50
91.9066489761305405
 51
125.2459776787329986
  0
ARC
  5
9481
  8
0
 10
3324.0698876038718481
 20
295.5006965534802248
 30
0.0
 40
0.048094144815246
 50
128.1637464582900066
 51
164.2581771271746902
  0
ARC
  5
9482
  8
0
 10
3324.06246181366987
 20
295.5033742285547191
 30
0.0
 40
0.0402243397345427
 50
165.0595828774025904
 51
186.5897012995523028
  0
ARC
  5
9483
  8
0
 10
3324.0734352873851094
 20
295.5052122521557862
 30
0.0
 40
0.0513393716794718
 50
187.222029035095602
 51
226.3595012789969019
  0
ARC
  5
9484
  8
0
 10
3324.0901341791300183
 20
295.5308391556555989
 30
0.0
 40
0.081602046088254
 50
230.2954048281279995
 51
267.4949048260621112
  0
ARC
  5
9485
  8
0
 10
3324.0866738284448729
 20
295.4846522470049877
 30
0.0
 40
0.0230238032153533
 50
90.2646087770624348
 51
136.4284526165548925
  0
ARC
  5
9486
  8
0
 10
3324.0796518181341526
 20
295.4921920933668957
 30
0.0
 40
0.0127545550090622
 50
139.2270098376490921
 51
204.9155463472887106
  0
ARC
  5
9487
  8
0
 10
3324.0868297508941396
 20
295.4989659132834845
 30
0.0
 40
0.0223370169678612
 50
212.9433501578203902
 51
269.3272905561826178
  0
ARC
  5
9488
  8
0
 10
3324.0857533569310363
 20
295.5177272269040145
 30
0.0
 40
0.072769019930687
 50
37.6513537869433819
 51
89.3589603460130775
  0
ARC
  5
9489
  8
0
 10
3324.0971231146850187
 20
295.5292614161224947
 30
0.0
 40
0.0567635222377504
 50
353.3774175031667255
 51
35.4434685576567432
  0
LINE
  5
948A
  8
0
 10
3324.1535078759197859
 20
295.5227149546876149
 30
0.0
 11
3324.1506317765511085
 21
295.498758139897177
 31
0.0
  0
ARC
  5
948B
  8
0
 10
3324.0837288420761979
 20
295.4688321329962832
 30
0.0
 40
0.0853188157580601
 50
54.754022321266973
 51
88.0933510238694737
  0
ARC
  5
948C
  8
0
 10
3324.1032473923710313
 20
295.5006965534802248
 30
0.0
 40
0.048094144815246
 50
15.7418228728252707
 51
51.8362535417099508
  0
ARC
  5
948D
  8
0
 10
3324.1106731825739189
 20
295.5033742285547191
 30
0.0
 40
0.0402243397345427
 50
353.4102987004476972
 51
14.9404171225974007
  0
ARC
  5
948E
  8
0
 10
3324.0996997088591343
 20
295.5052122521557862
 30
0.0
 40
0.0513393716794718
 50
313.6404987210029844
 51
352.7779709649028064
  0
ARC
  5
948F
  8
0
 10
3324.0830008171128611
 20
295.5308391556555989
 30
0.0
 40
0.081602046088254
 50
272.5050951739377751
 51
309.7045951718719152
  0
ARC
  5
9490
  8
0
 10
3324.0864611677980065
 20
295.4846522470049877
 30
0.0
 40
0.0230238032153533
 50
43.5715473834451075
 51
89.7353912229375652
  0
ARC
  5
9491
  8
0
 10
3324.0934831781091816
 20
295.4921920933668957
 30
0.0
 40
0.0127545550090622
 50
335.0844536527113178
 51
40.7729901623509008
  0
ARC
  5
9492
  8
0
 10
3324.0863052453491946
 20
295.4989659132834845
 30
0.0
 40
0.0223370169678612
 50
270.6727094438173822
 51
327.0566498421795245
  0
ARC
  5
9493
  8
0
 10
3324.0248569584609868
 20
295.7308450536697251
 30
0.0
 40
0.072769019930687
 50
90.6410396539869083
 51
142.348646213056611
  0
ARC
  5
9494
  8
0
 10
3324.0134872007070044
 20
295.7423792428880915
 30
0.0
 40
0.0567635222377504
 50
144.5565314423432994
 51
186.6225824968333029
  0
LINE
  5
9495
  8
0
 10
3323.9571024394717824
 20
295.7358327814532117
 30
0.0
 11
3323.9599785388409146
 21
295.7118759666628875
 31
0.0
  0
ARC
  5
9496
  8
0
 10
3324.0268814733158251
 20
295.6819499597618801
 30
0.0
 40
0.0853188157580601
 50
91.9066489761305405
 51
125.2459776787329986
  0
ARC
  5
9497
  8
0
 10
3324.0073629230209917
 20
295.7138143802458217
 30
0.0
 40
0.048094144815246
 50
128.1637464582900066
 51
164.2581771271746902
  0
ARC
  5
9498
  8
0
 10
3323.9999371328181041
 20
295.7164920553203729
 30
0.0
 40
0.0402243397345427
 50
165.0595828774025904
 51
186.5897012995523028
  0
ARC
  5
9499
  8
0
 10
3324.0109106065337983
 20
295.7183300789214968
 30
0.0
 40
0.0513393716794718
 50
187.222029035095602
 51
226.3595012789969019
  0
ARC
  5
949A
  8
0
 10
3324.0276094982791619
 20
295.7439569824211958
 30
0.0
 40
0.081602046088254
 50
230.2954048281279995
 51
267.4949048260621112
  0
ARC
  5
949B
  8
0
 10
3324.024149147593107
 20
295.6977700737706982
 30
0.0
 40
0.0230238032153533
 50
90.2646087770624348
 51
136.4284526165548925
  0
ARC
  5
949C
  8
0
 10
3324.0171271372828414
 20
295.7053099201326063
 30
0.0
 40
0.0127545550090622
 50
139.2270098376490921
 51
204.9155463472887106
  0
ARC
  5
949D
  8
0
 10
3324.024305070041919
 20
295.7120837400491951
 30
0.0
 40
0.0223370169678612
 50
212.9433501578203902
 51
269.3272905561826178
  0
ARC
  5
949E
  8
0
 10
3324.0232286760788156
 20
295.7308450536697251
 30
0.0
 40
0.072769019930687
 50
37.6513537869433819
 51
89.3589603460130775
  0
ARC
  5
949F
  8
0
 10
3324.034598433832798
 20
295.7423792428880915
 30
0.0
 40
0.0567635222377504
 50
353.3774175031667255
 51
35.4434685576567432
  0
LINE
  5
94A0
  8
0
 10
3324.0909831950689295
 20
295.7358327814532117
 30
0.0
 11
3324.0881070956997974
 21
295.7118759666628875
 31
0.0
  0
ARC
  5
94A1
  8
0
 10
3324.0212041612239773
 20
295.6819499597618801
 30
0.0
 40
0.0853188157580601
 50
54.754022321266973
 51
88.0933510238694737
  0
ARC
  5
94A2
  8
0
 10
3324.0407227115188107
 20
295.7138143802458217
 30
0.0
 40
0.048094144815246
 50
15.7418228728252707
 51
51.8362535417099508
  0
ARC
  5
94A3
  8
0
 10
3324.0481485017230625
 20
295.7164920553203729
 30
0.0
 40
0.0402243397345427
 50
353.4102987004476972
 51
14.9404171225974007
  0
ARC
  5
94A4
  8
0
 10
3324.0371750280078231
 20
295.7183300789214968
 30
0.0
 40
0.0513393716794718
 50
313.6404987210029844
 51
352.7779709649028064
  0
ARC
  5
94A5
  8
0
 10
3324.0204761362620047
 20
295.7439569824211958
 30
0.0
 40
0.081602046088254
 50
272.5050951739377751
 51
309.7045951718719152
  0
ARC
  5
94A6
  8
0
 10
3324.0239364869471501
 20
295.6977700737706982
 30
0.0
 40
0.0230238032153533
 50
43.5715473834451075
 51
89.7353912229375652
  0
ARC
  5
94A7
  8
0
 10
3324.030958497256961
 20
295.7053099201326063
 30
0.0
 40
0.0127545550090622
 50
335.0844536527113178
 51
40.7729901623509008
  0
ARC
  5
94A8
  8
0
 10
3324.023780564496974
 20
295.7120837400491951
 30
0.0
 40
0.0223370169678612
 50
270.6727094438173822
 51
327.0566498421795245
  0
ARC
  5
94A9
  8
0
 10
3324.1483351202041376
 20
295.3151426454392094
 30
0.0
 40
0.072769019930687
 50
90.6410396539869083
 51
142.348646213056611
  0
ARC
  5
94AA
  8
0
 10
3324.1369653624501552
 20
295.3266768346576896
 30
0.0
 40
0.0567635222377504
 50
144.5565314423432994
 51
186.6225824968333029
  0
LINE
  5
94AB
  8
0
 10
3324.0805806012149333
 20
295.3201303732228098
 30
0.0
 11
3324.0834567005831559
 21
295.2961735584323719
 31
0.0
  0
ARC
  5
94AC
  8
0
 10
3324.150359635058976
 20
295.2662475515314782
 30
0.0
 40
0.0853188157580601
 50
91.9066489761305405
 51
125.2459776787329986
  0
ARC
  5
94AD
  8
0
 10
3324.1308410847650521
 20
295.2981119720154197
 30
0.0
 40
0.048094144815246
 50
128.1637464582900066
 51
164.2581771271746902
  0
ARC
  5
94AE
  8
0
 10
3324.1234152945598908
 20
295.3007896470899141
 30
0.0
 40
0.0402243397345427
 50
165.0595828774025904
 51
186.5897012995523028
  0
ARC
  5
94AF
  8
0
 10
3324.1343887682760396
 20
295.3026276706910949
 30
0.0
 40
0.0513393716794718
 50
187.222029035095602
 51
226.3595012789969019
  0
ARC
  5
94B0
  8
0
 10
3324.151087660021858
 20
295.3282545741906802
 30
0.0
 40
0.081602046088254
 50
230.2954048281279995
 51
267.4949048260621112
  0
ARC
  5
94B1
  8
0
 10
3324.1476273093358031
 20
295.2820676655401826
 30
0.0
 40
0.0230238032153533
 50
90.2646087770624348
 51
136.4284526165548925
  0
ARC
  5
94B2
  8
0
 10
3324.1406052990259923
 20
295.2896075119022044
 30
0.0
 40
0.0127545550090622
 50
139.2270098376490921
 51
204.9155463472887106
  0
ARC
  5
94B3
  8
0
 10
3324.1477832317859793
 20
295.2963813318187931
 30
0.0
 40
0.0223370169678612
 50
212.9433501578203902
 51
269.3272905561826178
  0
ARC
  5
94B4
  8
0
 10
3324.146706837822876
 20
295.3151426454392094
 30
0.0
 40
0.072769019930687
 50
37.6513537869433819
 51
89.3589603460130775
  0
ARC
  5
94B5
  8
0
 10
3324.1580765955768584
 20
295.3266768346576896
 30
0.0
 40
0.0567635222377504
 50
353.3774175031667255
 51
35.4434685576567432
  0
LINE
  5
94B6
  8
0
 10
3324.2144613568120803
 20
295.3201303732228098
 30
0.0
 11
3324.2115852574429482
 21
295.2961735584323719
 31
0.0
  0
ARC
  5
94B7
  8
0
 10
3324.1446823229671281
 20
295.2662475515314782
 30
0.0
 40
0.0853188157580601
 50
54.754022321266973
 51
88.0933510238694737
  0
ARC
  5
94B8
  8
0
 10
3324.1642008732619615
 20
295.2981119720154197
 30
0.0
 40
0.048094144815246
 50
15.7418228728252707
 51
51.8362535417099508
  0
ARC
  5
94B9
  8
0
 10
3324.1716266634662134
 20
295.3007896470899141
 30
0.0
 40
0.0402243397345427
 50
353.4102987004476972
 51
14.9404171225974007
  0
ARC
  5
94BA
  8
0
 10
3324.1606531897500645
 20
295.3026276706910949
 30
0.0
 40
0.0513393716794718
 50
313.6404987210029844
 51
352.7779709649028064
  0
ARC
  5
94BB
  8
0
 10
3324.1439542980051556
 20
295.3282545741906802
 30
0.0
 40
0.081602046088254
 50
272.5050951739377751
 51
309.7045951718719152
  0
ARC
  5
94BC
  8
0
 10
3324.1474146486898462
 20
295.2820676655401826
 30
0.0
 40
0.0230238032153533
 50
43.5715473834451075
 51
89.7353912229375652
  0
ARC
  5
94BD
  8
0
 10
3324.1544366590010213
 20
295.2896075119022044
 30
0.0
 40
0.0127545550090622
 50
335.0844536527113178
 51
40.7729901623509008
  0
ARC
  5
94BE
  8
0
 10
3324.1472587262410343
 20
295.2963813318187931
 30
0.0
 40
0.0223370169678612
 50
270.6727094438173822
 51
327.0566498421795245
  0
ARC
  5
94BF
  8
0
 10
3324.2129585633419993
 20
295.1160621061090978
 30
0.0
 40
0.072769019930687
 50
90.6410396539869083
 51
142.348646213056611
  0
ARC
  5
94C0
  8
0
 10
3324.2015888055871073
 20
295.1275962953275211
 30
0.0
 40
0.0567635222377504
 50
144.5565314423432994
 51
186.6225824968333029
  0
LINE
  5
94C1
  8
0
 10
3324.1452040443518854
 20
295.1210498338925845
 30
0.0
 11
3324.1480801437210175
 21
295.0970930191023172
 31
0.0
  0
ARC
  5
94C2
  8
0
 10
3324.2149830781959281
 20
295.0671670122014234
 30
0.0
 40
0.0853188157580601
 50
91.9066489761305405
 51
125.2459776787329986
  0
ARC
  5
94C3
  8
0
 10
3324.1954645279010947
 20
295.0990314326851944
 30
0.0
 40
0.048094144815246
 50
128.1637464582900066
 51
164.2581771271746902
  0
ARC
  5
94C4
  8
0
 10
3324.1880387376968429
 20
295.1017091077598025
 30
0.0
 40
0.0402243397345427
 50
165.0595828774025904
 51
186.5897012995523028
  0
ARC
  5
94C5
  8
0
 10
3324.1990122114129917
 20
295.1035471313609264
 30
0.0
 40
0.0513393716794718
 50
187.222029035095602
 51
226.3595012789969019
  0
ARC
  5
94C6
  8
0
 10
3324.2157111031579007
 20
295.1291740348606254
 30
0.0
 40
0.081602046088254
 50
230.2954048281279995
 51
267.4949048260621112
  0
ARC
  5
94C7
  8
0
 10
3324.2122507524741195
 20
295.0829871262101278
 30
0.0
 40
0.0230238032153533
 50
90.2646087770624348
 51
136.4284526165548925
  0
ARC
  5
94C8
  8
0
 10
3324.2052287421629444
 20
295.0905269725719791
 30
0.0
 40
0.0127545550090622
 50
139.2270098376490921
 51
204.9155463472887106
  0
ARC
  5
94C9
  8
0
 10
3324.2124066749229314
 20
295.0973007924886247
 30
0.0
 40
0.0223370169678612
 50
212.9433501578203902
 51
269.3272905561826178
  0
ARC
  5
94CA
  8
0
 10
3324.2113302809589186
 20
295.1160621061090978
 30
0.0
 40
0.072769019930687
 50
37.6513537869433819
 51
89.3589603460130775
  0
ARC
  5
94CB
  8
0
 10
3324.222700038712901
 20
295.1275962953275211
 30
0.0
 40
0.0567635222377504
 50
353.3774175031667255
 51
35.4434685576567432
  0
LINE
  5
94CC
  8
0
 10
3324.2790847999490325
 20
295.1210498338925845
 30
0.0
 11
3324.2762087005799003
 21
295.0970930191023172
 31
0.0
  0
ARC
  5
94CD
  8
0
 10
3324.2093057661049897
 20
295.0671670122014234
 30
0.0
 40
0.0853188157580601
 50
54.754022321266973
 51
88.0933510238694737
  0
ARC
  5
94CE
  8
0
 10
3324.2288243163989137
 20
295.0990314326851944
 30
0.0
 40
0.048094144815246
 50
15.7418228728252707
 51
51.8362535417099508
  0
ARC
  5
94CF
  8
0
 10
3324.2362501066031655
 20
295.1017091077598025
 30
0.0
 40
0.0402243397345427
 50
353.4102987004476972
 51
14.9404171225974007
  0
ARC
  5
94D0
  8
0
 10
3324.2252766328870166
 20
295.1035471313609264
 30
0.0
 40
0.0513393716794718
 50
313.6404987210029844
 51
352.7779709649028064
  0
ARC
  5
94D1
  8
0
 10
3324.2085777411421077
 20
295.1291740348606254
 30
0.0
 40
0.081602046088254
 50
272.5050951739377751
 51
309.7045951718719152
  0
ARC
  5
94D2
  8
0
 10
3324.2120380918267983
 20
295.0829871262101278
 30
0.0
 40
0.0230238032153533
 50
43.5715473834451075
 51
89.7353912229375652
  0
ARC
  5
94D3
  8
0
 10
3324.2190601021379734
 20
295.0905269725719791
 30
0.0
 40
0.0127545550090622
 50
335.0844536527113178
 51
40.7729901623509008
  0
ARC
  5
94D4
  8
0
 10
3324.2118821693779864
 20
295.0973007924886247
 30
0.0
 40
0.0223370169678612
 50
270.6727094438173822
 51
327.0566498421795245
  0
ARC
  5
94D5
  8
0
 10
3324.3992816415911875
 20
294.9336262557820874
 30
0.0
 40
0.072769019930687
 50
90.6410396539869083
 51
142.348646213056611
  0
ARC
  5
94D6
  8
0
 10
3324.3879118838372051
 20
294.9451604450006243
 30
0.0
 40
0.0567635222377504
 50
144.5565314423432994
 51
186.6225824968333029
  0
LINE
  5
94D7
  8
0
 10
3324.3315271226019831
 20
294.9386139835656877
 30
0.0
 11
3324.3344032219702058
 21
294.9146571687753067
 31
0.0
  0
ARC
  5
94D8
  8
0
 10
3324.4013061564460259
 20
294.8847311618742992
 30
0.0
 40
0.0853188157580601
 50
91.9066489761305405
 51
125.2459776787329986
  0
ARC
  5
94D9
  8
0
 10
3324.3817876061511924
 20
294.9165955823581839
 30
0.0
 40
0.048094144815246
 50
128.1637464582900066
 51
164.2581771271746902
  0
ARC
  5
94DA
  8
0
 10
3324.3743618159469406
 20
294.919273257432792
 30
0.0
 40
0.0402243397345427
 50
165.0595828774025904
 51
186.5897012995523028
  0
ARC
  5
94DB
  8
0
 10
3324.3853352896630895
 20
294.9211112810339159
 30
0.0
 40
0.0513393716794718
 50
187.222029035095602
 51
226.3595012789969019
  0
ARC
  5
94DC
  8
0
 10
3324.4020341814079984
 20
294.9467381845336718
 30
0.0
 40
0.081602046088254
 50
230.2954048281279995
 51
267.4949048260621112
  0
ARC
  5
94DD
  8
0
 10
3324.398573830722853
 20
294.9005512758831173
 30
0.0
 40
0.0230238032153533
 50
90.2646087770624348
 51
136.4284526165548925
  0
ARC
  5
94DE
  8
0
 10
3324.3915518204121327
 20
294.9080911222450823
 30
0.0
 40
0.0127545550090622
 50
139.2270098376490921
 51
204.9155463472887106
  0
ARC
  5
94DF
  8
0
 10
3324.3987297531721197
 20
294.9148649421616142
 30
0.0
 40
0.0223370169678612
 50
212.9433501578203902
 51
269.3272905561826178
  0
ARC
  5
94E0
  8
0
 10
3324.3976533592090163
 20
294.9336262557820874
 30
0.0
 40
0.072769019930687
 50
37.6513537869433819
 51
89.3589603460130775
  0
ARC
  5
94E1
  8
0
 10
3324.4090231169629988
 20
294.9451604450006243
 30
0.0
 40
0.0567635222377504
 50
353.3774175031667255
 51
35.4434685576567432
  0
LINE
  5
94E2
  8
0
 10
3324.4654078781982207
 20
294.9386139835656877
 30
0.0
 11
3324.4625317788290886
 21
294.9146571687753067
 31
0.0
  0
ARC
  5
94E3
  8
0
 10
3324.3956288443528138
 20
294.8847311618742992
 30
0.0
 40
0.0853188157580601
 50
54.754022321266973
 51
88.0933510238694737
  0
ARC
  5
94E4
  8
0
 10
3324.4151473946490114
 20
294.9165955823581839
 30
0.0
 40
0.048094144815246
 50
15.7418228728252707
 51
51.8362535417099508
  0
ARC
  5
94E5
  8
0
 10
3324.4225731848528085
 20
294.919273257432792
 30
0.0
 40
0.0402243397345427
 50
353.4102987004476972
 51
14.9404171225974007
  0
ARC
  5
94E6
  8
0
 10
3324.4115997111371144
 20
294.9211112810339159
 30
0.0
 40
0.0513393716794718
 50
313.6404987210029844
 51
352.7779709649028064
  0
ARC
  5
94E7
  8
0
 10
3324.3949008193922054
 20
294.9467381845336718
 30
0.0
 40
0.081602046088254
 50
272.5050951739377751
 51
309.7045951718719152
  0
ARC
  5
94E8
  8
0
 10
3324.3983611700759866
 20
294.9005512758831173
 30
0.0
 40
0.0230238032153533
 50
43.5715473834451075
 51
89.7353912229375652
  0
ARC
  5
94E9
  8
0
 10
3324.4053831803871617
 20
294.9080911222450823
 30
0.0
 40
0.0127545550090622
 50
335.0844536527113178
 51
40.7729901623509008
  0
ARC
  5
94EA
  8
0
 10
3324.3982052476271747
 20
294.9148649421616142
 30
0.0
 40
0.0223370169678612
 50
270.6727094438173822
 51
327.0566498421795245
  0
ARC
  5
94EB
  8
0
 10
3323.6767207368538948
 20
295.6290488425952958
 30
0.0
 40
0.072769019930687
 50
90.6410396539869083
 51
142.348646213056611
  0
ARC
  5
94EC
  8
0
 10
3323.6653509790999124
 20
295.640583031813776
 30
0.0
 40
0.0567635222377504
 50
144.5565314423432994
 51
186.6225824968333029
  0
LINE
  5
94ED
  8
0
 10
3323.6089662178660546
 20
295.6340365703787825
 30
0.0
 11
3323.6118423172338225
 21
295.6100797555885151
 31
0.0
  0
ARC
  5
94EE
  8
0
 10
3323.6787452517100974
 20
295.5801537486875077
 30
0.0
 40
0.0853188157580601
 50
91.9066489761305405
 51
125.2459776787329986
  0
ARC
  5
94EF
  8
0
 10
3323.6592267014148092
 20
295.6120181691713924
 30
0.0
 40
0.048094144815246
 50
128.1637464582900066
 51
164.2581771271746902
  0
ARC
  5
94F0
  8
0
 10
3323.6518009112110121
 20
295.6146958442460004
 30
0.0
 40
0.0402243397345427
 50
165.0595828774025904
 51
186.5897012995523028
  0
ARC
  5
94F1
  8
0
 10
3323.662774384927161
 20
295.6165338678471244
 30
0.0
 40
0.0513393716794718
 50
187.222029035095602
 51
226.3595012789969019
  0
ARC
  5
94F2
  8
0
 10
3323.6794732766720699
 20
295.6421607713468802
 30
0.0
 40
0.081602046088254
 50
230.2954048281279995
 51
267.4949048260621112
  0
ARC
  5
94F3
  8
0
 10
3323.6760129259869245
 20
295.5959738626963258
 30
0.0
 40
0.0230238032153533
 50
90.2646087770624348
 51
136.4284526165548925
  0
ARC
  5
94F4
  8
0
 10
3323.6689909156771137
 20
295.603513709058177
 30
0.0
 40
0.0127545550090622
 50
139.2270098376490921
 51
204.9155463472887106
  0
ARC
  5
94F5
  8
0
 10
3323.6761688484361912
 20
295.6102875289748226
 30
0.0
 40
0.0223370169678612
 50
212.9433501578203902
 51
269.3272905561826178
  0
ARC
  5
94F6
  8
0
 10
3323.6750924544730879
 20
295.6290488425952958
 30
0.0
 40
0.072769019930687
 50
37.6513537869433819
 51
89.3589603460130775
  0
ARC
  5
94F7
  8
0
 10
3323.6864622122270703
 20
295.640583031813776
 30
0.0
 40
0.0567635222377504
 50
353.3774175031667255
 51
35.4434685576567432
  0
LINE
  5
94F8
  8
0
 10
3323.7428469734618375
 20
295.6340365703787825
 30
0.0
 11
3323.7399708740931601
 21
295.6100797555885151
 31
0.0
  0
ARC
  5
94F9
  8
0
 10
3323.6730679396177948
 20
295.5801537486875077
 30
0.0
 40
0.0853188157580601
 50
54.754022321266973
 51
88.0933510238694737
  0
ARC
  5
94FA
  8
0
 10
3323.6925864899130829
 20
295.6120181691713924
 30
0.0
 40
0.048094144815246
 50
15.7418228728252707
 51
51.8362535417099508
  0
ARC
  5
94FB
  8
0
 10
3323.70001228011688
 20
295.6146958442460004
 30
0.0
 40
0.0402243397345427
 50
353.4102987004476972
 51
14.9404171225974007
  0
ARC
  5
94FC
  8
0
 10
3323.6890388064011859
 20
295.6165338678471244
 30
0.0
 40
0.0513393716794718
 50
313.6404987210029844
 51
352.7779709649028064
  0
ARC
  5
94FD
  8
0
 10
3323.6723399146558222
 20
295.6421607713468802
 30
0.0
 40
0.081602046088254
 50
272.5050951739377751
 51
309.7045951718719152
  0
ARC
  5
94FE
  8
0
 10
3323.6758002653400581
 20
295.5959738626963258
 30
0.0
 40
0.0230238032153533
 50
43.5715473834451075
 51
89.7353912229375652
  0
ARC
  5
94FF
  8
0
 10
3323.6828222756507785
 20
295.603513709058177
 30
0.0
 40
0.0127545550090622
 50
335.0844536527113178
 51
40.7729901623509008
  0
ARC
  5
9500
  8
0
 10
3323.6756443428921557
 20
295.6102875289748226
 30
0.0
 40
0.0223370169678612
 50
270.6727094438173822
 51
327.0566498421795245
  0
ARC
  5
9501
  8
0
 10
3323.7939107367042197
 20
295.4324177041979169
 30
0.0
 40
0.072769019930687
 50
90.6410396539869083
 51
142.348646213056611
  0
ARC
  5
9502
  8
0
 10
3323.7825409789497826
 20
295.4439518934162834
 30
0.0
 40
0.0567635222377504
 50
144.5565314423432994
 51
186.6225824968333029
  0
LINE
  5
9503
  8
0
 10
3323.7261562177150154
 20
295.4374054319814036
 30
0.0
 11
3323.7290323170841475
 21
295.4134486171910225
 31
0.0
  0
ARC
  5
9504
  8
0
 10
3323.7959352515599676
 20
295.383522610290072
 30
0.0
 40
0.0853188157580601
 50
91.9066489761305405
 51
125.2459776787329986
  0
ARC
  5
9505
  8
0
 10
3323.7764167012651342
 20
295.4153870307738998
 30
0.0
 40
0.048094144815246
 50
128.1637464582900066
 51
164.2581771271746902
  0
ARC
  5
9506
  8
0
 10
3323.7689909110608824
 20
295.4180647058485079
 30
0.0
 40
0.0402243397345427
 50
165.0595828774025904
 51
186.5897012995523028
  0
ARC
  5
9507
  8
0
 10
3323.7799643847761217
 20
295.419902729449575
 30
0.0
 40
0.0513393716794718
 50
187.222029035095602
 51
226.3595012789969019
  0
ARC
  5
9508
  8
0
 10
3323.7966632765219401
 20
295.4455296329493876
 30
0.0
 40
0.081602046088254
 50
230.2954048281279995
 51
267.4949048260621112
  0
ARC
  5
9509
  8
0
 10
3323.7932029258367947
 20
295.3993427242987764
 30
0.0
 40
0.0230238032153533
 50
90.2646087770624348
 51
136.4284526165548925
  0
ARC
  5
950A
  8
0
 10
3323.7861809155260744
 20
295.4068825706606845
 30
0.0
 40
0.0127545550090622
 50
139.2270098376490921
 51
204.9155463472887106
  0
ARC
  5
950B
  8
0
 10
3323.7933588482860614
 20
295.4136563905772732
 30
0.0
 40
0.0223370169678612
 50
212.9433501578203902
 51
269.3272905561826178
  0
ARC
  5
950C
  8
0
 10
3323.7922824543238676
 20
295.4324177041979169
 30
0.0
 40
0.072769019930687
 50
37.6513537869433819
 51
89.3589603460130775
  0
ARC
  5
950D
  8
0
 10
3323.8036522120769405
 20
295.4439518934162834
 30
0.0
 40
0.0567635222377504
 50
353.3774175031667255
 51
35.4434685576567432
  0
LINE
  5
950E
  8
0
 10
3323.8600369733121624
 20
295.4374054319814036
 30
0.0
 11
3323.8571608739439398
 21
295.4134486171910225
 31
0.0
  0
ARC
  5
950F
  8
0
 10
3323.7902579394681197
 20
295.383522610290072
 30
0.0
 40
0.0853188157580601
 50
54.754022321266973
 51
88.0933510238694737
  0
ARC
  5
9510
  8
0
 10
3323.8097764897620436
 20
295.4153870307738998
 30
0.0
 40
0.048094144815246
 50
15.7418228728252707
 51
51.8362535417099508
  0
ARC
  5
9511
  8
0
 10
3323.817202279967205
 20
295.4180647058485079
 30
0.0
 40
0.0402243397345427
 50
353.4102987004476972
 51
14.9404171225974007
  0
ARC
  5
9512
  8
0
 10
3323.8062288062510561
 20
295.419902729449575
 30
0.0
 40
0.0513393716794718
 50
313.6404987210029844
 51
352.7779709649028064
  0
ARC
  5
9513
  8
0
 10
3323.7895299145047829
 20
295.4455296329493876
 30
0.0
 40
0.081602046088254
 50
272.5050951739377751
 51
309.7045951718719152
  0
ARC
  5
9514
  8
0
 10
3323.7929902651908378
 20
295.3993427242987764
 30
0.0
 40
0.0230238032153533
 50
43.5715473834451075
 51
89.7353912229375652
  0
ARC
  5
9515
  8
0
 10
3323.8000122755011034
 20
295.4068825706606845
 30
0.0
 40
0.0127545550090622
 50
335.0844536527113178
 51
40.7729901623509008
  0
ARC
  5
9516
  8
0
 10
3323.7928343427420259
 20
295.4136563905772732
 30
0.0
 40
0.0223370169678612
 50
270.6727094438173822
 51
327.0566498421795245
  0
ARC
  5
9517
  8
0
 10
3323.8885225819258267
 20
294.9832818662270029
 30
0.0
 40
0.072769019930687
 50
90.6410396539869083
 51
142.348646213056611
  0
ARC
  5
9518
  8
0
 10
3323.8771528241718443
 20
294.994816055445483
 30
0.0
 40
0.0567635222377504
 50
144.5565314423432994
 51
186.6225824968333029
  0
LINE
  5
9519
  8
0
 10
3323.820768062937077
 20
294.9882695940106032
 30
0.0
 11
3323.8236441623062092
 21
294.9643127792202222
 31
0.0
  0
ARC
  5
951A
  8
0
 10
3323.8905470967820293
 20
294.9343867723192716
 30
0.0
 40
0.0853188157580601
 50
91.9066489761305405
 51
125.2459776787329986
  0
ARC
  5
951B
  8
0
 10
3323.8710285464858316
 20
294.9662511928032131
 30
0.0
 40
0.048094144815246
 50
128.1637464582900066
 51
164.2581771271746902
  0
ARC
  5
951C
  8
0
 10
3323.863602756282944
 20
294.9689288678777075
 30
0.0
 40
0.0402243397345427
 50
165.0595828774025904
 51
186.5897012995523028
  0
ARC
  5
951D
  8
0
 10
3323.8745762299990929
 20
294.9707668914787746
 30
0.0
 40
0.0513393716794718
 50
187.222029035095602
 51
226.3595012789969019
  0
ARC
  5
951E
  8
0
 10
3323.8912751217440018
 20
294.9963937949784736
 30
0.0
 40
0.081602046088254
 50
230.2954048281279995
 51
267.4949048260621112
  0
ARC
  5
951F
  8
0
 10
3323.8878147710588564
 20
294.950206886327976
 30
0.0
 40
0.0230238032153533
 50
90.2646087770624348
 51
136.4284526165548925
  0
ARC
  5
9520
  8
0
 10
3323.8807927607481361
 20
294.9577467326899978
 30
0.0
 40
0.0127545550090622
 50
139.2270098376490921
 51
204.9155463472887106
  0
ARC
  5
9521
  8
0
 10
3323.8879706935081231
 20
294.9645205526064728
 30
0.0
 40
0.0223370169678612
 50
212.9433501578203902
 51
269.3272905561826178
  0
ARC
  5
9522
  8
0
 10
3323.8868942995441103
 20
294.9832818662270029
 30
0.0
 40
0.072769019930687
 50
37.6513537869433819
 51
89.3589603460130775
  0
ARC
  5
9523
  8
0
 10
3323.8982640572980927
 20
294.994816055445483
 30
0.0
 40
0.0567635222377504
 50
353.3774175031667255
 51
35.4434685576567432
  0
LINE
  5
9524
  8
0
 10
3323.9546488185342241
 20
294.9882695940106032
 30
0.0
 11
3323.951772719165092
 21
294.9643127792202222
 31
0.0
  0
ARC
  5
9525
  8
0
 10
3323.8848697846888172
 20
294.9343867723192716
 30
0.0
 40
0.0853188157580601
 50
54.754022321266973
 51
88.0933510238694737
  0
ARC
  5
9526
  8
0
 10
3323.9043883349841053
 20
294.9662511928032131
 30
0.0
 40
0.048094144815246
 50
15.7418228728252707
 51
51.8362535417099508
  0
ARC
  5
9527
  8
0
 10
3323.9118141251879024
 20
294.9689288678777075
 30
0.0
 40
0.0402243397345427
 50
353.4102987004476972
 51
14.9404171225974007
  0
ARC
  5
9528
  8
0
 10
3323.9008406514722083
 20
294.9707668914787746
 30
0.0
 40
0.0513393716794718
 50
313.6404987210029844
 51
352.7779709649028064
  0
ARC
  5
9529
  8
0
 10
3323.8841417597268446
 20
294.9963937949784736
 30
0.0
 40
0.081602046088254
 50
272.5050951739377751
 51
309.7045951718719152
  0
ARC
  5
952A
  8
0
 10
3323.88760211041199
 20
294.950206886327976
 30
0.0
 40
0.0230238032153533
 50
43.5715473834451075
 51
89.7353912229375652
  0
ARC
  5
952B
  8
0
 10
3323.8946241207231651
 20
294.9577467326899978
 30
0.0
 40
0.0127545550090622
 50
335.0844536527113178
 51
40.7729901623509008
  0
ARC
  5
952C
  8
0
 10
3323.8874461879631781
 20
294.9645205526064728
 30
0.0
 40
0.0223370169678612
 50
270.6727094438173822
 51
327.0566498421795245
  0
ARC
  5
952D
  8
0
 10
3324.0645955976710866
 20
294.8366369402630767
 30
0.0
 40
0.072769019930687
 50
90.6410396539869083
 51
142.348646213056611
  0
ARC
  5
952E
  8
0
 10
3324.0532258399171042
 20
294.8481711294816137
 30
0.0
 40
0.0567635222377504
 50
144.5565314423432994
 51
186.6225824968333029
  0
LINE
  5
952F
  8
0
 10
3323.9968410786818822
 20
294.8416246680466202
 30
0.0
 11
3323.9997171780510143
 21
294.817667853256296
 31
0.0
  0
ARC
  5
9530
  8
0
 10
3324.0666201125259249
 20
294.7877418463554022
 30
0.0
 40
0.0853188157580601
 50
91.9066489761305405
 51
125.2459776787329986
  0
ARC
  5
9531
  8
0
 10
3324.0471015622310915
 20
294.8196062668391733
 30
0.0
 40
0.048094144815246
 50
128.1637464582900066
 51
164.2581771271746902
  0
ARC
  5
9532
  8
0
 10
3324.0396757720282039
 20
294.8222839419137813
 30
0.0
 40
0.0402243397345427
 50
165.0595828774025904
 51
186.5897012995523028
  0
ARC
  5
9533
  8
0
 10
3324.0506492457429886
 20
294.8241219655149052
 30
0.0
 40
0.0513393716794718
 50
187.222029035095602
 51
226.3595012789969019
  0
ARC
  5
9534
  8
0
 10
3324.0673481374878975
 20
294.8497488690147179
 30
0.0
 40
0.081602046088254
 50
230.2954048281279995
 51
267.4949048260621112
  0
ARC
  5
9535
  8
0
 10
3324.0638877868032068
 20
294.8035619603641067
 30
0.0
 40
0.0230238032153533
 50
90.2646087770624348
 51
136.4284526165548925
  0
ARC
  5
9536
  8
0
 10
3324.0568657764929412
 20
294.8111018067260147
 30
0.0
 40
0.0127545550090622
 50
139.2270098376490921
 51
204.9155463472887106
  0
ARC
  5
9537
  8
0
 10
3324.0640437092529282
 20
294.8178756266426035
 30
0.0
 40
0.0223370169678612
 50
212.9433501578203902
 51
269.3272905561826178
  0
ARC
  5
9538
  8
0
 10
3324.0629673152898249
 20
294.8366369402630767
 30
0.0
 40
0.072769019930687
 50
37.6513537869433819
 51
89.3589603460130775
  0
ARC
  5
9539
  8
0
 10
3324.0743370730438073
 20
294.8481711294816137
 30
0.0
 40
0.0567635222377504
 50
353.3774175031667255
 51
35.4434685576567432
  0
LINE
  5
953A
  8
0
 10
3324.1307218342781198
 20
294.8416246680466202
 30
0.0
 11
3324.1278457349098971
 21
294.817667853256296
 31
0.0
  0
ARC
  5
953B
  8
0
 10
3324.0609428004340771
 20
294.7877418463554022
 30
0.0
 40
0.0853188157580601
 50
54.754022321266973
 51
88.0933510238694737
  0
ARC
  5
953C
  8
0
 10
3324.0804613507289105
 20
294.8196062668391733
 30
0.0
 40
0.048094144815246
 50
15.7418228728252707
 51
51.8362535417099508
  0
ARC
  5
953D
  8
0
 10
3324.0878871409331623
 20
294.8222839419137813
 30
0.0
 40
0.0402243397345427
 50
353.4102987004476972
 51
14.9404171225974007
  0
ARC
  5
953E
  8
0
 10
3324.0769136672170134
 20
294.8241219655149052
 30
0.0
 40
0.0513393716794718
 50
313.6404987210029844
 51
352.7779709649028064
  0
ARC
  5
953F
  8
0
 10
3324.060214775471195
 20
294.8497488690147179
 30
0.0
 40
0.081602046088254
 50
272.5050951739377751
 51
309.7045951718719152
  0
ARC
  5
9540
  8
0
 10
3324.0636751261567952
 20
294.8035619603641067
 30
0.0
 40
0.0230238032153533
 50
43.5715473834451075
 51
89.7353912229375652
  0
ARC
  5
9541
  8
0
 10
3324.0706971364670608
 20
294.8111018067260147
 30
0.0
 40
0.0127545550090622
 50
335.0844536527113178
 51
40.7729901623509008
  0
ARC
  5
9542
  8
0
 10
3324.0635192037079833
 20
294.8178756266426035
 30
0.0
 40
0.0223370169678612
 50
270.6727094438173822
 51
327.0566498421795245
  0
ARC
  5
9543
  8
0
 10
3323.7138422971011096
 20
295.1382832267635195
 30
0.0
 40
0.072769019930687
 50
90.6410396539869083
 51
142.348646213056611
  0
ARC
  5
9544
  8
0
 10
3323.7024725393480367
 20
295.1498174159818859
 30
0.0
 40
0.0567635222377504
 50
144.5565314423432994
 51
186.6225824968333029
  0
LINE
  5
9545
  8
0
 10
3323.6460877781128147
 20
295.1432709545470061
 30
0.0
 11
3323.6489638774810373
 21
295.1193141397566819
 31
0.0
  0
ARC
  5
9546
  8
0
 10
3323.7158668119568574
 20
295.0893881328557882
 30
0.0
 40
0.0853188157580601
 50
91.9066489761305405
 51
125.2459776787329986
  0
ARC
  5
9547
  8
0
 10
3323.696348261662024
 20
295.121252553339616
 30
0.0
 40
0.048094144815246
 50
128.1637464582900066
 51
164.2581771271746902
  0
ARC
  5
9548
  8
0
 10
3323.6889224714582269
 20
295.1239302284142241
 30
0.0
 40
0.0402243397345427
 50
165.0595828774025904
 51
186.5897012995523028
  0
ARC
  5
9549
  8
0
 10
3323.6998959451739211
 20
295.1257682520152912
 30
0.0
 40
0.0513393716794718
 50
187.222029035095602
 51
226.3595012789969019
  0
ARC
  5
954A
  8
0
 10
3323.71659483691883
 20
295.1513951555151039
 30
0.0
 40
0.081602046088254
 50
230.2954048281279995
 51
267.4949048260621112
  0
ARC
  5
954B
  8
0
 10
3323.7131344862327751
 20
295.1052082468644926
 30
0.0
 40
0.0230238032153533
 50
90.2646087770624348
 51
136.4284526165548925
  0
ARC
  5
954C
  8
0
 10
3323.7061124759238737
 20
295.1127480932264007
 30
0.0
 40
0.0127545550090622
 50
139.2270098376490921
 51
204.9155463472887106
  0
ARC
  5
954D
  8
0
 10
3323.7132904086829512
 20
295.1195219131429894
 30
0.0
 40
0.0223370169678612
 50
212.9433501578203902
 51
269.3272905561826178
  0
ARC
  5
954E
  8
0
 10
3323.7122140147198479
 20
295.1382832267635195
 30
0.0
 40
0.072769019930687
 50
37.6513537869433819
 51
89.3589603460130775
  0
ARC
  5
954F
  8
0
 10
3323.7235837724738303
 20
295.1498174159818859
 30
0.0
 40
0.0567635222377504
 50
353.3774175031667255
 51
35.4434685576567432
  0
LINE
  5
9550
  8
0
 10
3323.7799685337099618
 20
295.1432709545470061
 30
0.0
 11
3323.7770924343399201
 21
295.1193141397566819
 31
0.0
  0
ARC
  5
9551
  8
0
 10
3323.7101894998650096
 20
295.0893881328557882
 30
0.0
 40
0.0853188157580601
 50
54.754022321266973
 51
88.0933510238694737
  0
ARC
  5
9552
  8
0
 10
3323.7297080501589335
 20
295.121252553339616
 30
0.0
 40
0.048094144815246
 50
15.7418228728252707
 51
51.8362535417099508
  0
ARC
  5
9553
  8
0
 10
3323.7371338403640948
 20
295.1239302284142241
 30
0.0
 40
0.0402243397345427
 50
353.4102987004476972
 51
14.9404171225974007
  0
ARC
  5
9554
  8
0
 10
3323.7261603666488554
 20
295.1257682520152912
 30
0.0
 40
0.0513393716794718
 50
313.6404987210029844
 51
352.7779709649028064
  0
ARC
  5
9555
  8
0
 10
3323.709461474903037
 20
295.1513951555151039
 30
0.0
 40
0.081602046088254
 50
272.5050951739377751
 51
309.7045951718719152
  0
ARC
  5
9556
  8
0
 10
3323.7129218255868182
 20
295.1052082468644926
 30
0.0
 40
0.0230238032153533
 50
43.5715473834451075
 51
89.7353912229375652
  0
ARC
  5
9557
  8
0
 10
3323.7199438358979933
 20
295.1127480932264007
 30
0.0
 40
0.0127545550090622
 50
335.0844536527113178
 51
40.7729901623509008
  0
ARC
  5
9558
  8
0
 10
3323.7127659031380063
 20
295.1195219131429894
 30
0.0
 40
0.0223370169678612
 50
270.6727094438173822
 51
327.0566498421795245
  0
ARC
  5
9559
  8
0
 10
3323.5468504697118988
 20
295.2990184981318862
 30
0.0
 40
0.072769019930687
 50
90.6410396539869083
 51
142.348646213056611
  0
ARC
  5
955A
  8
0
 10
3323.5354807119579164
 20
295.3105526873504232
 30
0.0
 40
0.0567635222377504
 50
144.5565314423432994
 51
186.6225824968333029
  0
LINE
  5
955B
  8
0
 10
3323.4790959507231491
 20
295.3040062259154865
 30
0.0
 11
3323.4819720500918265
 21
295.2800494111251055
 31
0.0
  0
ARC
  5
955C
  8
0
 10
3323.5488749845671919
 20
295.2501234042240981
 30
0.0
 40
0.0853188157580601
 50
91.9066489761305405
 51
125.2459776787329986
  0
ARC
  5
955D
  8
0
 10
3323.5293564342719037
 20
295.2819878247079828
 30
0.0
 40
0.048094144815246
 50
128.1637464582900066
 51
164.2581771271746902
  0
ARC
  5
955E
  8
0
 10
3323.5219306440681066
 20
295.2846654997825908
 30
0.0
 40
0.0402243397345427
 50
165.0595828774025904
 51
186.5897012995523028
  0
ARC
  5
955F
  8
0
 10
3323.5329041177838008
 20
295.2865035233837148
 30
0.0
 40
0.0513393716794718
 50
187.222029035095602
 51
226.3595012789969019
  0
ARC
  5
9560
  8
0
 10
3323.5496030095291644
 20
295.3121304268835274
 30
0.0
 40
0.081602046088254
 50
230.2954048281279995
 51
267.4949048260621112
  0
ARC
  5
9561
  8
0
 10
3323.5461426588449285
 20
295.2659435182329162
 30
0.0
 40
0.0230238032153533
 50
90.2646087770624348
 51
136.4284526165548925
  0
ARC
  5
9562
  8
0
 10
3323.5391206485342082
 20
295.2734833645948811
 30
0.0
 40
0.0127545550090622
 50
139.2270098376490921
 51
204.9155463472887106
  0
ARC
  5
9563
  8
0
 10
3323.5462985812928309
 20
295.280257184511413
 30
0.0
 40
0.0223370169678612
 50
212.9433501578203902
 51
269.3272905561826178
  0
ARC
  5
9564
  8
0
 10
3323.5452221873301824
 20
295.2990184981318862
 30
0.0
 40
0.072769019930687
 50
37.6513537869433819
 51
89.3589603460130775
  0
ARC
  5
9565
  8
0
 10
3323.5565919450841648
 20
295.3105526873504232
 30
0.0
 40
0.0567635222377504
 50
353.3774175031667255
 51
35.4434685576567432
  0
LINE
  5
9566
  8
0
 10
3323.6129767063198415
 20
295.3040062259154865
 30
0.0
 11
3323.6101006069511641
 21
295.2800494111251055
 31
0.0
  0
ARC
  5
9567
  8
0
 10
3323.5431976724748893
 20
295.2501234042240981
 30
0.0
 40
0.0853188157580601
 50
54.754022321266973
 51
88.0933510238694737
  0
ARC
  5
9568
  8
0
 10
3323.5627162227701774
 20
295.2819878247079828
 30
0.0
 40
0.048094144815246
 50
15.7418228728252707
 51
51.8362535417099508
  0
ARC
  5
9569
  8
0
 10
3323.5701420129739745
 20
295.2846654997825908
 30
0.0
 40
0.0402243397345427
 50
353.4102987004476972
 51
14.9404171225974007
  0
ARC
  5
956A
  8
0
 10
3323.5591685392578256
 20
295.2865035233837148
 30
0.0
 40
0.0513393716794718
 50
313.6404987210029844
 51
352.7779709649028064
  0
ARC
  5
956B
  8
0
 10
3323.5424696475129167
 20
295.3121304268835274
 30
0.0
 40
0.081602046088254
 50
272.5050951739377751
 51
309.7045951718719152
  0
ARC
  5
956C
  8
0
 10
3323.5459299981980621
 20
295.2659435182329162
 30
0.0
 40
0.0230238032153533
 50
43.5715473834451075
 51
89.7353912229375652
  0
ARC
  5
956D
  8
0
 10
3323.552952008507873
 20
295.2734833645948811
 30
0.0
 40
0.0127545550090622
 50
335.0844536527113178
 51
40.7729901623509008
  0
ARC
  5
956E
  8
0
 10
3323.5457740757487954
 20
295.280257184511413
 30
0.0
 40
0.0223370169678612
 50
270.6727094438173822
 51
327.0566498421795245
  0
ARC
  5
956F
  8
0
 10
3323.3805431005071114
 20
295.467277441650424
 30
0.0
 40
0.072769019930687
 50
90.6410396539869083
 51
142.348646213056611
  0
ARC
  5
9570
  8
0
 10
3323.369173342753129
 20
295.4788116308689041
 30
0.0
 40
0.0567635222377504
 50
144.5565314423432994
 51
186.6225824968333029
  0
LINE
  5
9571
  8
0
 10
3323.312788581517907
 20
295.4722651694339106
 30
0.0
 11
3323.3156646808870391
 21
295.4483083546435864
 31
0.0
  0
ARC
  5
9572
  8
0
 10
3323.3825676153619497
 20
295.418382347742579
 30
0.0
 40
0.0853188157580601
 50
91.9066489761305405
 51
125.2459776787329986
  0
ARC
  5
9573
  8
0
 10
3323.3630490650680258
 20
295.4502467682265205
 30
0.0
 40
0.048094144815246
 50
128.1637464582900066
 51
164.2581771271746902
  0
ARC
  5
9574
  8
0
 10
3323.355623274863774
 20
295.4529244433010717
 30
0.0
 40
0.0402243397345427
 50
165.0595828774025904
 51
186.5897012995523028
  0
ARC
  5
9575
  8
0
 10
3323.3665967485790134
 20
295.4547624669021957
 30
0.0
 40
0.0513393716794718
 50
187.222029035095602
 51
226.3595012789969019
  0
ARC
  5
9576
  8
0
 10
3323.3832956403248318
 20
295.4803893704018947
 30
0.0
 40
0.081602046088254
 50
230.2954048281279995
 51
267.4949048260621112
  0
ARC
  5
9577
  8
0
 10
3323.3798352896401411
 20
295.4342024617513971
 30
0.0
 40
0.0230238032153533
 50
90.2646087770624348
 51
136.4284526165548925
  0
ARC
  5
9578
  8
0
 10
3323.372813279328966
 20
295.4417423081133052
 30
0.0
 40
0.0127545550090622
 50
139.2270098376490921
 51
204.9155463472887106
  0
ARC
  5
9579
  8
0
 10
3323.379991212088953
 20
295.4485161280298939
 30
0.0
 40
0.0223370169678612
 50
212.9433501578203902
 51
269.3272905561826178
  0
ARC
  5
957A
  8
0
 10
3323.3789148181249402
 20
295.467277441650424
 30
0.0
 40
0.072769019930687
 50
37.6513537869433819
 51
89.3589603460130775
  0
ARC
  5
957B
  8
0
 10
3323.3902845758789226
 20
295.4788116308689041
 30
0.0
 40
0.0567635222377504
 50
353.3774175031667255
 51
35.4434685576567432
  0
LINE
  5
957C
  8
0
 10
3323.4466693371150541
 20
295.4722651694339106
 30
0.0
 11
3323.4437932377450124
 21
295.4483083546435864
 31
0.0
  0
ARC
  5
957D
  8
0
 10
3323.3768903032710114
 20
295.418382347742579
 30
0.0
 40
0.0853188157580601
 50
54.754022321266973
 51
88.0933510238694737
  0
ARC
  5
957E
  8
0
 10
3323.3964088535658448
 20
295.4502467682265205
 30
0.0
 40
0.048094144815246
 50
15.7418228728252707
 51
51.8362535417099508
  0
ARC
  5
957F
  8
0
 10
3323.4038346437691871
 20
295.4529244433010717
 30
0.0
 40
0.0402243397345427
 50
353.4102987004476972
 51
14.9404171225974007
  0
ARC
  5
9580
  8
0
 10
3323.3928611700539477
 20
295.4547624669021957
 30
0.0
 40
0.0513393716794718
 50
313.6404987210029844
 51
352.7779709649028064
  0
ARC
  5
9581
  8
0
 10
3323.3761622783090388
 20
295.4803893704018947
 30
0.0
 40
0.081602046088254
 50
272.5050951739377751
 51
309.7045951718719152
  0
ARC
  5
9582
  8
0
 10
3323.37962262899282
 20
295.4342024617513971
 30
0.0
 40
0.0230238032153533
 50
43.5715473834451075
 51
89.7353912229375652
  0
ARC
  5
9583
  8
0
 10
3323.3866446393039951
 20
295.4417423081133052
 30
0.0
 40
0.0127545550090622
 50
335.0844536527113178
 51
40.7729901623509008
  0
ARC
  5
9584
  8
0
 10
3323.379466706544008
 20
295.4485161280298939
 30
0.0
 40
0.0223370169678612
 50
270.6727094438173822
 51
327.0566498421795245
  0
ARC
  5
9585
  8
0
 10
3323.9267522191780699
 20
294.5960032768454084
 30
0.0
 40
0.072769019930687
 50
90.6410396539869083
 51
142.348646213056611
  0
ARC
  5
9586
  8
0
 10
3323.9153824614240875
 20
294.6075374660638886
 30
0.0
 40
0.0567635222377504
 50
144.5565314423432994
 51
186.6225824968333029
  0
LINE
  5
9587
  8
0
 10
3323.8589977001888656
 20
294.6009910046288951
 30
0.0
 11
3323.8618737995570882
 21
294.5770341898386278
 31
0.0
  0
ARC
  5
9588
  8
0
 10
3323.9287767340329083
 20
294.5471081829376772
 30
0.0
 40
0.0853188157580601
 50
91.9066489761305405
 51
125.2459776787329986
  0
ARC
  5
9589
  8
0
 10
3323.9092581837380749
 20
294.5789726034216187
 30
0.0
 40
0.048094144815246
 50
128.1637464582900066
 51
164.2581771271746902
  0
ARC
  5
958A
  8
0
 10
3323.9018323935338231
 20
294.5816502784961131
 30
0.0
 40
0.0402243397345427
 50
165.0595828774025904
 51
186.5897012995523028
  0
ARC
  5
958B
  8
0
 10
3323.9128058672499719
 20
294.5834883020971802
 30
0.0
 40
0.0513393716794718
 50
187.222029035095602
 51
226.3595012789969019
  0
ARC
  5
958C
  8
0
 10
3323.9295047589948808
 20
294.6091152055969928
 30
0.0
 40
0.081602046088254
 50
230.2954048281279995
 51
267.4949048260621112
  0
ARC
  5
958D
  8
0
 10
3323.9260444083101902
 20
294.5629282969464953
 30
0.0
 40
0.0230238032153533
 50
90.2646087770624348
 51
136.4284526165548925
  0
ARC
  5
958E
  8
0
 10
3323.9190223979999246
 20
294.5704681433082897
 30
0.0
 40
0.0127545550090622
 50
139.2270098376490921
 51
204.9155463472887106
  0
ARC
  5
958F
  8
0
 10
3323.9262003307590021
 20
294.5772419632248784
 30
0.0
 40
0.0223370169678612
 50
212.9433501578203902
 51
269.3272905561826178
  0
ARC
  5
9590
  8
0
 10
3323.9251239367958988
 20
294.5960032768454084
 30
0.0
 40
0.072769019930687
 50
37.6513537869433819
 51
89.3589603460130775
  0
ARC
  5
9591
  8
0
 10
3323.9364936945498812
 20
294.6075374660638886
 30
0.0
 40
0.0567635222377504
 50
353.3774175031667255
 51
35.4434685576567432
  0
LINE
  5
9592
  8
0
 10
3323.9928784557851031
 20
294.6009910046288951
 30
0.0
 11
3323.990002356415971
 21
294.5770341898386278
 31
0.0
  0
ARC
  5
9593
  8
0
 10
3323.9230994219410604
 20
294.5471081829376772
 30
0.0
 40
0.0853188157580601
 50
54.754022321266973
 51
88.0933510238694737
  0
ARC
  5
9594
  8
0
 10
3323.9426179722358938
 20
294.5789726034216187
 30
0.0
 40
0.048094144815246
 50
15.7418228728252707
 51
51.8362535417099508
  0
ARC
  5
9595
  8
0
 10
3323.9500437624387814
 20
294.5816502784961131
 30
0.0
 40
0.0402243397345427
 50
353.4102987004476972
 51
14.9404171225974007
  0
ARC
  5
9596
  8
0
 10
3323.9390702887239968
 20
294.5834883020971802
 30
0.0
 40
0.0513393716794718
 50
313.6404987210029844
 51
352.7779709649028064
  0
ARC
  5
9597
  8
0
 10
3323.9223713969781784
 20
294.6091152055969928
 30
0.0
 40
0.081602046088254
 50
272.5050951739377751
 51
309.7045951718719152
  0
ARC
  5
9598
  8
0
 10
3323.9258317476637785
 20
294.5629282969464953
 30
0.0
 40
0.0230238032153533
 50
43.5715473834451075
 51
89.7353912229375652
  0
ARC
  5
9599
  8
0
 10
3323.9328537579740441
 20
294.5704681433082897
 30
0.0
 40
0.0127545550090622
 50
335.0844536527113178
 51
40.7729901623509008
  0
ARC
  5
959A
  8
0
 10
3323.9256758252140571
 20
294.5772419632248784
 30
0.0
 40
0.0223370169678612
 50
270.6727094438173822
 51
327.0566498421795245
  0
ARC
  5
959B
  8
0
 10
3323.6949727683409037
 20
294.7539393818490794
 30
0.0
 40
0.072769019930687
 50
90.6410396539869083
 51
142.348646213056611
  0
ARC
  5
959C
  8
0
 10
3323.6836030105869213
 20
294.7654735710676732
 30
0.0
 40
0.0567635222377504
 50
144.5565314423432994
 51
186.6225824968333029
  0
LINE
  5
959D
  8
0
 10
3323.6272182493521541
 20
294.7589271096326797
 30
0.0
 11
3323.6300943487208315
 21
294.7349702948422987
 31
0.0
  0
ARC
  5
959E
  8
0
 10
3323.6969972831961968
 20
294.7050442879414049
 30
0.0
 40
0.0853188157580601
 50
91.9066489761305405
 51
125.2459776787329986
  0
ARC
  5
959F
  8
0
 10
3323.6774787329009087
 20
294.7369087084252897
 30
0.0
 40
0.048094144815246
 50
128.1637464582900066
 51
164.2581771271746902
  0
ARC
  5
95A0
  8
0
 10
3323.6700529426980211
 20
294.739586383499784
 30
0.0
 40
0.0402243397345427
 50
165.0595828774025904
 51
186.5897012995523028
  0
ARC
  5
95A1
  8
0
 10
3323.6810264164141699
 20
294.7414244071010216
 30
0.0
 40
0.0513393716794718
 50
187.222029035095602
 51
226.3595012789969019
  0
ARC
  5
95A2
  8
0
 10
3323.6977253081581694
 20
294.7670513106007206
 30
0.0
 40
0.081602046088254
 50
230.2954048281279995
 51
267.4949048260621112
  0
ARC
  5
95A3
  8
0
 10
3323.6942649574739335
 20
294.7208644019502231
 30
0.0
 40
0.0230238032153533
 50
90.2646087770624348
 51
136.4284526165548925
  0
ARC
  5
95A4
  8
0
 10
3323.6872429471632131
 20
294.7284042483120743
 30
0.0
 40
0.0127545550090622
 50
139.2270098376490921
 51
204.9155463472887106
  0
ARC
  5
95A5
  8
0
 10
3323.6944208799232001
 20
294.7351780682287199
 30
0.0
 40
0.0223370169678612
 50
212.9433501578203902
 51
269.3272905561826178
  0
ARC
  5
95A6
  8
0
 10
3323.6933444859600968
 20
294.7539393818490794
 30
0.0
 40
0.072769019930687
 50
37.6513537869433819
 51
89.3589603460130775
  0
ARC
  5
95A7
  8
0
 10
3323.7047142437140792
 20
294.7654735710676732
 30
0.0
 40
0.0567635222377504
 50
353.3774175031667255
 51
35.4434685576567432
  0
LINE
  5
95A8
  8
0
 10
3323.7610990049479369
 20
294.7589271096326797
 30
0.0
 11
3323.758222905580169
 21
294.7349702948422987
 31
0.0
  0
ARC
  5
95A9
  8
0
 10
3323.6913199711048037
 20
294.7050442879414049
 30
0.0
 40
0.0853188157580601
 50
54.754022321266973
 51
88.0933510238694737
  0
ARC
  5
95AA
  8
0
 10
3323.7108385214000918
 20
294.7369087084252897
 30
0.0
 40
0.048094144815246
 50
15.7418228728252707
 51
51.8362535417099508
  0
ARC
  5
95AB
  8
0
 10
3323.7182643116029794
 20
294.739586383499784
 30
0.0
 40
0.0402243397345427
 50
353.4102987004476972
 51
14.9404171225974007
  0
ARC
  5
95AC
  8
0
 10
3323.7072908378868306
 20
294.7414244071010216
 30
0.0
 40
0.0513393716794718
 50
313.6404987210029844
 51
352.7779709649028064
  0
ARC
  5
95AD
  8
0
 10
3323.6905919461419217
 20
294.7670513106007206
 30
0.0
 40
0.081602046088254
 50
272.5050951739377751
 51
309.7045951718719152
  0
ARC
  5
95AE
  8
0
 10
3323.694052296827067
 20
294.7208644019502231
 30
0.0
 40
0.0230238032153533
 50
43.5715473834451075
 51
89.7353912229375652
  0
ARC
  5
95AF
  8
0
 10
3323.7010743071377874
 20
294.7284042483120743
 30
0.0
 40
0.0127545550090622
 50
335.0844536527113178
 51
40.7729901623509008
  0
ARC
  5
95B0
  8
0
 10
3323.6938963743778004
 20
294.7351780682287199
 30
0.0
 40
0.0223370169678612
 50
270.6727094438173822
 51
327.0566498421795245
  0
ARC
  5
95B1
  8
0
 10
3323.4631933175041922
 20
294.8293977214015058
 30
0.0
 40
0.072769019930687
 50
90.6410396539869083
 51
142.348646213056611
  0
ARC
  5
95B2
  8
0
 10
3323.4518235597502098
 20
294.8409319106198723
 30
0.0
 40
0.0567635222377504
 50
144.5565314423432994
 51
186.6225824968333029
  0
LINE
  5
95B3
  8
0
 10
3323.3954387985158974
 20
294.8343854491849925
 30
0.0
 11
3323.3983148978850295
 21
294.8104286343946114
 31
0.0
  0
ARC
  5
95B4
  8
0
 10
3323.4652178323599401
 20
294.7805026274937745
 30
0.0
 40
0.0853188157580601
 50
91.9066489761305405
 51
125.2459776787329986
  0
ARC
  5
95B5
  8
0
 10
3323.4456992820660162
 20
294.8123670479776024
 30
0.0
 40
0.048094144815246
 50
128.1637464582900066
 51
164.2581771271746902
  0
ARC
  5
95B6
  8
0
 10
3323.4382734918608548
 20
294.8150447230520967
 30
0.0
 40
0.0402243397345427
 50
165.0595828774025904
 51
186.5897012995523028
  0
ARC
  5
95B7
  8
0
 10
3323.4492469655760942
 20
294.8168827466532775
 30
0.0
 40
0.0513393716794718
 50
187.222029035095602
 51
226.3595012789969019
  0
ARC
  5
95B8
  8
0
 10
3323.4659458573219126
 20
294.8425096501529765
 30
0.0
 40
0.081602046088254
 50
230.2954048281279995
 51
267.4949048260621112
  0
ARC
  5
95B9
  8
0
 10
3323.462485506637222
 20
294.7963227415024789
 30
0.0
 40
0.0230238032153533
 50
90.2646087770624348
 51
136.4284526165548925
  0
ARC
  5
95BA
  8
0
 10
3323.4554634963269564
 20
294.803862587864387
 30
0.0
 40
0.0127545550090622
 50
139.2270098376490921
 51
204.9155463472887106
  0
ARC
  5
95BB
  8
0
 10
3323.4626414290869434
 20
294.8106364077809758
 30
0.0
 40
0.0223370169678612
 50
212.9433501578203902
 51
269.3272905561826178
  0
ARC
  5
95BC
  8
0
 10
3323.4615650351229306
 20
294.8293977214015058
 30
0.0
 40
0.072769019930687
 50
37.6513537869433819
 51
89.3589603460130775
  0
ARC
  5
95BD
  8
0
 10
3323.472934792876913
 20
294.8409319106198723
 30
0.0
 40
0.0567635222377504
 50
353.3774175031667255
 51
35.4434685576567432
  0
LINE
  5
95BE
  8
0
 10
3323.5293195541130444
 20
294.8343854491849925
 30
0.0
 11
3323.5264434547430028
 21
294.8104286343946114
 31
0.0
  0
ARC
  5
95BF
  8
0
 10
3323.4595405202680922
 20
294.7805026274937745
 30
0.0
 40
0.0853188157580601
 50
54.754022321266973
 51
88.0933510238694737
  0
ARC
  5
95C0
  8
0
 10
3323.4790590705629256
 20
294.8123670479776024
 30
0.0
 40
0.048094144815246
 50
15.7418228728252707
 51
51.8362535417099508
  0
ARC
  5
95C1
  8
0
 10
3323.4864848607671775
 20
294.8150447230520967
 30
0.0
 40
0.0402243397345427
 50
353.4102987004476972
 51
14.9404171225974007
  0
ARC
  5
95C2
  8
0
 10
3323.4755113870510286
 20
294.8168827466532775
 30
0.0
 40
0.0513393716794718
 50
313.6404987210029844
 51
352.7779709649028064
  0
ARC
  5
95C3
  8
0
 10
3323.4588124953061197
 20
294.8425096501529765
 30
0.0
 40
0.081602046088254
 50
272.5050951739377751
 51
309.7045951718719152
  0
ARC
  5
95C4
  8
0
 10
3323.4622728459908103
 20
294.7963227415024789
 30
0.0
 40
0.0230238032153533
 50
43.5715473834451075
 51
89.7353912229375652
  0
ARC
  5
95C5
  8
0
 10
3323.4692948563010759
 20
294.803862587864387
 30
0.0
 40
0.0127545550090622
 50
335.0844536527113178
 51
40.7729901623509008
  0
ARC
  5
95C6
  8
0
 10
3323.4621169235410889
 20
294.8106364077809758
 30
0.0
 40
0.0223370169678612
 50
270.6727094438173822
 51
327.0566498421795245
  0
ARC
  5
95C7
  8
0
 10
3323.3525713705530507
 20
295.1207020059438264
 30
0.0
 40
0.072769019930687
 50
90.6410396539869083
 51
142.348646213056611
  0
ARC
  5
95C8
  8
0
 10
3323.3412016127990682
 20
295.1322361951623066
 30
0.0
 40
0.0567635222377504
 50
144.5565314423432994
 51
186.6225824968333029
  0
LINE
  5
95C9
  8
0
 10
3323.2848168515652105
 20
295.1256897337274268
 30
0.0
 11
3323.2876929509338879
 21
295.1017329189371026
 31
0.0
  0
ARC
  5
95CA
  8
0
 10
3323.3545958854087985
 20
295.0718069120360951
 30
0.0
 40
0.0853188157580601
 50
91.9066489761305405
 51
125.2459776787329986
  0
ARC
  5
95CB
  8
0
 10
3323.3350773351139651
 20
295.1036713325199798
 30
0.0
 40
0.048094144815246
 50
128.1637464582900066
 51
164.2581771271746902
  0
ARC
  5
95CC
  8
0
 10
3323.327651544910168
 20
295.1063490075944742
 30
0.0
 40
0.0402243397345427
 50
165.0595828774025904
 51
186.5897012995523028
  0
ARC
  5
95CD
  8
0
 10
3323.3386250186258621
 20
295.1081870311957118
 30
0.0
 40
0.0513393716794718
 50
187.222029035095602
 51
226.3595012789969019
  0
ARC
  5
95CE
  8
0
 10
3323.3553239103712258
 20
295.1338139346954108
 30
0.0
 40
0.081602046088254
 50
230.2954048281279995
 51
267.4949048260621112
  0
ARC
  5
95CF
  8
0
 10
3323.3518635596860804
 20
295.0876270260449132
 30
0.0
 40
0.0230238032153533
 50
90.2646087770624348
 51
136.4284526165548925
  0
ARC
  5
95D0
  8
0
 10
3323.3448415493758148
 20
295.0951668724067076
 30
0.0
 40
0.0127545550090622
 50
139.2270098376490921
 51
204.9155463472887106
  0
ARC
  5
95D1
  8
0
 10
3323.3520194821348923
 20
295.1019406923232964
 30
0.0
 40
0.0223370169678612
 50
212.9433501578203902
 51
269.3272905561826178
  0
ARC
  5
95D2
  8
0
 10
3323.350943088171789
 20
295.1207020059438264
 30
0.0
 40
0.072769019930687
 50
37.6513537869433819
 51
89.3589603460130775
  0
ARC
  5
95D3
  8
0
 10
3323.3623128459262261
 20
295.1322361951623066
 30
0.0
 40
0.0567635222377504
 50
353.3774175031667255
 51
35.4434685576567432
  0
LINE
  5
95D4
  8
0
 10
3323.4186976071619029
 20
295.1256897337274268
 30
0.0
 11
3323.4158215077918612
 21
295.1017329189371026
 31
0.0
  0
ARC
  5
95D5
  8
0
 10
3323.3489185733160411
 20
295.0718069120360951
 30
0.0
 40
0.0853188157580601
 50
54.754022321266973
 51
88.0933510238694737
  0
ARC
  5
95D6
  8
0
 10
3323.368437123611784
 20
295.1036713325199798
 30
0.0
 40
0.048094144815246
 50
15.7418228728252707
 51
51.8362535417099508
  0
ARC
  5
95D7
  8
0
 10
3323.3758629138151264
 20
295.1063490075944742
 30
0.0
 40
0.0402243397345427
 50
353.4102987004476972
 51
14.9404171225974007
  0
ARC
  5
95D8
  8
0
 10
3323.364889440099887
 20
295.1081870311957118
 30
0.0
 40
0.0513393716794718
 50
313.6404987210029844
 51
352.7779709649028064
  0
ARC
  5
95D9
  8
0
 10
3323.3481905483549781
 20
295.1338139346954108
 30
0.0
 40
0.081602046088254
 50
272.5050951739377751
 51
309.7045951718719152
  0
ARC
  5
95DA
  8
0
 10
3323.351650899039214
 20
295.0876270260449132
 30
0.0
 40
0.0230238032153533
 50
43.5715473834451075
 51
89.7353912229375652
  0
ARC
  5
95DB
  8
0
 10
3323.3586729093499343
 20
295.0951668724067076
 30
0.0
 40
0.0127545550090622
 50
335.0844536527113178
 51
40.7729901623509008
  0
ARC
  5
95DC
  8
0
 10
3323.3514949765899473
 20
295.1019406923232964
 30
0.0
 40
0.0223370169678612
 50
270.6727094438173822
 51
327.0566498421795245
  0
ARC
  5
95DD
  8
0
 10
3323.1488863646459322
 20
295.2505605377145912
 30
0.0
 40
0.072769019930687
 50
90.6410396539869083
 51
142.348646213056611
  0
ARC
  5
95DE
  8
0
 10
3323.1375166068919498
 20
295.2620947269331282
 30
0.0
 40
0.0567635222377504
 50
144.5565314423432994
 51
186.6225824968333029
  0
LINE
  5
95DF
  8
0
 10
3323.0811318456580921
 20
295.2555482654981915
 30
0.0
 11
3323.08400794502586
 21
295.2315914507078105
 31
0.0
  0
ARC
  5
95E0
  8
0
 10
3323.1509108795012253
 20
295.2016654438068031
 30
0.0
 40
0.0853188157580601
 50
91.9066489761305405
 51
125.2459776787329986
  0
ARC
  5
95E1
  8
0
 10
3323.1313923292059371
 20
295.2335298642906878
 30
0.0
 40
0.048094144815246
 50
128.1637464582900066
 51
164.2581771271746902
  0
ARC
  5
95E2
  8
0
 10
3323.1239665390030495
 20
295.2362075393652958
 30
0.0
 40
0.0402243397345427
 50
165.0595828774025904
 51
186.5897012995523028
  0
ARC
  5
95E3
  8
0
 10
3323.1349400127191984
 20
295.2380455629664198
 30
0.0
 40
0.0513393716794718
 50
187.222029035095602
 51
226.3595012789969019
  0
ARC
  5
95E4
  8
0
 10
3323.1516389044641073
 20
295.2636724664661756
 30
0.0
 40
0.081602046088254
 50
230.2954048281279995
 51
267.4949048260621112
  0
ARC
  5
95E5
  8
0
 10
3323.1481785537789619
 20
295.2174855578156212
 30
0.0
 40
0.0230238032153533
 50
90.2646087770624348
 51
136.4284526165548925
  0
ARC
  5
95E6
  8
0
 10
3323.1411565434677868
 20
295.2250254041775861
 30
0.0
 40
0.0127545550090622
 50
139.2270098376490921
 51
204.9155463472887106
  0
ARC
  5
95E7
  8
0
 10
3323.1483344762277738
 20
295.231799224094118
 30
0.0
 40
0.0223370169678612
 50
212.9433501578203902
 51
269.3272905561826178
  0
ARC
  5
95E8
  8
0
 10
3323.1472580822651253
 20
295.2505605377145912
 30
0.0
 40
0.072769019930687
 50
37.6513537869433819
 51
89.3589603460130775
  0
ARC
  5
95E9
  8
0
 10
3323.1586278400191077
 20
295.2620947269331282
 30
0.0
 40
0.0567635222377504
 50
353.3774175031667255
 51
35.4434685576567432
  0
LINE
  5
95EA
  8
0
 10
3323.2150126012538749
 20
295.2555482654981915
 30
0.0
 11
3323.2121365018851975
 21
295.2315914507078105
 31
0.0
  0
ARC
  5
95EB
  8
0
 10
3323.1452335674089227
 20
295.2016654438068031
 30
0.0
 40
0.0853188157580601
 50
54.754022321266973
 51
88.0933510238694737
  0
ARC
  5
95EC
  8
0
 10
3323.1647521177051203
 20
295.2335298642906878
 30
0.0
 40
0.048094144815246
 50
15.7418228728252707
 51
51.8362535417099508
  0
ARC
  5
95ED
  8
0
 10
3323.1721779079080079
 20
295.2362075393652958
 30
0.0
 40
0.0402243397345427
 50
353.4102987004476972
 51
14.9404171225974007
  0
ARC
  5
95EE
  8
0
 10
3323.161204434191859
 20
295.2380455629664198
 30
0.0
 40
0.0513393716794718
 50
313.6404987210029844
 51
352.7779709649028064
  0
ARC
  5
95EF
  8
0
 10
3323.1445055424478596
 20
295.2636724664661756
 30
0.0
 40
0.081602046088254
 50
272.5050951739377751
 51
309.7045951718719152
  0
ARC
  5
95F0
  8
0
 10
3323.1479658931320955
 20
295.2174855578156212
 30
0.0
 40
0.0230238032153533
 50
43.5715473834451075
 51
89.7353912229375652
  0
ARC
  5
95F1
  8
0
 10
3323.1549879034428159
 20
295.2250254041775861
 30
0.0
 40
0.0127545550090622
 50
335.0844536527113178
 51
40.7729901623509008
  0
ARC
  5
95F2
  8
0
 10
3323.1478099706828289
 20
295.231799224094118
 30
0.0
 40
0.0223370169678612
 50
270.6727094438173822
 51
327.0566498421795245
  0
ARC
  5
95F3
  8
0
 10
3323.0031460813629565
 20
295.0066371498551803
 30
0.0
 40
0.072769019930687
 50
90.6410396539869083
 51
142.348646213056611
  0
ARC
  5
95F4
  8
0
 10
3322.9917763236080646
 20
295.0181713390737173
 30
0.0
 40
0.0567635222377504
 50
144.5565314423432994
 51
186.6225824968333029
  0
LINE
  5
95F5
  8
0
 10
3322.9353915623728426
 20
295.0116248776387238
 30
0.0
 11
3322.9382676617428842
 21
294.9876680628483996
 31
0.0
  0
ARC
  5
95F6
  8
0
 10
3323.0051705962177948
 20
294.9577420559473921
 30
0.0
 40
0.0853188157580601
 50
91.9066489761305405
 51
125.2459776787329986
  0
ARC
  5
95F7
  8
0
 10
3322.9856520459220519
 20
294.9896064764312769
 30
0.0
 40
0.048094144815246
 50
128.1637464582900066
 51
164.2581771271746902
  0
ARC
  5
95F8
  8
0
 10
3322.9782262557191643
 20
294.992284151505828
 30
0.0
 40
0.0402243397345427
 50
165.0595828774025904
 51
186.5897012995523028
  0
ARC
  5
95F9
  8
0
 10
3322.989199729433949
 20
294.9941221751070088
 30
0.0
 40
0.0513393716794718
 50
187.222029035095602
 51
226.3595012789969019
  0
ARC
  5
95FA
  8
0
 10
3323.0058986211802221
 20
295.0197490786067078
 30
0.0
 40
0.081602046088254
 50
230.2954048281279995
 51
267.4949048260621112
  0
ARC
  5
95FB
  8
0
 10
3323.0024382704950767
 20
294.9735621699560966
 30
0.0
 40
0.0230238032153533
 50
90.2646087770624348
 51
136.4284526165548925
  0
ARC
  5
95FC
  8
0
 10
3322.9954162601839016
 20
294.9811020163181183
 30
0.0
 40
0.0127545550090622
 50
139.2270098376490921
 51
204.9155463472887106
  0
ARC
  5
95FD
  8
0
 10
3323.0025941929438886
 20
294.9878758362347071
 30
0.0
 40
0.0223370169678612
 50
212.9433501578203902
 51
269.3272905561826178
  0
ARC
  5
95FE
  8
0
 10
3323.0015177989807853
 20
295.0066371498551803
 30
0.0
 40
0.072769019930687
 50
37.6513537869433819
 51
89.3589603460130775
  0
ARC
  5
95FF
  8
0
 10
3323.0128875567352225
 20
295.0181713390737173
 30
0.0
 40
0.0567635222377504
 50
353.3774175031667255
 51
35.4434685576567432
  0
LINE
  5
9600
  8
0
 10
3323.0692723179699897
 20
295.0116248776387238
 30
0.0
 11
3323.0663962186008575
 21
294.9876680628483996
 31
0.0
  0
ARC
  5
9601
  8
0
 10
3322.999493284125947
 20
294.9577420559473921
 30
0.0
 40
0.0853188157580601
 50
54.754022321266973
 51
88.0933510238694737
  0
ARC
  5
9602
  8
0
 10
3323.0190118344198709
 20
294.9896064764312769
 30
0.0
 40
0.048094144815246
 50
15.7418228728252707
 51
51.8362535417099508
  0
ARC
  5
9603
  8
0
 10
3323.0264376246241227
 20
294.992284151505828
 30
0.0
 40
0.0402243397345427
 50
353.4102987004476972
 51
14.9404171225974007
  0
ARC
  5
9604
  8
0
 10
3323.0154641509088833
 20
294.9941221751070088
 30
0.0
 40
0.0513393716794718
 50
313.6404987210029844
 51
352.7779709649028064
  0
ARC
  5
9605
  8
0
 10
3322.9987652591639744
 20
295.0197490786067078
 30
0.0
 40
0.081602046088254
 50
272.5050951739377751
 51
309.7045951718719152
  0
ARC
  5
9606
  8
0
 10
3323.0022256098482103
 20
294.9735621699560966
 30
0.0
 40
0.0230238032153533
 50
43.5715473834451075
 51
89.7353912229375652
  0
ARC
  5
9607
  8
0
 10
3323.0092476201589307
 20
294.9811020163181183
 30
0.0
 40
0.0127545550090622
 50
335.0844536527113178
 51
40.7729901623509008
  0
ARC
  5
9608
  8
0
 10
3323.0020696873998531
 20
294.9878758362347071
 30
0.0
 40
0.0223370169678612
 50
270.6727094438173822
 51
327.0566498421795245
  0
ARC
  5
9609
  8
0
 10
3323.2366816451349223
 20
294.915385134620692
 30
0.0
 40
0.072769019930687
 50
90.6410396539869083
 51
142.348646213056611
  0
ARC
  5
960A
  8
0
 10
3323.2253118873818494
 20
294.9269193238392859
 30
0.0
 40
0.0567635222377504
 50
144.5565314423432994
 51
186.6225824968333029
  0
LINE
  5
960B
  8
0
 10
3323.1689271261461727
 20
294.9203728624042924
 30
0.0
 11
3323.1718032255148501
 21
294.8964160476139114
 31
0.0
  0
ARC
  5
960C
  8
0
 10
3323.2387061599911249
 20
294.8664900407130176
 30
0.0
 40
0.0853188157580601
 50
91.9066489761305405
 51
125.2459776787329986
  0
ARC
  5
960D
  8
0
 10
3323.2191876096958367
 20
294.8983544611967886
 30
0.0
 40
0.048094144815246
 50
128.1637464582900066
 51
164.2581771271746902
  0
ARC
  5
960E
  8
0
 10
3323.2117618194920396
 20
294.9010321362713967
 30
0.0
 40
0.0402243397345427
 50
165.0595828774025904
 51
186.5897012995523028
  0
ARC
  5
960F
  8
0
 10
3323.2227352932068243
 20
294.9028701598725206
 30
0.0
 40
0.0513393716794718
 50
187.222029035095602
 51
226.3595012789969019
  0
ARC
  5
9610
  8
0
 10
3323.2394341849530974
 20
294.9284970633722764
 30
0.0
 40
0.081602046088254
 50
230.2954048281279995
 51
267.4949048260621112
  0
ARC
  5
9611
  8
0
 10
3323.2359738342670425
 20
294.882310154721722
 30
0.0
 40
0.0230238032153533
 50
90.2646087770624348
 51
136.4284526165548925
  0
ARC
  5
9612
  8
0
 10
3323.2289518239581412
 20
294.8898500010836869
 30
0.0
 40
0.0127545550090622
 50
139.2270098376490921
 51
204.9155463472887106
  0
ARC
  5
9613
  8
0
 10
3323.2361297567172187
 20
294.8966238210002189
 30
0.0
 40
0.0223370169678612
 50
212.9433501578203902
 51
269.3272905561826178
  0
ARC
  5
9614
  8
0
 10
3323.2350533627541154
 20
294.915385134620692
 30
0.0
 40
0.072769019930687
 50
37.6513537869433819
 51
89.3589603460130775
  0
ARC
  5
9615
  8
0
 10
3323.2464231205080978
 20
294.9269193238392859
 30
0.0
 40
0.0567635222377504
 50
353.3774175031667255
 51
35.4434685576567432
  0
LINE
  5
9616
  8
0
 10
3323.302807881742865
 20
294.9203728624042924
 30
0.0
 11
3323.2999317823741876
 21
294.8964160476139114
 31
0.0
  0
ARC
  5
9617
  8
0
 10
3323.2330288478979128
 20
294.8664900407130176
 30
0.0
 40
0.0853188157580601
 50
54.754022321266973
 51
88.0933510238694737
  0
ARC
  5
9618
  8
0
 10
3323.2525473981932009
 20
294.8983544611967886
 30
0.0
 40
0.048094144815246
 50
15.7418228728252707
 51
51.8362535417099508
  0
ARC
  5
9619
  8
0
 10
3323.2599731883979075
 20
294.9010321362713967
 30
0.0
 40
0.0402243397345427
 50
353.4102987004476972
 51
14.9404171225974007
  0
ARC
  5
961A
  8
0
 10
3323.2489997146822134
 20
294.9028701598725206
 30
0.0
 40
0.0513393716794718
 50
313.6404987210029844
 51
352.7779709649028064
  0
ARC
  5
961B
  8
0
 10
3323.2323008229368497
 20
294.9284970633722764
 30
0.0
 40
0.081602046088254
 50
272.5050951739377751
 51
309.7045951718719152
  0
ARC
  5
961C
  8
0
 10
3323.2357611736210856
 20
294.882310154721722
 30
0.0
 40
0.0230238032153533
 50
43.5715473834451075
 51
89.7353912229375652
  0
ARC
  5
961D
  8
0
 10
3323.242783183931806
 20
294.8898500010836869
 30
0.0
 40
0.0127545550090622
 50
335.0844536527113178
 51
40.7729901623509008
  0
ARC
  5
961E
  8
0
 10
3323.235605251171819
 20
294.8966238210002189
 30
0.0
 40
0.0223370169678612
 50
270.6727094438173822
 51
327.0566498421795245
  0
ARC
  5
961F
  8
0
 10
3322.9539808027370782
 20
294.7451651320661767
 30
0.0
 40
0.072769019930687
 50
90.6410396539869083
 51
142.348646213056611
  0
ARC
  5
9620
  8
0
 10
3322.9426110449821863
 20
294.7566993212846
 30
0.0
 40
0.0567635222377504
 50
144.5565314423432994
 51
186.6225824968333029
  0
LINE
  5
9621
  8
0
 10
3322.8862262837478738
 20
294.7501528598497202
 30
0.0
 11
3322.889102383117006
 21
294.7261960450592824
 31
0.0
  0
ARC
  5
9622
  8
0
 10
3322.9560053175919165
 20
294.6962700381583886
 30
0.0
 40
0.0853188157580601
 50
91.9066489761305405
 51
125.2459776787329986
  0
ARC
  5
9623
  8
0
 10
3322.9364867672970831
 20
294.7281344586422733
 30
0.0
 40
0.048094144815246
 50
128.1637464582900066
 51
164.2581771271746902
  0
ARC
  5
9624
  8
0
 10
3322.9290609770928313
 20
294.7308121337168245
 30
0.0
 40
0.0402243397345427
 50
165.0595828774025904
 51
186.5897012995523028
  0
ARC
  5
9625
  8
0
 10
3322.9400344508089802
 20
294.7326501573178916
 30
0.0
 40
0.0513393716794718
 50
187.222029035095602
 51
226.3595012789969019
  0
ARC
  5
9626
  8
0
 10
3322.9567333425538891
 20
294.7582770608177043
 30
0.0
 40
0.081602046088254
 50
230.2954048281279995
 51
267.4949048260621112
  0
ARC
  5
9627
  8
0
 10
3322.9532729918691984
 20
294.712090152167093
 30
0.0
 40
0.0230238032153533
 50
90.2646087770624348
 51
136.4284526165548925
  0
ARC
  5
9628
  8
0
 10
3322.9462509815589328
 20
294.7196299985291148
 30
0.0
 40
0.0127545550090622
 50
139.2270098376490921
 51
204.9155463472887106
  0
ARC
  5
9629
  8
0
 10
3322.9534289143180104
 20
294.7264038184457036
 30
0.0
 40
0.0223370169678612
 50
212.9433501578203902
 51
269.3272905561826178
  0
ARC
  5
962A
  8
0
 10
3322.952352520354907
 20
294.7451651320661767
 30
0.0
 40
0.072769019930687
 50
37.6513537869433819
 51
89.3589603460130775
  0
ARC
  5
962B
  8
0
 10
3322.9637222781088894
 20
294.7566993212846
 30
0.0
 40
0.0567635222377504
 50
353.3774175031667255
 51
35.4434685576567432
  0
LINE
  5
962C
  8
0
 10
3323.0201070393441114
 20
294.7501528598497202
 30
0.0
 11
3323.0172309399749793
 21
294.7261960450592824
 31
0.0
  0
ARC
  5
962D
  8
0
 10
3322.9503280055000687
 20
294.6962700381583886
 30
0.0
 40
0.0853188157580601
 50
54.754022321266973
 51
88.0933510238694737
  0
ARC
  5
962E
  8
0
 10
3322.9698465557949021
 20
294.7281344586422733
 30
0.0
 40
0.048094144815246
 50
15.7418228728252707
 51
51.8362535417099508
  0
ARC
  5
962F
  8
0
 10
3322.9772723459977897
 20
294.7308121337168245
 30
0.0
 40
0.0402243397345427
 50
353.4102987004476972
 51
14.9404171225974007
  0
ARC
  5
9630
  8
0
 10
3322.966298872283005
 20
294.7326501573178916
 30
0.0
 40
0.0513393716794718
 50
313.6404987210029844
 51
352.7779709649028064
  0
ARC
  5
9631
  8
0
 10
3322.9495999805380961
 20
294.7582770608177043
 30
0.0
 40
0.081602046088254
 50
272.5050951739377751
 51
309.7045951718719152
  0
ARC
  5
9632
  8
0
 10
3322.9530603312227868
 20
294.712090152167093
 30
0.0
 40
0.0230238032153533
 50
43.5715473834451075
 51
89.7353912229375652
  0
ARC
  5
9633
  8
0
 10
3322.9600823415330524
 20
294.7196299985291148
 30
0.0
 40
0.0127545550090622
 50
335.0844536527113178
 51
40.7729901623509008
  0
ARC
  5
9634
  8
0
 10
3322.9529044087730654
 20
294.7264038184457036
 30
0.0
 40
0.0223370169678612
 50
270.6727094438173822
 51
327.0566498421795245
  0
ARC
  5
9635
  8
0
 10
3323.191028032039867
 20
294.6942745876154959
 30
0.0
 40
0.072769019930687
 50
90.6410396539869083
 51
142.348646213056611
  0
ARC
  5
9636
  8
0
 10
3323.1796582742858845
 20
294.7058087768339192
 30
0.0
 40
0.0567635222377504
 50
144.5565314423432994
 51
186.6225824968333029
  0
LINE
  5
9637
  8
0
 10
3323.1232735130511173
 20
294.6992623153989825
 30
0.0
 11
3323.1261496124197947
 21
294.6753055006086015
 31
0.0
  0
ARC
  5
9638
  8
0
 10
3323.1930525468960695
 20
294.6453794937077078
 30
0.0
 40
0.0853188157580601
 50
91.9066489761305405
 51
125.2459776787329986
  0
ARC
  5
9639
  8
0
 10
3323.1735339965998719
 20
294.6772439141915925
 30
0.0
 40
0.048094144815246
 50
128.1637464582900066
 51
164.2581771271746902
  0
ARC
  5
963A
  8
0
 10
3323.1661082063969843
 20
294.6799215892660868
 30
0.0
 40
0.0402243397345427
 50
165.0595828774025904
 51
186.5897012995523028
  0
ARC
  5
963B
  8
0
 10
3323.1770816801122237
 20
294.6817596128673244
 30
0.0
 40
0.0513393716794718
 50
187.222029035095602
 51
226.3595012789969019
  0
ARC
  5
963C
  8
0
 10
3323.1937805718580421
 20
294.7073865163670234
 30
0.0
 40
0.081602046088254
 50
230.2954048281279995
 51
267.4949048260621112
  0
ARC
  5
963D
  8
0
 10
3323.1903202211719872
 20
294.6611996077164122
 30
0.0
 40
0.0230238032153533
 50
90.2646087770624348
 51
136.4284526165548925
  0
ARC
  5
963E
  8
0
 10
3323.1832982108621763
 20
294.6687394540783771
 30
0.0
 40
0.0127545550090622
 50
139.2270098376490921
 51
204.9155463472887106
  0
ARC
  5
963F
  8
0
 10
3323.1904761436221634
 20
294.6755132739950227
 30
0.0
 40
0.0223370169678612
 50
212.9433501578203902
 51
269.3272905561826178
  0
ARC
  5
9640
  8
0
 10
3323.1893997496581505
 20
294.6942745876154959
 30
0.0
 40
0.072769019930687
 50
37.6513537869433819
 51
89.3589603460130775
  0
ARC
  5
9641
  8
0
 10
3323.200769507412133
 20
294.7058087768339192
 30
0.0
 40
0.0567635222377504
 50
353.3774175031667255
 51
35.4434685576567432
  0
LINE
  5
9642
  8
0
 10
3323.2571542686469002
 20
294.6992623153989825
 30
0.0
 11
3323.2542781692791323
 21
294.6753055006086015
 31
0.0
  0
ARC
  5
9643
  8
0
 10
3323.1873752348028574
 20
294.6453794937077078
 30
0.0
 40
0.0853188157580601
 50
54.754022321266973
 51
88.0933510238694737
  0
ARC
  5
9644
  8
0
 10
3323.2068937850981456
 20
294.6772439141915925
 30
0.0
 40
0.048094144815246
 50
15.7418228728252707
 51
51.8362535417099508
  0
ARC
  5
9645
  8
0
 10
3323.2143195753019427
 20
294.6799215892660868
 30
0.0
 40
0.0402243397345427
 50
353.4102987004476972
 51
14.9404171225974007
  0
ARC
  5
9646
  8
0
 10
3323.2033461015857938
 20
294.6817596128673244
 30
0.0
 40
0.0513393716794718
 50
313.6404987210029844
 51
352.7779709649028064
  0
ARC
  5
9647
  8
0
 10
3323.1866472098408849
 20
294.7073865163670234
 30
0.0
 40
0.081602046088254
 50
272.5050951739377751
 51
309.7045951718719152
  0
ARC
  5
9648
  8
0
 10
3323.1901075605260303
 20
294.6611996077164122
 30
0.0
 40
0.0230238032153533
 50
43.5715473834451075
 51
89.7353912229375652
  0
ARC
  5
9649
  8
0
 10
3323.1971295708358412
 20
294.6687394540783771
 30
0.0
 40
0.0127545550090622
 50
335.0844536527113178
 51
40.7729901623509008
  0
ARC
  5
964A
  8
0
 10
3323.1899516380758541
 20
294.6755132739950227
 30
0.0
 40
0.0223370169678612
 50
270.6727094438173822
 51
327.0566498421795245
  0
ARC
  5
964B
  8
0
 10
3323.0031460813629565
 20
294.4836931142771164
 30
0.0
 40
0.072769019930687
 50
90.6410396539869083
 51
142.348646213056611
  0
ARC
  5
964C
  8
0
 10
3322.9917763236080646
 20
294.4952273034954828
 30
0.0
 40
0.0567635222377504
 50
144.5565314423432994
 51
186.6225824968333029
  0
LINE
  5
964D
  8
0
 10
3322.9353915623728426
 20
294.488680842060603
 30
0.0
 11
3322.9382676617428842
 21
294.4647240272702788
 31
0.0
  0
ARC
  5
964E
  8
0
 10
3323.0051705962177948
 20
294.4347980203693851
 30
0.0
 40
0.0853188157580601
 50
91.9066489761305405
 51
125.2459776787329986
  0
ARC
  5
964F
  8
0
 10
3322.9856520459220519
 20
294.466662440853213
 30
0.0
 40
0.048094144815246
 50
128.1637464582900066
 51
164.2581771271746902
  0
ARC
  5
9650
  8
0
 10
3322.9782262557191643
 20
294.469340115927821
 30
0.0
 40
0.0402243397345427
 50
165.0595828774025904
 51
186.5897012995523028
  0
ARC
  5
9651
  8
0
 10
3322.989199729433949
 20
294.4711781395288881
 30
0.0
 40
0.0513393716794718
 50
187.222029035095602
 51
226.3595012789969019
  0
ARC
  5
9652
  8
0
 10
3323.0058986211802221
 20
294.4968050430285871
 30
0.0
 40
0.081602046088254
 50
230.2954048281279995
 51
267.4949048260621112
  0
ARC
  5
9653
  8
0
 10
3323.0024382704950767
 20
294.4506181343780895
 30
0.0
 40
0.0230238032153533
 50
90.2646087770624348
 51
136.4284526165548925
  0
ARC
  5
9654
  8
0
 10
3322.9954162601839016
 20
294.4581579807399976
 30
0.0
 40
0.0127545550090622
 50
139.2270098376490921
 51
204.9155463472887106
  0
ARC
  5
9655
  8
0
 10
3323.0025941929438886
 20
294.4649318006565863
 30
0.0
 40
0.0223370169678612
 50
212.9433501578203902
 51
269.3272905561826178
  0
ARC
  5
9656
  8
0
 10
3323.0015177989807853
 20
294.4836931142771164
 30
0.0
 40
0.072769019930687
 50
37.6513537869433819
 51
89.3589603460130775
  0
ARC
  5
9657
  8
0
 10
3323.0128875567352225
 20
294.4952273034954828
 30
0.0
 40
0.0567635222377504
 50
353.3774175031667255
 51
35.4434685576567432
  0
LINE
  5
9658
  8
0
 10
3323.0692723179699897
 20
294.488680842060603
 30
0.0
 11
3323.0663962186008575
 21
294.4647240272702788
 31
0.0
  0
ARC
  5
9659
  8
0
 10
3322.999493284125947
 20
294.4347980203693851
 30
0.0
 40
0.0853188157580601
 50
54.754022321266973
 51
88.0933510238694737
  0
ARC
  5
965A
  8
0
 10
3323.0190118344198709
 20
294.466662440853213
 30
0.0
 40
0.048094144815246
 50
15.7418228728252707
 51
51.8362535417099508
  0
ARC
  5
965B
  8
0
 10
3323.0264376246241227
 20
294.469340115927821
 30
0.0
 40
0.0402243397345427
 50
353.4102987004476972
 51
14.9404171225974007
  0
ARC
  5
965C
  8
0
 10
3323.0154641509088833
 20
294.4711781395288881
 30
0.0
 40
0.0513393716794718
 50
313.6404987210029844
 51
352.7779709649028064
  0
ARC
  5
965D
  8
0
 10
3322.9987652591639744
 20
294.4968050430285871
 30
0.0
 40
0.081602046088254
 50
272.5050951739377751
 51
309.7045951718719152
  0
ARC
  5
965E
  8
0
 10
3323.0022256098482103
 20
294.4506181343780895
 30
0.0
 40
0.0230238032153533
 50
43.5715473834451075
 51
89.7353912229375652
  0
ARC
  5
965F
  8
0
 10
3323.0092476201589307
 20
294.4581579807399976
 30
0.0
 40
0.0127545550090622
 50
335.0844536527113178
 51
40.7729901623509008
  0
ARC
  5
9660
  8
0
 10
3323.0020696873998531
 20
294.4649318006565863
 30
0.0
 40
0.0223370169678612
 50
270.6727094438173822
 51
327.0566498421795245
  0
ARC
  5
9661
  8
0
 10
3323.231413866668845
 20
294.4696543928424148
 30
0.0
 40
0.072769019930687
 50
90.6410396539869083
 51
142.348646213056611
  0
ARC
  5
9662
  8
0
 10
3323.2200441089148626
 20
294.481188582060895
 30
0.0
 40
0.0567635222377504
 50
144.5565314423432994
 51
186.6225824968333029
  0
LINE
  5
9663
  8
0
 10
3323.1636593476800954
 20
294.4746421206259015
 30
0.0
 11
3323.1665354470487728
 21
294.4506853058355773
 31
0.0
  0
ARC
  5
9664
  8
0
 10
3323.2334383815241381
 20
294.4207592989346267
 30
0.0
 40
0.0853188157580601
 50
91.9066489761305405
 51
125.2459776787329986
  0
ARC
  5
9665
  8
0
 10
3323.2139198312279404
 20
294.4526237194185114
 30
0.0
 40
0.048094144815246
 50
128.1637464582900066
 51
164.2581771271746902
  0
ARC
  5
9666
  8
0
 10
3323.2064940410250529
 20
294.4553013944931195
 30
0.0
 40
0.0402243397345427
 50
165.0595828774025904
 51
186.5897012995523028
  0
ARC
  5
9667
  8
0
 10
3323.2174675147412017
 20
294.4571394180941866
 30
0.0
 40
0.0513393716794718
 50
187.222029035095602
 51
226.3595012789969019
  0
ARC
  5
9668
  8
0
 10
3323.2341664064861106
 20
294.4827663215939992
 30
0.0
 40
0.081602046088254
 50
230.2954048281279995
 51
267.4949048260621112
  0
ARC
  5
9669
  8
0
 10
3323.2307060558009653
 20
294.436579412943388
 30
0.0
 40
0.0230238032153533
 50
90.2646087770624348
 51
136.4284526165548925
  0
ARC
  5
966A
  8
0
 10
3323.2236840454897902
 20
294.4441192593052961
 30
0.0
 40
0.0127545550090622
 50
139.2270098376490921
 51
204.9155463472887106
  0
ARC
  5
966B
  8
0
 10
3323.2308619782497772
 20
294.4508930792218848
 30
0.0
 40
0.0223370169678612
 50
212.9433501578203902
 51
269.3272905561826178
  0
ARC
  5
966C
  8
0
 10
3323.2297855842871286
 20
294.4696543928424148
 30
0.0
 40
0.072769019930687
 50
37.6513537869433819
 51
89.3589603460130775
  0
ARC
  5
966D
  8
0
 10
3323.241155342041111
 20
294.481188582060895
 30
0.0
 40
0.0567635222377504
 50
353.3774175031667255
 51
35.4434685576567432
  0
LINE
  5
966E
  8
0
 10
3323.2975401032758782
 20
294.4746421206259015
 30
0.0
 11
3323.2946640039072008
 21
294.4506853058355773
 31
0.0
  0
ARC
  5
966F
  8
0
 10
3323.227761069430926
 20
294.4207592989346267
 30
0.0
 40
0.0853188157580601
 50
54.754022321266973
 51
88.0933510238694737
  0
ARC
  5
9670
  8
0
 10
3323.2472796197271236
 20
294.4526237194185114
 30
0.0
 40
0.048094144815246
 50
15.7418228728252707
 51
51.8362535417099508
  0
ARC
  5
9671
  8
0
 10
3323.2547054099300112
 20
294.4553013944931195
 30
0.0
 40
0.0402243397345427
 50
353.4102987004476972
 51
14.9404171225974007
  0
ARC
  5
9672
  8
0
 10
3323.2437319362152266
 20
294.4571394180941866
 30
0.0
 40
0.0513393716794718
 50
313.6404987210029844
 51
352.7779709649028064
  0
ARC
  5
9673
  8
0
 10
3323.2270330444689534
 20
294.4827663215939992
 30
0.0
 40
0.081602046088254
 50
272.5050951739377751
 51
309.7045951718719152
  0
ARC
  5
9674
  8
0
 10
3323.2304933951540988
 20
294.436579412943388
 30
0.0
 40
0.0230238032153533
 50
43.5715473834451075
 51
89.7353912229375652
  0
ARC
  5
9675
  8
0
 10
3323.2375154054648192
 20
294.4441192593052961
 30
0.0
 40
0.0127545550090622
 50
335.0844536527113178
 51
40.7729901623509008
  0
ARC
  5
9676
  8
0
 10
3323.2303374727048322
 20
294.4508930792218848
 30
0.0
 40
0.0223370169678612
 50
270.6727094438173822
 51
327.0566498421795245
  0
ARC
  5
9677
  8
0
 10
3323.4649491502700585
 20
294.4749189948576031
 30
0.0
 40
0.072769019930687
 50
90.6410396539869083
 51
142.348646213056611
  0
ARC
  5
9678
  8
0
 10
3323.453579392516076
 20
294.486453184076197
 30
0.0
 40
0.0567635222377504
 50
144.5565314423432994
 51
186.6225824968333029
  0
LINE
  5
9679
  8
0
 10
3323.3971946312808541
 20
294.4799067226412035
 30
0.0
 11
3323.4000707306499862
 21
294.4559499078508225
 31
0.0
  0
ARC
  5
967A
  8
0
 10
3323.4669736651258063
 20
294.4260239009498719
 30
0.0
 40
0.0853188157580601
 50
91.9066489761305405
 51
125.2459776787329986
  0
ARC
  5
967B
  8
0
 10
3323.4474551148300634
 20
294.4578883214338134
 30
0.0
 40
0.048094144815246
 50
128.1637464582900066
 51
164.2581771271746902
  0
ARC
  5
967C
  8
0
 10
3323.4400293246258116
 20
294.4605659965083078
 30
0.0
 40
0.0402243397345427
 50
165.0595828774025904
 51
186.5897012995523028
  0
ARC
  5
967D
  8
0
 10
3323.4510027983419604
 20
294.4624040201094886
 30
0.0
 40
0.0513393716794718
 50
187.222029035095602
 51
226.3595012789969019
  0
ARC
  5
967E
  8
0
 10
3323.4677016900877788
 20
294.4880309236091875
 30
0.0
 40
0.081602046088254
 50
230.2954048281279995
 51
267.4949048260621112
  0
ARC
  5
967F
  8
0
 10
3323.4642413394021787
 20
294.4418440149585763
 30
0.0
 40
0.0230238032153533
 50
90.2646087770624348
 51
136.4284526165548925
  0
ARC
  5
9680
  8
0
 10
3323.4572193290919131
 20
294.449383861320598
 30
0.0
 40
0.0127545550090622
 50
139.2270098376490921
 51
204.9155463472887106
  0
ARC
  5
9681
  8
0
 10
3323.4643972618509906
 20
294.4561576812370731
 30
0.0
 40
0.0223370169678612
 50
212.9433501578203902
 51
269.3272905561826178
  0
ARC
  5
9682
  8
0
 10
3323.4633208678887968
 20
294.4749189948576031
 30
0.0
 40
0.072769019930687
 50
37.6513537869433819
 51
89.3589603460130775
  0
ARC
  5
9683
  8
0
 10
3323.4746906256427792
 20
294.486453184076197
 30
0.0
 40
0.0567635222377504
 50
353.3774175031667255
 51
35.4434685576567432
  0
LINE
  5
9684
  8
0
 10
3323.5310753868780012
 20
294.4799067226412035
 30
0.0
 11
3323.528199287508869
 21
294.4559499078508225
 31
0.0
  0
ARC
  5
9685
  8
0
 10
3323.4612963530330489
 20
294.4260239009498719
 30
0.0
 40
0.0853188157580601
 50
54.754022321266973
 51
88.0933510238694737
  0
ARC
  5
9686
  8
0
 10
3323.4808149033278823
 20
294.4578883214338134
 30
0.0
 40
0.048094144815246
 50
15.7418228728252707
 51
51.8362535417099508
  0
ARC
  5
9687
  8
0
 10
3323.4882406935321342
 20
294.4605659965083078
 30
0.0
 40
0.0402243397345427
 50
353.4102987004476972
 51
14.9404171225974007
  0
ARC
  5
9688
  8
0
 10
3323.4772672198159853
 20
294.4624040201094886
 30
0.0
 40
0.0513393716794718
 50
313.6404987210029844
 51
352.7779709649028064
  0
ARC
  5
9689
  8
0
 10
3323.4605683280719859
 20
294.4880309236091875
 30
0.0
 40
0.081602046088254
 50
272.5050951739377751
 51
309.7045951718719152
  0
ARC
  5
968A
  8
0
 10
3323.4640286787562218
 20
294.4418440149585763
 30
0.0
 40
0.0230238032153533
 50
43.5715473834451075
 51
89.7353912229375652
  0
ARC
  5
968B
  8
0
 10
3323.4710506890669421
 20
294.449383861320598
 30
0.0
 40
0.0127545550090622
 50
335.0844536527113178
 51
40.7729901623509008
  0
ARC
  5
968C
  8
0
 10
3323.4638727563069551
 20
294.4561576812370731
 30
0.0
 40
0.0223370169678612
 50
270.6727094438173822
 51
327.0566498421795245
  0
ARC
  5
968D
  8
0
 10
3323.7002405468078905
 20
294.4889577162923047
 30
0.0
 40
0.072769019930687
 50
90.6410396539869083
 51
142.348646213056611
  0
ARC
  5
968E
  8
0
 10
3323.6888707890539081
 20
294.5004919055107848
 30
0.0
 40
0.0567635222377504
 50
144.5565314423432994
 51
186.6225824968333029
  0
LINE
  5
968F
  8
0
 10
3323.6324860278200504
 20
294.4939454440757913
 30
0.0
 11
3323.6353621271878183
 21
294.469988629285524
 31
0.0
  0
ARC
  5
9690
  8
0
 10
3323.7022650616631836
 20
294.4400626223845734
 30
0.0
 40
0.0853188157580601
 50
91.9066489761305405
 51
125.2459776787329986
  0
ARC
  5
9691
  8
0
 10
3323.6827465113678954
 20
294.4719270428684013
 30
0.0
 40
0.048094144815246
 50
128.1637464582900066
 51
164.2581771271746902
  0
ARC
  5
9692
  8
0
 10
3323.6753207211650079
 20
294.4746047179430093
 30
0.0
 40
0.0402243397345427
 50
165.0595828774025904
 51
186.5897012995523028
  0
ARC
  5
9693
  8
0
 10
3323.6862941948797925
 20
294.4764427415440764
 30
0.0
 40
0.0513393716794718
 50
187.222029035095602
 51
226.3595012789969019
  0
ARC
  5
9694
  8
0
 10
3323.7029930866260656
 20
294.5020696450438891
 30
0.0
 40
0.081602046088254
 50
230.2954048281279995
 51
267.4949048260621112
  0
ARC
  5
9695
  8
0
 10
3323.6995327359400108
 20
294.4558827363933915
 30
0.0
 40
0.0230238032153533
 50
90.2646087770624348
 51
136.4284526165548925
  0
ARC
  5
9696
  8
0
 10
3323.6925107256301999
 20
294.4634225827551859
 30
0.0
 40
0.0127545550090622
 50
139.2270098376490921
 51
204.9155463472887106
  0
ARC
  5
9697
  8
0
 10
3323.6996886583901869
 20
294.4701964026717746
 30
0.0
 40
0.0223370169678612
 50
212.9433501578203902
 51
269.3272905561826178
  0
ARC
  5
9698
  8
0
 10
3323.6986122644270836
 20
294.4889577162923047
 30
0.0
 40
0.072769019930687
 50
37.6513537869433819
 51
89.3589603460130775
  0
ARC
  5
9699
  8
0
 10
3323.709982022181066
 20
294.5004919055107848
 30
0.0
 40
0.0567635222377504
 50
353.3774175031667255
 51
35.4434685576567432
  0
LINE
  5
969A
  8
0
 10
3323.7663667834158332
 20
294.4939454440757913
 30
0.0
 11
3323.7634906840471558
 21
294.469988629285524
 31
0.0
  0
ARC
  5
969B
  8
0
 10
3323.6965877495717905
 20
294.4400626223845734
 30
0.0
 40
0.0853188157580601
 50
54.754022321266973
 51
88.0933510238694737
  0
ARC
  5
969C
  8
0
 10
3323.7161062998661691
 20
294.4719270428684013
 30
0.0
 40
0.048094144815246
 50
15.7418228728252707
 51
51.8362535417099508
  0
ARC
  5
969D
  8
0
 10
3323.7235320900699662
 20
294.4746047179430093
 30
0.0
 40
0.0402243397345427
 50
353.4102987004476972
 51
14.9404171225974007
  0
ARC
  5
969E
  8
0
 10
3323.7125586163538173
 20
294.4764427415440764
 30
0.0
 40
0.0513393716794718
 50
313.6404987210029844
 51
352.7779709649028064
  0
ARC
  5
969F
  8
0
 10
3323.6958597246089084
 20
294.5020696450438891
 30
0.0
 40
0.081602046088254
 50
272.5050951739377751
 51
309.7045951718719152
  0
ARC
  5
96A0
  8
0
 10
3323.6993200752940538
 20
294.4558827363933915
 30
0.0
 40
0.0230238032153533
 50
43.5715473834451075
 51
89.7353912229375652
  0
ARC
  5
96A1
  8
0
 10
3323.7063420856047742
 20
294.4634225827551859
 30
0.0
 40
0.0127545550090622
 50
335.0844536527113178
 51
40.7729901623509008
  0
ARC
  5
96A2
  8
0
 10
3323.6991641528447872
 20
294.4701964026717746
 30
0.0
 40
0.0223370169678612
 50
270.6727094438173822
 51
327.0566498421795245
  0
ARC
  5
96A3
  8
0
 10
3323.1453744189439021
 20
294.2292406527507183
 30
0.0
 40
0.072769019930687
 50
90.6410396539869083
 51
142.348646213056611
  0
ARC
  5
96A4
  8
0
 10
3323.1340046611908292
 20
294.2407748419693121
 30
0.0
 40
0.0567635222377504
 50
144.5565314423432994
 51
186.6225824968333029
  0
LINE
  5
96A5
  8
0
 10
3323.077619899956062
 20
294.2342283805343186
 30
0.0
 11
3323.0804959993238299
 21
294.2102715657438807
 31
0.0
  0
ARC
  5
96A6
  8
0
 10
3323.1473989338001047
 20
294.180345558842987
 30
0.0
 40
0.0853188157580601
 50
91.9066489761305405
 51
125.2459776787329986
  0
ARC
  5
96A7
  8
0
 10
3323.1278803835048166
 20
294.2122099793268717
 30
0.0
 40
0.048094144815246
 50
128.1637464582900066
 51
164.2581771271746902
  0
ARC
  5
96A8
  8
0
 10
3323.1204545933010195
 20
294.2148876544014229
 30
0.0
 40
0.0402243397345427
 50
165.0595828774025904
 51
186.5897012995523028
  0
ARC
  5
96A9
  8
0
 10
3323.1314280670171684
 20
294.2167256780026037
 30
0.0
 40
0.0513393716794718
 50
187.222029035095602
 51
226.3595012789969019
  0
ARC
  5
96AA
  8
0
 10
3323.1481269587620773
 20
294.2423525815023027
 30
0.0
 40
0.081602046088254
 50
230.2954048281279995
 51
267.4949048260621112
  0
ARC
  5
96AB
  8
0
 10
3323.1446666080769319
 20
294.1961656728516914
 30
0.0
 40
0.0230238032153533
 50
90.2646087770624348
 51
136.4284526165548925
  0
ARC
  5
96AC
  8
0
 10
3323.1376445977662115
 20
294.2037055192137132
 30
0.0
 40
0.0127545550090622
 50
139.2270098376490921
 51
204.9155463472887106
  0
ARC
  5
96AD
  8
0
 10
3323.1448225305261985
 20
294.2104793391303019
 30
0.0
 40
0.0223370169678612
 50
212.9433501578203902
 51
269.3272905561826178
  0
ARC
  5
96AE
  8
0
 10
3323.1437461365630952
 20
294.2292406527507183
 30
0.0
 40
0.072769019930687
 50
37.6513537869433819
 51
89.3589603460130775
  0
ARC
  5
96AF
  8
0
 10
3323.1551158943170776
 20
294.2407748419693121
 30
0.0
 40
0.0567635222377504
 50
353.3774175031667255
 51
35.4434685576567432
  0
LINE
  5
96B0
  8
0
 10
3323.2115006555518448
 20
294.2342283805343186
 30
0.0
 11
3323.2086245561831674
 21
294.2102715657438807
 31
0.0
  0
ARC
  5
96B1
  8
0
 10
3323.1417216217078021
 20
294.180345558842987
 30
0.0
 40
0.0853188157580601
 50
54.754022321266973
 51
88.0933510238694737
  0
ARC
  5
96B2
  8
0
 10
3323.1612401720030903
 20
294.2122099793268717
 30
0.0
 40
0.048094144815246
 50
15.7418228728252707
 51
51.8362535417099508
  0
ARC
  5
96B3
  8
0
 10
3323.1686659622068873
 20
294.2148876544014229
 30
0.0
 40
0.0402243397345427
 50
353.4102987004476972
 51
14.9404171225974007
  0
ARC
  5
96B4
  8
0
 10
3323.1576924884911932
 20
294.2167256780026037
 30
0.0
 40
0.0513393716794718
 50
313.6404987210029844
 51
352.7779709649028064
  0
ARC
  5
96B5
  8
0
 10
3323.1409935967458296
 20
294.2423525815023027
 30
0.0
 40
0.081602046088254
 50
272.5050951739377751
 51
309.7045951718719152
  0
ARC
  5
96B6
  8
0
 10
3323.1444539474300655
 20
294.1961656728516914
 30
0.0
 40
0.0230238032153533
 50
43.5715473834451075
 51
89.7353912229375652
  0
ARC
  5
96B7
  8
0
 10
3323.1514759577407858
 20
294.2037055192137132
 30
0.0
 40
0.0127545550090622
 50
335.0844536527113178
 51
40.7729901623509008
  0
ARC
  5
96B8
  8
0
 10
3323.1442980249807988
 20
294.2104793391303019
 30
0.0
 40
0.0223370169678612
 50
270.6727094438173822
 51
327.0566498421795245
  0
ARC
  5
96B9
  8
0
 10
3323.3560830360838736
 20
294.2625826976354233
 30
0.0
 40
0.072769019930687
 50
90.6410396539869083
 51
142.348646213056611
  0
ARC
  5
96BA
  8
0
 10
3323.3447132783298912
 20
294.2741168868539035
 30
0.0
 40
0.0567635222377504
 50
144.5565314423432994
 51
186.6225824968333029
  0
LINE
  5
96BB
  8
0
 10
3323.288328517095124
 20
294.2675704254190236
 30
0.0
 11
3323.2912046164628919
 21
294.2436136106285858
 31
0.0
  0
ARC
  5
96BC
  8
0
 10
3323.3581075509391667
 20
294.213687603727692
 30
0.0
 40
0.0853188157580601
 50
91.9066489761305405
 51
125.2459776787329986
  0
ARC
  5
96BD
  8
0
 10
3323.338589000644788
 20
294.2455520242115199
 30
0.0
 40
0.048094144815246
 50
128.1637464582900066
 51
164.2581771271746902
  0
ARC
  5
96BE
  8
0
 10
3323.3311632104400815
 20
294.2482296992860142
 30
0.0
 40
0.0402243397345427
 50
165.0595828774025904
 51
186.5897012995523028
  0
ARC
  5
96BF
  8
0
 10
3323.3421366841557756
 20
294.250067722887195
 30
0.0
 40
0.0513393716794718
 50
187.222029035095602
 51
226.3595012789969019
  0
ARC
  5
96C0
  8
0
 10
3323.3588355759020487
 20
294.2756946263870077
 30
0.0
 40
0.081602046088254
 50
230.2954048281279995
 51
267.4949048260621112
  0
ARC
  5
96C1
  8
0
 10
3323.3553752252159939
 20
294.2295077177363964
 30
0.0
 40
0.0230238032153533
 50
90.2646087770624348
 51
136.4284526165548925
  0
ARC
  5
96C2
  8
0
 10
3323.348353214906183
 20
294.2370475640984182
 30
0.0
 40
0.0127545550090622
 50
139.2270098376490921
 51
204.9155463472887106
  0
ARC
  5
96C3
  8
0
 10
3323.35553114766617
 20
294.2438213840148933
 30
0.0
 40
0.0223370169678612
 50
212.9433501578203902
 51
269.3272905561826178
  0
ARC
  5
96C4
  8
0
 10
3323.3544547537030667
 20
294.2625826976354233
 30
0.0
 40
0.072769019930687
 50
37.6513537869433819
 51
89.3589603460130775
  0
ARC
  5
96C5
  8
0
 10
3323.3658245114570491
 20
294.2741168868539035
 30
0.0
 40
0.0567635222377504
 50
353.3774175031667255
 51
35.4434685576567432
  0
LINE
  5
96C6
  8
0
 10
3323.4222092726918163
 20
294.2675704254190236
 30
0.0
 11
3323.4193331733231389
 21
294.2436136106285858
 31
0.0
  0
ARC
  5
96C7
  8
0
 10
3323.3524302388468641
 20
294.213687603727692
 30
0.0
 40
0.0853188157580601
 50
54.754022321266973
 51
88.0933510238694737
  0
ARC
  5
96C8
  8
0
 10
3323.3719487891421522
 20
294.2455520242115199
 30
0.0
 40
0.048094144815246
 50
15.7418228728252707
 51
51.8362535417099508
  0
ARC
  5
96C9
  8
0
 10
3323.3793745793459493
 20
294.2482296992860142
 30
0.0
 40
0.0402243397345427
 50
353.4102987004476972
 51
14.9404171225974007
  0
ARC
  5
96CA
  8
0
 10
3323.3684011056311647
 20
294.250067722887195
 30
0.0
 40
0.0513393716794718
 50
313.6404987210029844
 51
352.7779709649028064
  0
ARC
  5
96CB
  8
0
 10
3323.3517022138848915
 20
294.2756946263870077
 30
0.0
 40
0.081602046088254
 50
272.5050951739377751
 51
309.7045951718719152
  0
ARC
  5
96CC
  8
0
 10
3323.3551625645700369
 20
294.2295077177363964
 30
0.0
 40
0.0230238032153533
 50
43.5715473834451075
 51
89.7353912229375652
  0
ARC
  5
96CD
  8
0
 10
3323.362184574881212
 20
294.2370475640984182
 30
0.0
 40
0.0127545550090622
 50
335.0844536527113178
 51
40.7729901623509008
  0
ARC
  5
96CE
  8
0
 10
3323.355006642121225
 20
294.2438213840148933
 30
0.0
 40
0.0223370169678612
 50
270.6727094438173822
 51
327.0566498421795245
  0
ARC
  5
96CF
  8
0
 10
3324.0675351536579001
 20
294.3634189114524133
 30
0.0
 40
0.072769019930687
 50
90.6410396539869083
 51
142.348646213056611
  0
ARC
  5
96D0
  8
0
 10
3324.0561653959039177
 20
294.3749531006708935
 30
0.0
 40
0.0567635222377504
 50
144.5565314423432994
 51
186.6225824968333029
  0
LINE
  5
96D1
  8
0
 10
3323.9997806346691505
 20
294.3684066392360137
 30
0.0
 11
3324.0026567340391921
 21
294.3444498244455758
 31
0.0
  0
ARC
  5
96D2
  8
0
 10
3324.0695596685141027
 20
294.3145238175446821
 30
0.0
 40
0.0853188157580601
 50
91.9066489761305405
 51
125.2459776787329986
  0
ARC
  5
96D3
  8
0
 10
3324.050041118217905
 20
294.3463882380286236
 30
0.0
 40
0.048094144815246
 50
128.1637464582900066
 51
164.2581771271746902
  0
ARC
  5
96D4
  8
0
 10
3324.0426153280150174
 20
294.349065913103118
 30
0.0
 40
0.0402243397345427
 50
165.0595828774025904
 51
186.5897012995523028
  0
ARC
  5
96D5
  8
0
 10
3324.0535888017311663
 20
294.3509039367042988
 30
0.0
 40
0.0513393716794718
 50
187.222029035095602
 51
226.3595012789969019
  0
ARC
  5
96D6
  8
0
 10
3324.0702876934760752
 20
294.3765308402038841
 30
0.0
 40
0.081602046088254
 50
230.2954048281279995
 51
267.4949048260621112
  0
ARC
  5
96D7
  8
0
 10
3324.0668273427909298
 20
294.3303439315533865
 30
0.0
 40
0.0230238032153533
 50
90.2646087770624348
 51
136.4284526165548925
  0
ARC
  5
96D8
  8
0
 10
3324.0598053324802095
 20
294.3378837779154082
 30
0.0
 40
0.0127545550090622
 50
139.2270098376490921
 51
204.9155463472887106
  0
ARC
  5
96D9
  8
0
 10
3324.0669832652401965
 20
294.3446575978318833
 30
0.0
 40
0.0223370169678612
 50
212.9433501578203902
 51
269.3272905561826178
  0
ARC
  5
96DA
  8
0
 10
3324.0659068712770932
 20
294.3634189114524133
 30
0.0
 40
0.072769019930687
 50
37.6513537869433819
 51
89.3589603460130775
  0
ARC
  5
96DB
  8
0
 10
3324.0772766290310756
 20
294.3749531006708935
 30
0.0
 40
0.0567635222377504
 50
353.3774175031667255
 51
35.4434685576567432
  0
LINE
  5
96DC
  8
0
 10
3324.1336613902649333
 20
294.3684066392360137
 30
0.0
 11
3324.1307852908971654
 21
294.3444498244455758
 31
0.0
  0
ARC
  5
96DD
  8
0
 10
3324.0638823564208906
 20
294.3145238175446821
 30
0.0
 40
0.0853188157580601
 50
54.754022321266973
 51
88.0933510238694737
  0
ARC
  5
96DE
  8
0
 10
3324.0834009067170882
 20
294.3463882380286236
 30
0.0
 40
0.048094144815246
 50
15.7418228728252707
 51
51.8362535417099508
  0
ARC
  5
96DF
  8
0
 10
3324.0908266969199758
 20
294.349065913103118
 30
0.0
 40
0.0402243397345427
 50
353.4102987004476972
 51
14.9404171225974007
  0
ARC
  5
96E0
  8
0
 10
3324.0798532232051912
 20
294.3509039367042988
 30
0.0
 40
0.0513393716794718
 50
313.6404987210029844
 51
352.7779709649028064
  0
ARC
  5
96E1
  8
0
 10
3324.063154331458918
 20
294.3765308402038841
 30
0.0
 40
0.081602046088254
 50
272.5050951739377751
 51
309.7045951718719152
  0
ARC
  5
96E2
  8
0
 10
3324.0666146821440634
 20
294.3303439315533865
 30
0.0
 40
0.0230238032153533
 50
43.5715473834451075
 51
89.7353912229375652
  0
ARC
  5
96E3
  8
0
 10
3324.0736366924547838
 20
294.3378837779154082
 30
0.0
 40
0.0127545550090622
 50
335.0844536527113178
 51
40.7729901623509008
  0
ARC
  5
96E4
  8
0
 10
3324.0664587596947968
 20
294.3446575978318833
 30
0.0
 40
0.0223370169678612
 50
270.6727094438173822
 51
327.0566498421795245
  0
ARC
  5
96E5
  8
0
 10
3323.8886130772170873
 20
294.2596625538869262
 30
0.0
 40
0.072769019930687
 50
90.6410396539869083
 51
142.348646213056611
  0
ARC
  5
96E6
  8
0
 10
3323.8772433194631049
 20
294.2711967431052926
 30
0.0
 40
0.0567635222377504
 50
144.5565314423432994
 51
186.6225824968333029
  0
LINE
  5
96E7
  8
0
 10
3323.8208585582269734
 20
294.2646502816704128
 30
0.0
 11
3323.8237346575961055
 21
294.2406934668799749
 31
0.0
  0
ARC
  5
96E8
  8
0
 10
3323.8906375920719256
 20
294.2107674599791949
 30
0.0
 40
0.0853188157580601
 50
91.9066489761305405
 51
125.2459776787329986
  0
ARC
  5
96E9
  8
0
 10
3323.8711190417770922
 20
294.2426318804630228
 30
0.0
 40
0.048094144815246
 50
128.1637464582900066
 51
164.2581771271746902
  0
ARC
  5
96EA
  8
0
 10
3323.8636932515728404
 20
294.2453095555375171
 30
0.0
 40
0.0402243397345427
 50
165.0595828774025904
 51
186.5897012995523028
  0
ARC
  5
96EB
  8
0
 10
3323.8746667252880798
 20
294.2471475791386979
 30
0.0
 40
0.0513393716794718
 50
187.222029035095602
 51
226.3595012789969019
  0
ARC
  5
96EC
  8
0
 10
3323.8913656170329887
 20
294.2727744826383969
 30
0.0
 40
0.081602046088254
 50
230.2954048281279995
 51
267.4949048260621112
  0
ARC
  5
96ED
  8
0
 10
3323.8879052663492075
 20
294.2265875739877856
 30
0.0
 40
0.0230238032153533
 50
90.2646087770624348
 51
136.4284526165548925
  0
ARC
  5
96EE
  8
0
 10
3323.8808832560380324
 20
294.2341274203498074
 30
0.0
 40
0.0127545550090622
 50
139.2270098376490921
 51
204.9155463472887106
  0
ARC
  5
96EF
  8
0
 10
3323.8880611887980194
 20
294.2409012402662825
 30
0.0
 40
0.0223370169678612
 50
212.9433501578203902
 51
269.3272905561826178
  0
ARC
  5
96F0
  8
0
 10
3323.8869847948340066
 20
294.2596625538869262
 30
0.0
 40
0.072769019930687
 50
37.6513537869433819
 51
89.3589603460130775
  0
ARC
  5
96F1
  8
0
 10
3323.898354552587989
 20
294.2711967431052926
 30
0.0
 40
0.0567635222377504
 50
353.3774175031667255
 51
35.4434685576567432
  0
LINE
  5
96F2
  8
0
 10
3323.9547393138241205
 20
294.2646502816704128
 30
0.0
 11
3323.9518632144549883
 21
294.2406934668799749
 31
0.0
  0
ARC
  5
96F3
  8
0
 10
3323.8849602799791683
 20
294.2107674599791949
 30
0.0
 40
0.0853188157580601
 50
54.754022321266973
 51
88.0933510238694737
  0
ARC
  5
96F4
  8
0
 10
3323.9044788302740017
 20
294.2426318804630228
 30
0.0
 40
0.048094144815246
 50
15.7418228728252707
 51
51.8362535417099508
  0
ARC
  5
96F5
  8
0
 10
3323.911904620479163
 20
294.2453095555375171
 30
0.0
 40
0.0402243397345427
 50
353.4102987004476972
 51
14.9404171225974007
  0
ARC
  5
96F6
  8
0
 10
3323.9009311467630141
 20
294.2471475791386979
 30
0.0
 40
0.0513393716794718
 50
313.6404987210029844
 51
352.7779709649028064
  0
ARC
  5
96F7
  8
0
 10
3323.8842322550171957
 20
294.2727744826383969
 30
0.0
 40
0.081602046088254
 50
272.5050951739377751
 51
309.7045951718719152
  0
ARC
  5
96F8
  8
0
 10
3323.8876926057027958
 20
294.2265875739877856
 30
0.0
 40
0.0230238032153533
 50
43.5715473834451075
 51
89.7353912229375652
  0
ARC
  5
96F9
  8
0
 10
3323.8947146160130615
 20
294.2341274203498074
 30
0.0
 40
0.0127545550090622
 50
335.0844536527113178
 51
40.7729901623509008
  0
ARC
  5
96FA
  8
0
 10
3323.8875366832521649
 20
294.2409012402662825
 30
0.0
 40
0.0223370169678612
 50
270.6727094438173822
 51
327.0566498421795245
  0
ARC
  5
96FB
  8
0
 10
3323.7141087398908894
 20
294.1669440789635814
 30
0.0
 40
0.072769019930687
 50
90.6410396539869083
 51
142.348646213056611
  0
ARC
  5
96FC
  8
0
 10
3323.702738982136907
 20
294.1784782681821184
 30
0.0
 40
0.0567635222377504
 50
144.5565314423432994
 51
186.6225824968333029
  0
LINE
  5
96FD
  8
0
 10
3323.6463542209021398
 20
294.1719318067471818
 30
0.0
 11
3323.6492303202699077
 21
294.1479749919569144
 31
0.0
  0
ARC
  5
96FE
  8
0
 10
3323.7161332547461825
 20
294.118048985055907
 30
0.0
 40
0.0853188157580601
 50
91.9066489761305405
 51
125.2459776787329986
  0
ARC
  5
96FF
  8
0
 10
3323.6966147044508944
 20
294.1499134055397917
 30
0.0
 40
0.048094144815246
 50
128.1637464582900066
 51
164.2581771271746902
  0
ARC
  5
9700
  8
0
 10
3323.6891889142470973
 20
294.1525910806142861
 30
0.0
 40
0.0402243397345427
 50
165.0595828774025904
 51
186.5897012995523028
  0
ARC
  5
9701
  8
0
 10
3323.7001623879627914
 20
294.1544291042155237
 30
0.0
 40
0.0513393716794718
 50
187.222029035095602
 51
226.3595012789969019
  0
ARC
  5
9702
  8
0
 10
3323.7168612797090645
 20
294.180056007715109
 30
0.0
 40
0.081602046088254
 50
230.2954048281279995
 51
267.4949048260621112
  0
ARC
  5
9703
  8
0
 10
3323.7134009290230097
 20
294.1338690990647251
 30
0.0
 40
0.0230238032153533
 50
90.2646087770624348
 51
136.4284526165548925
  0
ARC
  5
9704
  8
0
 10
3323.7063789187131988
 20
294.1414089454265763
 30
0.0
 40
0.0127545550090622
 50
139.2270098376490921
 51
204.9155463472887106
  0
ARC
  5
9705
  8
0
 10
3323.7135568514731858
 20
294.1481827653431083
 30
0.0
 40
0.0223370169678612
 50
212.9433501578203902
 51
269.3272905561826178
  0
ARC
  5
9706
  8
0
 10
3323.712480457509173
 20
294.1669440789635814
 30
0.0
 40
0.072769019930687
 50
37.6513537869433819
 51
89.3589603460130775
  0
ARC
  5
9707
  8
0
 10
3323.7238502152640649
 20
294.1784782681821184
 30
0.0
 40
0.0567635222377504
 50
353.3774175031667255
 51
35.4434685576567432
  0
LINE
  5
9708
  8
0
 10
3323.7802349764979226
 20
294.1719318067471818
 30
0.0
 11
3323.7773588771287905
 21
294.1479749919569144
 31
0.0
  0
ARC
  5
9709
  8
0
 10
3323.7104559426538799
 20
294.118048985055907
 30
0.0
 40
0.0853188157580601
 50
54.754022321266973
 51
88.0933510238694737
  0
ARC
  5
970A
  8
0
 10
3323.7299744929491681
 20
294.1499134055397917
 30
0.0
 40
0.048094144815246
 50
15.7418228728252707
 51
51.8362535417099508
  0
ARC
  5
970B
  8
0
 10
3323.7374002831520556
 20
294.1525910806142861
 30
0.0
 40
0.0402243397345427
 50
353.4102987004476972
 51
14.9404171225974007
  0
ARC
  5
970C
  8
0
 10
3323.7264268094368163
 20
294.1544291042155237
 30
0.0
 40
0.0513393716794718
 50
313.6404987210029844
 51
352.7779709649028064
  0
ARC
  5
970D
  8
0
 10
3323.7097279176909979
 20
294.180056007715109
 30
0.0
 40
0.081602046088254
 50
272.5050951739377751
 51
309.7045951718719152
  0
ARC
  5
970E
  8
0
 10
3323.7131882683770527
 20
294.1338690990647251
 30
0.0
 40
0.0230238032153533
 50
43.5715473834451075
 51
89.7353912229375652
  0
ARC
  5
970F
  8
0
 10
3323.7202102786877731
 20
294.1414089454265763
 30
0.0
 40
0.0127545550090622
 50
335.0844536527113178
 51
40.7729901623509008
  0
ARC
  5
9710
  8
0
 10
3323.7130323459277861
 20
294.1481827653431083
 30
0.0
 40
0.0223370169678612
 50
270.6727094438173822
 51
327.0566498421795245
  0
ARC
  5
9711
  8
0
 10
3323.544022141682035
 20
294.0885749818390877
 30
0.0
 40
0.072769019930687
 50
90.6410396539869083
 51
142.348646213056611
  0
ARC
  5
9712
  8
0
 10
3323.5326523839280526
 20
294.1001091710576247
 30
0.0
 40
0.0567635222377504
 50
144.5565314423432994
 51
186.6225824968333029
  0
LINE
  5
9713
  8
0
 10
3323.4762676226919211
 20
294.0935627096226881
 30
0.0
 11
3323.4791437220619628
 21
294.0696058948323071
 31
0.0
  0
ARC
  5
9714
  8
0
 10
3323.5460466565368733
 20
294.0396798879314133
 30
0.0
 40
0.0853188157580601
 50
91.9066489761305405
 51
125.2459776787329986
  0
ARC
  5
9715
  8
0
 10
3323.5265281062420399
 20
294.0715443084151843
 30
0.0
 40
0.048094144815246
 50
128.1637464582900066
 51
164.2581771271746902
  0
ARC
  5
9716
  8
0
 10
3323.5191023160368786
 20
294.0742219834897924
 30
0.0
 40
0.0402243397345427
 50
165.0595828774025904
 51
186.5897012995523028
  0
ARC
  5
9717
  8
0
 10
3323.5300757897530275
 20
294.0760600070909163
 30
0.0
 40
0.0513393716794718
 50
187.222029035095602
 51
226.3595012789969019
  0
ARC
  5
9718
  8
0
 10
3323.5467746814988459
 20
294.1016869105906721
 30
0.0
 40
0.081602046088254
 50
230.2954048281279995
 51
267.4949048260621112
  0
ARC
  5
9719
  8
0
 10
3323.5433143308150647
 20
294.0555000019401177
 30
0.0
 40
0.0230238032153533
 50
90.2646087770624348
 51
136.4284526165548925
  0
ARC
  5
971A
  8
0
 10
3323.5362923205038896
 20
294.0630398483020826
 30
0.0
 40
0.0127545550090622
 50
139.2270098376490921
 51
204.9155463472887106
  0
ARC
  5
971B
  8
0
 10
3323.5434702532638767
 20
294.0698136682186146
 30
0.0
 40
0.0223370169678612
 50
212.9433501578203902
 51
269.3272905561826178
  0
ARC
  5
971C
  8
0
 10
3323.5423938592998638
 20
294.0885749818390877
 30
0.0
 40
0.072769019930687
 50
37.6513537869433819
 51
89.3589603460130775
  0
ARC
  5
971D
  8
0
 10
3323.5537636170538462
 20
294.1001091710576247
 30
0.0
 40
0.0567635222377504
 50
353.3774175031667255
 51
35.4434685576567432
  0
LINE
  5
971E
  8
0
 10
3323.6101483782890682
 20
294.0935627096226881
 30
0.0
 11
3323.6072722789199361
 21
294.0696058948323071
 31
0.0
  0
ARC
  5
971F
  8
0
 10
3323.5403693444450255
 20
294.0396798879314133
 30
0.0
 40
0.0853188157580601
 50
54.754022321266973
 51
88.0933510238694737
  0
ARC
  5
9720
  8
0
 10
3323.5598878947398589
 20
294.0715443084151843
 30
0.0
 40
0.048094144815246
 50
15.7418228728252707
 51
51.8362535417099508
  0
ARC
  5
9721
  8
0
 10
3323.5673136849432012
 20
294.0742219834897924
 30
0.0
 40
0.0402243397345427
 50
353.4102987004476972
 51
14.9404171225974007
  0
ARC
  5
9722
  8
0
 10
3323.5563402112279618
 20
294.0760600070909163
 30
0.0
 40
0.0513393716794718
 50
313.6404987210029844
 51
352.7779709649028064
  0
ARC
  5
9723
  8
0
 10
3323.5396413194830529
 20
294.1016869105906721
 30
0.0
 40
0.081602046088254
 50
272.5050951739377751
 51
309.7045951718719152
  0
ARC
  5
9724
  8
0
 10
3323.5431016701681983
 20
294.0555000019401177
 30
0.0
 40
0.0230238032153533
 50
43.5715473834451075
 51
89.7353912229375652
  0
ARC
  5
9725
  8
0
 10
3323.5501236804780092
 20
294.0630398483020826
 30
0.0
 40
0.0127545550090622
 50
335.0844536527113178
 51
40.7729901623509008
  0
ARC
  5
9726
  8
0
 10
3323.5429457477180222
 20
294.0698136682186146
 30
0.0
 40
0.0223370169678612
 50
270.6727094438173822
 51
327.0566498421795245
  0
ARC
  5
9727
  8
0
 10
3323.3783535627599122
 20
294.0223474252575784
 30
0.0
 40
0.072769019930687
 50
90.6410396539869083
 51
142.348646213056611
  0
ARC
  5
9728
  8
0
 10
3323.3669838050059298
 20
294.0338816144761722
 30
0.0
 40
0.0567635222377504
 50
144.5565314423432994
 51
186.6225824968333029
  0
LINE
  5
9729
  8
0
 10
3323.310599043772072
 20
294.0273351530411787
 30
0.0
 11
3323.3134751431398399
 21
294.0033783382509114
 31
0.0
  0
ARC
  5
972A
  8
0
 10
3323.3803780776152053
 20
293.9734523313499039
 30
0.0
 40
0.0853188157580601
 50
91.9066489761305405
 51
125.2459776787329986
  0
ARC
  5
972B
  8
0
 10
3323.3608595273199171
 20
294.0053167518337887
 30
0.0
 40
0.048094144815246
 50
128.1637464582900066
 51
164.2581771271746902
  0
ARC
  5
972C
  8
0
 10
3323.3534337371170295
 20
294.007994426908283
 30
0.0
 40
0.0402243397345427
 50
165.0595828774025904
 51
186.5897012995523028
  0
ARC
  5
972D
  8
0
 10
3323.3644072108331784
 20
294.0098324505095206
 30
0.0
 40
0.0513393716794718
 50
187.222029035095602
 51
226.3595012789969019
  0
ARC
  5
972E
  8
0
 10
3323.3811061025780873
 20
294.0354593540092196
 30
0.0
 40
0.081602046088254
 50
230.2954048281279995
 51
267.4949048260621112
  0
ARC
  5
972F
  8
0
 10
3323.3776457518929419
 20
293.9892724453587221
 30
0.0
 40
0.0230238032153533
 50
90.2646087770624348
 51
136.4284526165548925
  0
ARC
  5
9730
  8
0
 10
3323.3706237415822216
 20
293.996812291720687
 30
0.0
 40
0.0127545550090622
 50
139.2270098376490921
 51
204.9155463472887106
  0
ARC
  5
9731
  8
0
 10
3323.3778016743422086
 20
294.0035861116371052
 30
0.0
 40
0.0223370169678612
 50
212.9433501578203902
 51
269.3272905561826178
  0
ARC
  5
9732
  8
0
 10
3323.3767252803791052
 20
294.0223474252575784
 30
0.0
 40
0.072769019930687
 50
37.6513537869433819
 51
89.3589603460130775
  0
ARC
  5
9733
  8
0
 10
3323.3880950381330877
 20
294.0338816144761722
 30
0.0
 40
0.0567635222377504
 50
353.3774175031667255
 51
35.4434685576567432
  0
LINE
  5
9734
  8
0
 10
3323.4444797993678549
 20
294.0273351530411787
 30
0.0
 11
3323.4416036999991775
 21
294.0033783382509114
 31
0.0
  0
ARC
  5
9735
  8
0
 10
3323.3747007655229027
 20
293.9734523313499039
 30
0.0
 40
0.0853188157580601
 50
54.754022321266973
 51
88.0933510238694737
  0
ARC
  5
9736
  8
0
 10
3323.3942193158191003
 20
294.0053167518337887
 30
0.0
 40
0.048094144815246
 50
15.7418228728252707
 51
51.8362535417099508
  0
ARC
  5
9737
  8
0
 10
3323.4016451060219879
 20
294.007994426908283
 30
0.0
 40
0.0402243397345427
 50
353.4102987004476972
 51
14.9404171225974007
  0
ARC
  5
9738
  8
0
 10
3323.390671632305839
 20
294.0098324505095206
 30
0.0
 40
0.0513393716794718
 50
313.6404987210029844
 51
352.7779709649028064
  0
ARC
  5
9739
  8
0
 10
3323.3739727405618396
 20
294.0354593540092196
 30
0.0
 40
0.081602046088254
 50
272.5050951739377751
 51
309.7045951718719152
  0
ARC
  5
973A
  8
0
 10
3323.3774330912460755
 20
293.9892724453587221
 30
0.0
 40
0.0230238032153533
 50
43.5715473834451075
 51
89.7353912229375652
  0
ARC
  5
973B
  8
0
 10
3323.3844551015567959
 20
293.996812291720687
 30
0.0
 40
0.0127545550090622
 50
335.0844536527113178
 51
40.7729901623509008
  0
ARC
  5
973C
  8
0
 10
3323.3772771687968088
 20
294.0035861116371052
 30
0.0
 40
0.0223370169678612
 50
270.6727094438173822
 51
327.0566498421795245
  0
ARC
  5
973D
  8
0
 10
3323.6760124641191396
 20
293.860453091475506
 30
0.0
 40
0.072769019930687
 50
90.6410396539869083
 51
142.348646213056611
  0
ARC
  5
973E
  8
0
 10
3323.6646427063651572
 20
293.8719872806939861
 30
0.0
 40
0.0567635222377504
 50
144.5565314423432994
 51
186.6225824968333029
  0
LINE
  5
973F
  8
0
 10
3323.6082579451308447
 20
293.8654408192589926
 30
0.0
 11
3323.6111340444999769
 21
293.8414840044687253
 31
0.0
  0
ARC
  5
9740
  8
0
 10
3323.678036978973978
 20
293.8115579975677178
 30
0.0
 40
0.0853188157580601
 50
91.9066489761305405
 51
125.2459776787329986
  0
ARC
  5
9741
  8
0
 10
3323.6585184286791446
 20
293.8434224180516026
 30
0.0
 40
0.048094144815246
 50
128.1637464582900066
 51
164.2581771271746902
  0
ARC
  5
9742
  8
0
 10
3323.6510926384758022
 20
293.8461000931260969
 30
0.0
 40
0.0402243397345427
 50
165.0595828774025904
 51
186.5897012995523028
  0
ARC
  5
9743
  8
0
 10
3323.6620661121919511
 20
293.8479381167272777
 30
0.0
 40
0.0513393716794718
 50
187.222029035095602
 51
226.3595012789969019
  0
ARC
  5
9744
  8
0
 10
3323.67876500393686
 20
293.8735650202270904
 30
0.0
 40
0.081602046088254
 50
230.2954048281279995
 51
267.4949048260621112
  0
ARC
  5
9745
  8
0
 10
3323.6753046532521694
 20
293.8273781115764223
 30
0.0
 40
0.0230238032153533
 50
90.2646087770624348
 51
136.4284526165548925
  0
ARC
  5
9746
  8
0
 10
3323.6682826429419038
 20
293.8349179579383872
 30
0.0
 40
0.0127545550090622
 50
139.2270098376490921
 51
204.9155463472887106
  0
ARC
  5
9747
  8
0
 10
3323.6754605757018908
 20
293.841691777854976
 30
0.0
 40
0.0223370169678612
 50
212.9433501578203902
 51
269.3272905561826178
  0
ARC
  5
9748
  8
0
 10
3323.674384181737878
 20
293.860453091475506
 30
0.0
 40
0.072769019930687
 50
37.6513537869433819
 51
89.3589603460130775
  0
ARC
  5
9749
  8
0
 10
3323.6857539394918604
 20
293.8719872806939861
 30
0.0
 40
0.0567635222377504
 50
353.3774175031667255
 51
35.4434685576567432
  0
LINE
  5
974A
  8
0
 10
3323.7421387007270823
 20
293.8654408192589926
 30
0.0
 11
3323.7392626013579502
 21
293.8414840044687253
 31
0.0
  0
ARC
  5
974B
  8
0
 10
3323.6723596668830396
 20
293.8115579975677178
 30
0.0
 40
0.0853188157580601
 50
54.754022321266973
 51
88.0933510238694737
  0
ARC
  5
974C
  8
0
 10
3323.691878217177873
 20
293.8434224180516026
 30
0.0
 40
0.048094144815246
 50
15.7418228728252707
 51
51.8362535417099508
  0
ARC
  5
974D
  8
0
 10
3323.6993040073812153
 20
293.8461000931260969
 30
0.0
 40
0.0402243397345427
 50
353.4102987004476972
 51
14.9404171225974007
  0
ARC
  5
974E
  8
0
 10
3323.688330533665976
 20
293.8479381167272777
 30
0.0
 40
0.0513393716794718
 50
313.6404987210029844
 51
352.7779709649028064
  0
ARC
  5
974F
  8
0
 10
3323.6716316419210671
 20
293.8735650202270904
 30
0.0
 40
0.081602046088254
 50
272.5050951739377751
 51
309.7045951718719152
  0
ARC
  5
9750
  8
0
 10
3323.6750919926048482
 20
293.8273781115764223
 30
0.0
 40
0.0230238032153533
 50
43.5715473834451075
 51
89.7353912229375652
  0
ARC
  5
9751
  8
0
 10
3323.6821140029169328
 20
293.8349179579383872
 30
0.0
 40
0.0127545550090622
 50
335.0844536527113178
 51
40.7729901623509008
  0
ARC
  5
9752
  8
0
 10
3323.6749360701560363
 20
293.841691777854976
 30
0.0
 40
0.0223370169678612
 50
270.6727094438173822
 51
327.0566498421795245
  0
ARC
  5
9753
  8
0
 10
3323.7997116809210638
 20
293.958461850035178
 30
0.0
 40
0.072769019930687
 50
90.6410396539869083
 51
142.348646213056611
  0
ARC
  5
9754
  8
0
 10
3323.7883419231670814
 20
293.969996039253715
 30
0.0
 40
0.0567635222377504
 50
144.5565314423432994
 51
186.6225824968333029
  0
LINE
  5
9755
  8
0
 10
3323.7319571619318594
 20
293.9634495778187784
 30
0.0
 11
3323.7348332613009916
 21
293.939492763028511
 31
0.0
  0
ARC
  5
9756
  8
0
 10
3323.8017361957768117
 20
293.9095667561275036
 30
0.0
 40
0.0853188157580601
 50
91.9066489761305405
 51
125.2459776787329986
  0
ARC
  5
9757
  8
0
 10
3323.7822176454819783
 20
293.9414311766113883
 30
0.0
 40
0.048094144815246
 50
128.1637464582900066
 51
164.2581771271746902
  0
ARC
  5
9758
  8
0
 10
3323.7747918552768169
 20
293.9441088516858827
 30
0.0
 40
0.0402243397345427
 50
165.0595828774025904
 51
186.5897012995523028
  0
ARC
  5
9759
  8
0
 10
3323.7857653289929658
 20
293.9459468752870066
 30
0.0
 40
0.0513393716794718
 50
187.222029035095602
 51
226.3595012789969019
  0
ARC
  5
975A
  8
0
 10
3323.8024642207387842
 20
293.9715737787868193
 30
0.0
 40
0.081602046088254
 50
230.2954048281279995
 51
267.4949048260621112
  0
ARC
  5
975B
  8
0
 10
3323.7990038700531841
 20
293.925386870136208
 30
0.0
 40
0.0230238032153533
 50
90.2646087770624348
 51
136.4284526165548925
  0
ARC
  5
975C
  8
0
 10
3323.791981859743828
 20
293.9329267164981729
 30
0.0
 40
0.0127545550090622
 50
139.2270098376490921
 51
204.9155463472887106
  0
ARC
  5
975D
  8
0
 10
3323.799159792501996
 20
293.9397005364148185
 30
0.0
 40
0.0223370169678612
 50
212.9433501578203902
 51
269.3272905561826178
  0
ARC
  5
975E
  8
0
 10
3323.7980833985398021
 20
293.958461850035178
 30
0.0
 40
0.072769019930687
 50
37.6513537869433819
 51
89.3589603460130775
  0
ARC
  5
975F
  8
0
 10
3323.8094531562937846
 20
293.969996039253715
 30
0.0
 40
0.0567635222377504
 50
353.3774175031667255
 51
35.4434685576567432
  0
LINE
  5
9760
  8
0
 10
3323.8658379175290065
 20
293.9634495778187784
 30
0.0
 11
3323.8629618181598744
 21
293.939492763028511
 31
0.0
  0
ARC
  5
9761
  8
0
 10
3323.7960588836840543
 20
293.9095667561275036
 30
0.0
 40
0.0853188157580601
 50
54.754022321266973
 51
88.0933510238694737
  0
ARC
  5
9762
  8
0
 10
3323.8155774339788877
 20
293.9414311766113883
 30
0.0
 40
0.048094144815246
 50
15.7418228728252707
 51
51.8362535417099508
  0
ARC
  5
9763
  8
0
 10
3323.8230032241831395
 20
293.9441088516858827
 30
0.0
 40
0.0402243397345427
 50
353.4102987004476972
 51
14.9404171225974007
  0
ARC
  5
9764
  8
0
 10
3323.8120297504669907
 20
293.9459468752870066
 30
0.0
 40
0.0513393716794718
 50
313.6404987210029844
 51
352.7779709649028064
  0
ARC
  5
9765
  8
0
 10
3323.7953308587220818
 20
293.9715737787868193
 30
0.0
 40
0.081602046088254
 50
272.5050951739377751
 51
309.7045951718719152
  0
ARC
  5
9766
  8
0
 10
3323.7987912094072271
 20
293.925386870136208
 30
0.0
 40
0.0230238032153533
 50
43.5715473834451075
 51
89.7353912229375652
  0
ARC
  5
9767
  8
0
 10
3323.805813219717038
 20
293.9329267164981729
 30
0.0
 40
0.0127545550090622
 50
335.0844536527113178
 51
40.7729901623509008
  0
ARC
  5
9768
  8
0
 10
3323.7986352869579605
 20
293.9397005364148185
 30
0.0
 40
0.0223370169678612
 50
270.6727094438173822
 51
327.0566498421795245
  0
ARC
  5
9769
  8
0
 10
3324.2098139220529447
 20
294.1266359268760198
 30
0.0
 40
0.072769019930687
 50
90.6410396539869083
 51
142.348646213056611
  0
ARC
  5
976A
  8
0
 10
3324.1984441642989623
 20
294.1381701160944999
 30
0.0
 40
0.0567635222377504
 50
144.5565314423432994
 51
186.6225824968333029
  0
LINE
  5
976B
  8
0
 10
3324.1420594030641951
 20
294.1316236546595064
 30
0.0
 11
3324.144935502431963
 21
294.1076668398691822
 31
0.0
  0
ARC
  5
976C
  8
0
 10
3324.2118384369068735
 20
294.0777408329682885
 30
0.0
 40
0.0853188157580601
 50
91.9066489761305405
 51
125.2459776787329986
  0
ARC
  5
976D
  8
0
 10
3324.1923198866129496
 20
294.1096052534521164
 30
0.0
 40
0.048094144815246
 50
128.1637464582900066
 51
164.2581771271746902
  0
ARC
  5
976E
  8
0
 10
3324.1848940964091526
 20
294.1122829285267244
 30
0.0
 40
0.0402243397345427
 50
165.0595828774025904
 51
186.5897012995523028
  0
ARC
  5
976F
  8
0
 10
3324.1958675701239372
 20
294.1141209521277915
 30
0.0
 40
0.0513393716794718
 50
187.222029035095602
 51
226.3595012789969019
  0
ARC
  5
9770
  8
0
 10
3324.2125664618702103
 20
294.1397478556274905
 30
0.0
 40
0.081602046088254
 50
230.2954048281279995
 51
267.4949048260621112
  0
ARC
  5
9771
  8
0
 10
3324.2091061111850649
 20
294.0935609469769929
 30
0.0
 40
0.0230238032153533
 50
90.2646087770624348
 51
136.4284526165548925
  0
ARC
  5
9772
  8
0
 10
3324.2020841008738898
 20
294.101100793338901
 30
0.0
 40
0.0127545550090622
 50
139.2270098376490921
 51
204.9155463472887106
  0
ARC
  5
9773
  8
0
 10
3324.2092620336338769
 20
294.1078746132554897
 30
0.0
 40
0.0223370169678612
 50
212.9433501578203902
 51
269.3272905561826178
  0
ARC
  5
9774
  8
0
 10
3324.208185639669864
 20
294.1266359268760198
 30
0.0
 40
0.072769019930687
 50
37.6513537869433819
 51
89.3589603460130775
  0
ARC
  5
9775
  8
0
 10
3324.2195553974252107
 20
294.1381701160944999
 30
0.0
 40
0.0567635222377504
 50
353.3774175031667255
 51
35.4434685576567432
  0
LINE
  5
9776
  8
0
 10
3324.2759401586599779
 20
294.1316236546595064
 30
0.0
 11
3324.2730640592908458
 21
294.1076668398691822
 31
0.0
  0
ARC
  5
9777
  8
0
 10
3324.2061611248150257
 20
294.0777408329682885
 30
0.0
 40
0.0853188157580601
 50
54.754022321266973
 51
88.0933510238694737
  0
ARC
  5
9778
  8
0
 10
3324.2256796751112233
 20
294.1096052534521164
 30
0.0
 40
0.048094144815246
 50
15.7418228728252707
 51
51.8362535417099508
  0
ARC
  5
9779
  8
0
 10
3324.2331054653141109
 20
294.1122829285267244
 30
0.0
 40
0.0402243397345427
 50
353.4102987004476972
 51
14.9404171225974007
  0
ARC
  5
977A
  8
0
 10
3324.2221319915988715
 20
294.1141209521277915
 30
0.0
 40
0.0513393716794718
 50
313.6404987210029844
 51
352.7779709649028064
  0
ARC
  5
977B
  8
0
 10
3324.2054330998530531
 20
294.1397478556274905
 30
0.0
 40
0.081602046088254
 50
272.5050951739377751
 51
309.7045951718719152
  0
ARC
  5
977C
  8
0
 10
3324.2088934505381985
 20
294.0935609469769929
 30
0.0
 40
0.0230238032153533
 50
43.5715473834451075
 51
89.7353912229375652
  0
ARC
  5
977D
  8
0
 10
3324.2159154608489189
 20
294.101100793338901
 30
0.0
 40
0.0127545550090622
 50
335.0844536527113178
 51
40.7729901623509008
  0
ARC
  5
977E
  8
0
 10
3324.2087375280889319
 20
294.1078746132554897
 30
0.0
 40
0.0223370169678612
 50
270.6727094438173822
 51
327.0566498421795245
  0
ARC
  5
977F
  8
0
 10
3324.149635954977839
 20
293.9818502460076957
 30
0.0
 40
0.072769019930687
 50
90.6410396539869083
 51
142.348646213056611
  0
ARC
  5
9780
  8
0
 10
3324.1382661972238566
 20
293.9933844352261758
 30
0.0
 40
0.0567635222377504
 50
144.5565314423432994
 51
186.6225824968333029
  0
LINE
  5
9781
  8
0
 10
3324.0818814359890894
 20
293.9868379737911823
 30
0.0
 11
3324.0847575353582215
 21
293.962881159000915
 31
0.0
  0
ARC
  5
9782
  8
0
 10
3324.1516604698340416
 20
293.9329551521000212
 30
0.0
 40
0.0853188157580601
 50
91.9066489761305405
 51
125.2459776787329986
  0
ARC
  5
9783
  8
0
 10
3324.1321419195392082
 20
293.9648195725839059
 30
0.0
 40
0.048094144815246
 50
128.1637464582900066
 51
164.2581771271746902
  0
ARC
  5
9784
  8
0
 10
3324.1247161293349563
 20
293.9674972476584003
 30
0.0
 40
0.0402243397345427
 50
165.0595828774025904
 51
186.5897012995523028
  0
ARC
  5
9785
  8
0
 10
3324.1356896030501957
 20
293.9693352712595242
 30
0.0
 40
0.0513393716794718
 50
187.222029035095602
 51
226.3595012789969019
  0
ARC
  5
9786
  8
0
 10
3324.1523884947960141
 20
293.9949621747592801
 30
0.0
 40
0.081602046088254
 50
230.2954048281279995
 51
267.4949048260621112
  0
ARC
  5
9787
  8
0
 10
3324.1489281441108687
 20
293.9487752661087256
 30
0.0
 40
0.0230238032153533
 50
90.2646087770624348
 51
136.4284526165548925
  0
ARC
  5
9788
  8
0
 10
3324.1419061338001484
 20
293.9563151124705769
 30
0.0
 40
0.0127545550090622
 50
139.2270098376490921
 51
204.9155463472887106
  0
ARC
  5
9789
  8
0
 10
3324.1490840665601354
 20
293.9630889323872225
 30
0.0
 40
0.0223370169678612
 50
212.9433501578203902
 51
269.3272905561826178
  0
ARC
  5
978A
  8
0
 10
3324.1480076725961226
 20
293.9818502460076957
 30
0.0
 40
0.072769019930687
 50
37.6513537869433819
 51
89.3589603460130775
  0
ARC
  5
978B
  8
0
 10
3324.159377430350105
 20
293.9933844352261758
 30
0.0
 40
0.0567635222377504
 50
353.3774175031667255
 51
35.4434685576567432
  0
LINE
  5
978C
  8
0
 10
3324.2157621915848722
 20
293.9868379737911823
 30
0.0
 11
3324.2128860922171043
 21
293.962881159000915
 31
0.0
  0
ARC
  5
978D
  8
0
 10
3324.1459831577421937
 20
293.9329551521000212
 30
0.0
 40
0.0853188157580601
 50
54.754022321266973
 51
88.0933510238694737
  0
ARC
  5
978E
  8
0
 10
3324.1655017080361176
 20
293.9648195725839059
 30
0.0
 40
0.048094144815246
 50
15.7418228728252707
 51
51.8362535417099508
  0
ARC
  5
978F
  8
0
 10
3324.1729274982399147
 20
293.9674972476584003
 30
0.0
 40
0.0402243397345427
 50
353.4102987004476972
 51
14.9404171225974007
  0
ARC
  5
9790
  8
0
 10
3324.1619540245251301
 20
293.9693352712595242
 30
0.0
 40
0.0513393716794718
 50
313.6404987210029844
 51
352.7779709649028064
  0
ARC
  5
9791
  8
0
 10
3324.1452551327788569
 20
293.9949621747592801
 30
0.0
 40
0.081602046088254
 50
272.5050951739377751
 51
309.7045951718719152
  0
ARC
  5
9792
  8
0
 10
3324.1487154834649118
 20
293.9487752661087256
 30
0.0
 40
0.0230238032153533
 50
43.5715473834451075
 51
89.7353912229375652
  0
ARC
  5
9793
  8
0
 10
3324.1557374937738132
 20
293.9563151124705769
 30
0.0
 40
0.0127545550090622
 50
335.0844536527113178
 51
40.7729901623509008
  0
ARC
  5
9794
  8
0
 10
3324.1485595610151904
 20
293.9630889323872225
 30
0.0
 40
0.0223370169678612
 50
270.6727094438173822
 51
327.0566498421795245
  0
ARC
  5
9795
  8
0
 10
3324.0883434669622147
 20
293.8682492234661936
 30
0.0
 40
0.072769019930687
 50
90.6410396539869083
 51
142.348646213056611
  0
ARC
  5
9796
  8
0
 10
3324.0769737092077776
 20
293.8797834126847874
 30
0.0
 40
0.0567635222377504
 50
144.5565314423432994
 51
186.6225824968333029
  0
LINE
  5
9797
  8
0
 10
3324.0205889479730104
 20
293.8732369512499076
 30
0.0
 11
3324.023465047343052
 21
293.8492801364595266
 31
0.0
  0
ARC
  5
9798
  8
0
 10
3324.0903679818170531
 20
293.8193541295585192
 30
0.0
 40
0.0853188157580601
 50
91.9066489761305405
 51
125.2459776787329986
  0
ARC
  5
9799
  8
0
 10
3324.0708494315231292
 20
293.8512185500424039
 30
0.0
 40
0.048094144815246
 50
128.1637464582900066
 51
164.2581771271746902
  0
ARC
  5
979A
  8
0
 10
3324.0634236413188773
 20
293.8538962251170119
 30
0.0
 40
0.0402243397345427
 50
165.0595828774025904
 51
186.5897012995523028
  0
ARC
  5
979B
  8
0
 10
3324.0743971150350262
 20
293.855734248718079
 30
0.0
 40
0.0513393716794718
 50
187.222029035095602
 51
226.3595012789969019
  0
ARC
  5
979C
  8
0
 10
3324.0910960067799351
 20
293.881361152217778
 30
0.0
 40
0.081602046088254
 50
230.2954048281279995
 51
267.4949048260621112
  0
ARC
  5
979D
  8
0
 10
3324.0876356560947897
 20
293.8351742435672804
 30
0.0
 40
0.0230238032153533
 50
90.2646087770624348
 51
136.4284526165548925
  0
ARC
  5
979E
  8
0
 10
3324.0806136457840694
 20
293.8427140899293022
 30
0.0
 40
0.0127545550090622
 50
139.2270098376490921
 51
204.9155463472887106
  0
ARC
  5
979F
  8
0
 10
3324.0877915785440564
 20
293.8494879098457773
 30
0.0
 40
0.0223370169678612
 50
212.9433501578203902
 51
269.3272905561826178
  0
ARC
  5
97A0
  8
0
 10
3324.0867151845809531
 20
293.8682492234661936
 30
0.0
 40
0.072769019930687
 50
37.6513537869433819
 51
38.8079211951932521
  0
ARC
  5
97A1
  8
0
 10
3324.0867151845809531
 20
293.8682492234661936
 30
0.0
 40
0.072769019930687
 50
85.0060563501326669
 51
89.3589603460130775
  0
ARC
  5
97A2
  8
0
 10
3324.0980849423349355
 20
293.8797834126847874
 30
0.0
 40
0.0567635222377504
 50
353.3774175031667255
 51
35.4434685576567432
  0
LINE
  5
97A3
  8
0
 10
3324.1544697035701574
 20
293.8732369512499076
 30
0.0
 11
3324.1515936042010253
 21
293.8492801364595266
 31
0.0
  0
ARC
  5
97A4
  8
0
 10
3324.0846906697261147
 20
293.8193541295585192
 30
0.0
 40
0.0853188157580601
 50
54.754022321266973
 51
88.0933510238694737
  0
ARC
  5
97A5
  8
0
 10
3324.1042092200209481
 20
293.8512185500424039
 30
0.0
 40
0.048094144815246
 50
15.7418228728252707
 51
51.8362535417099508
  0
ARC
  5
97A6
  8
0
 10
3324.1116350102251999
 20
293.8538962251170119
 30
0.0
 40
0.0402243397345427
 50
353.4102987004476972
 51
14.9404171225974007
  0
ARC
  5
97A7
  8
0
 10
3324.1006615365090511
 20
293.855734248718079
 30
0.0
 40
0.0513393716794718
 50
313.6404987210029844
 51
352.7779709649028064
  0
ARC
  5
97A8
  8
0
 10
3324.0839626447627779
 20
293.881361152217778
 30
0.0
 40
0.081602046088254
 50
272.5050951739377751
 51
309.7045951718719152
  0
ARC
  5
97A9
  8
0
 10
3324.0874229954488328
 20
293.8351742435672804
 30
0.0
 40
0.0230238032153533
 50
43.5715473834451075
 51
89.7353912229375652
  0
ARC
  5
97AA
  8
0
 10
3324.0944450057590984
 20
293.8427140899293022
 30
0.0
 40
0.0127545550090622
 50
335.0844536527113178
 51
40.7729901623509008
  0
ARC
  5
97AB
  8
0
 10
3324.0872670729991114
 20
293.8494879098457773
 30
0.0
 40
0.0223370169678612
 50
270.6727094438173822
 51
327.0566498421795245
  0
ARC
  5
97AC
  8
0
 10
3324.029279740659149
 20
293.7557618968197062
 30
0.0
 40
0.072769019930687
 50
90.6410396539869083
 51
142.348646213056611
  0
ARC
  5
97AD
  8
0
 10
3324.0179099829051665
 20
293.7672960860381863
 30
0.0
 40
0.0567635222377504
 50
144.5565314423432994
 51
186.6225824968333029
  0
LINE
  5
97AE
  8
0
 10
3323.9615252216690351
 20
293.7607496246031928
 30
0.0
 11
3323.9644013210390767
 21
293.7367928098129255
 31
0.0
  0
ARC
  5
97AF
  8
0
 10
3324.0313042555139873
 20
293.7068668029119181
 30
0.0
 40
0.0853188157580601
 50
91.9066489761305405
 51
125.2459776787329986
  0
ARC
  5
97B0
  8
0
 10
3324.0117857052191539
 20
293.7387312233958028
 30
0.0
 40
0.048094144815246
 50
128.1637464582900066
 51
164.2581771271746902
  0
ARC
  5
97B1
  8
0
 10
3324.0043599150149021
 20
293.7414088984704108
 30
0.0
 40
0.0402243397345427
 50
165.0595828774025904
 51
186.5897012995523028
  0
ARC
  5
97B2
  8
0
 10
3324.0153333887310509
 20
293.7432469220714779
 30
0.0
 40
0.0513393716794718
 50
187.222029035095602
 51
226.3595012789969019
  0
ARC
  5
97B3
  8
0
 10
3324.0320322804759599
 20
293.7688738255711769
 30
0.0
 40
0.081602046088254
 50
230.2954048281279995
 51
267.4949048260621112
  0
ARC
  5
97B4
  8
0
 10
3324.0285719297908145
 20
293.7226869169206793
 30
0.0
 40
0.0230238032153533
 50
90.2646087770624348
 51
136.4284526165548925
  0
ARC
  5
97B5
  8
0
 10
3324.0215499194810036
 20
293.7302267632825874
 30
0.0
 40
0.0127545550090622
 50
139.2270098376490921
 51
204.9155463472887106
  0
ARC
  5
97B6
  8
0
 10
3324.0287278522400811
 20
293.7370005831991762
 30
0.0
 40
0.0223370169678612
 50
212.9433501578203902
 51
269.3272905561826178
  0
ARC
  5
97B7
  8
0
 10
3324.0276514582769778
 20
293.7557618968197062
 30
0.0
 40
0.072769019930687
 50
87.4391106508544738
 51
89.3589603460130775
  0
ARC
  5
97B8
  8
0
 10
3324.0390212160309602
 20
293.7672960860381863
 30
0.0
 40
0.0567635222377504
 50
353.3774175031667255
 51
35.4434685576567432
  0
LINE
  5
97B9
  8
0
 10
3324.0954059772661822
 20
293.7607496246031928
 30
0.0
 11
3324.09252987789705
 21
293.7367928098129255
 31
0.0
  0
ARC
  5
97BA
  8
0
 10
3324.0256269434221394
 20
293.7068668029119181
 30
0.0
 40
0.0853188157580601
 50
54.754022321266973
 51
88.0933510238694737
  0
ARC
  5
97BB
  8
0
 10
3324.0451454937160634
 20
293.7387312233958028
 30
0.0
 40
0.048094144815246
 50
15.7418228728252707
 51
51.8362535417099508
  0
ARC
  5
97BC
  8
0
 10
3324.0525712839198604
 20
293.7414088984704108
 30
0.0
 40
0.0402243397345427
 50
353.4102987004476972
 51
14.9404171225974007
  0
ARC
  5
97BD
  8
0
 10
3324.0415978102050758
 20
293.7432469220714779
 30
0.0
 40
0.0513393716794718
 50
313.6404987210029844
 51
352.7779709649028064
  0
ARC
  5
97BE
  8
0
 10
3324.0248989184588027
 20
293.7688738255711769
 30
0.0
 40
0.081602046088254
 50
272.5050951739377751
 51
309.7045951718719152
  0
ARC
  5
97BF
  8
0
 10
3324.0283592691448575
 20
293.7226869169206793
 30
0.0
 40
0.0230238032153533
 50
43.5715473834451075
 51
89.7353912229375652
  0
ARC
  5
97C0
  8
0
 10
3324.0353812794551231
 20
293.7302267632825874
 30
0.0
 40
0.0127545550090622
 50
335.0844536527113178
 51
40.7729901623509008
  0
ARC
  5
97C1
  8
0
 10
3324.0282033466960456
 20
293.7370005831991762
 30
0.0
 40
0.0223370169678612
 50
270.6727094438173822
 51
327.0566498421795245
  0
ARC
  5
97C2
  8
0
 10
3324.3992634304640887
 20
294.264739171648273
 30
0.0
 40
0.072769019930687
 50
90.6410396539869083
 51
142.348646213056611
  0
ARC
  5
97C3
  8
0
 10
3324.3878936727101063
 20
294.27627336086681
 30
0.0
 40
0.0567635222377504
 50
144.5565314423432994
 51
186.6225824968333029
  0
LINE
  5
97C4
  8
0
 10
3324.3315089114748844
 20
294.2697268994318165
 30
0.0
 11
3324.3343850108440165
 21
294.2457700846414923
 31
0.0
  0
ARC
  5
97C5
  8
0
 10
3324.4012879453189271
 20
294.2158440777404849
 30
0.0
 40
0.0853188157580601
 50
91.9066489761305405
 51
125.2459776787329986
  0
ARC
  5
97C6
  8
0
 10
3324.3817693950240937
 20
294.2477084982244264
 30
0.0
 40
0.048094144815246
 50
128.1637464582900066
 51
164.2581771271746902
  0
ARC
  5
97C7
  8
0
 10
3324.3743436048212061
 20
294.2503861732989208
 30
0.0
 40
0.0402243397345427
 50
165.0595828774025904
 51
186.5897012995523028
  0
ARC
  5
97C8
  8
0
 10
3324.3853170785359907
 20
294.2522241969001016
 30
0.0
 40
0.0513393716794718
 50
187.222029035095602
 51
226.3595012789969019
  0
ARC
  5
97C9
  8
0
 10
3324.4020159702818091
 20
294.2778511003999142
 30
0.0
 40
0.081602046088254
 50
230.2954048281279995
 51
267.4949048260621112
  0
ARC
  5
97CA
  8
0
 10
3324.3985556195971185
 20
294.2316641917491893
 30
0.0
 40
0.0230238032153533
 50
90.2646087770624348
 51
136.4284526165548925
  0
ARC
  5
97CB
  8
0
 10
3324.3915336092859434
 20
294.239204038111211
 30
0.0
 40
0.0127545550090622
 50
139.2270098376490921
 51
204.9155463472887106
  0
ARC
  5
97CC
  8
0
 10
3324.3987115420450209
 20
294.2459778580277998
 30
0.0
 40
0.0223370169678612
 50
212.9433501578203902
 51
269.3272905561826178
  0
ARC
  5
97CD
  8
0
 10
3324.3976351480828271
 20
294.264739171648273
 30
0.0
 40
0.072769019930687
 50
37.6513537869433819
 51
89.3589603460130775
  0
ARC
  5
97CE
  8
0
 10
3324.4090049058368095
 20
294.27627336086681
 30
0.0
 40
0.0567635222377504
 50
353.3774175031667255
 51
35.4434685576567432
  0
LINE
  5
97CF
  8
0
 10
3324.4653896670720314
 20
294.2697268994318165
 30
0.0
 11
3324.4625135677028993
 21
294.2457700846414923
 31
0.0
  0
ARC
  5
97D0
  8
0
 10
3324.3956106332270792
 20
294.2158440777404849
 30
0.0
 40
0.0853188157580601
 50
54.754022321266973
 51
88.0933510238694737
  0
ARC
  5
97D1
  8
0
 10
3324.4151291835228221
 20
294.2477084982244264
 30
0.0
 40
0.048094144815246
 50
15.7418228728252707
 51
51.8362535417099508
  0
ARC
  5
97D2
  8
0
 10
3324.4225549737261645
 20
294.2503861732989208
 30
0.0
 40
0.0402243397345427
 50
353.4102987004476972
 51
14.9404171225974007
  0
ARC
  5
97D3
  8
0
 10
3324.4115815000109251
 20
294.2522241969001016
 30
0.0
 40
0.0513393716794718
 50
313.6404987210029844
 51
352.7779709649028064
  0
ARC
  5
97D4
  8
0
 10
3324.3948826082651067
 20
294.2778511003999142
 30
0.0
 40
0.081602046088254
 50
272.5050951739377751
 51
309.7045951718719152
  0
ARC
  5
97D5
  8
0
 10
3324.3983429589497973
 20
294.2316641917491893
 30
0.0
 40
0.0230238032153533
 50
43.5715473834451075
 51
89.7353912229375652
  0
ARC
  5
97D6
  8
0
 10
3324.4053649692609724
 20
294.239204038111211
 30
0.0
 40
0.0127545550090622
 50
335.0844536527113178
 51
40.7729901623509008
  0
ARC
  5
97D7
  8
0
 10
3324.3981870365000759
 20
294.2459778580277998
 30
0.0
 40
0.0223370169678612
 50
270.6727094438173822
 51
327.0566498421795245
  0
ARC
  5
97D8
  8
0
 10
3324.7098434985859967
 20
295.5177272269040145
 30
0.0
 40
0.072769019930687
 50
37.6513537869433819
 51
89.3589603460130775
  0
ARC
  5
97D9
  8
0
 10
3324.7212132563399791
 20
295.5292614161224947
 30
0.0
 40
0.0567635222377504
 50
353.3774175031667255
 51
35.4434685576567432
  0
LINE
  5
97DA
  8
0
 10
3324.7775980175752011
 20
295.5227149546876149
 30
0.0
 11
3324.7747219182060689
 21
295.498758139897177
 31
0.0
  0
ARC
  5
97DB
  8
0
 10
3324.7078189837311584
 20
295.4688321329962832
 30
0.0
 40
0.0853188157580601
 50
54.754022321266973
 51
88.0933510238694737
  0
ARC
  5
97DC
  8
0
 10
3324.7273375340259918
 20
295.5006965534802248
 30
0.0
 40
0.048094144815246
 50
15.7418228728252707
 51
51.8362535417099508
  0
ARC
  5
97DD
  8
0
 10
3324.7347633242288794
 20
295.5033742285547191
 30
0.0
 40
0.0402243397345427
 50
353.4102987004476972
 51
14.9404171225974007
  0
ARC
  5
97DE
  8
0
 10
3324.7237898505131852
 20
295.5052122521557862
 30
0.0
 40
0.0513393716794718
 50
313.6404987210029844
 51
352.7779709649028064
  0
ARC
  5
97DF
  8
0
 10
3324.7070909587691858
 20
295.5308391556555989
 30
0.0
 40
0.081602046088254
 50
272.5050951739377751
 51
309.7045951718719152
  0
ARC
  5
97E0
  8
0
 10
3324.710551309452967
 20
295.4846522470049877
 30
0.0
 40
0.0230238032153533
 50
43.5715473834451075
 51
89.7353912229375652
  0
ARC
  5
97E1
  8
0
 10
3324.7175733197650516
 20
295.4921920933668957
 30
0.0
 40
0.0127545550090622
 50
335.0844536527113178
 51
40.7729901623509008
  0
ARC
  5
97E2
  8
0
 10
3324.7103953870041551
 20
295.4989659132834845
 30
0.0
 40
0.0223370169678612
 50
270.6727094438173822
 51
327.0566498421795245
  0
ARC
  5
97E3
  8
0
 10
3324.7114717809668036
 20
295.5177272269040145
 30
0.0
 40
0.072769019930687
 50
90.6410396539869083
 51
142.348646213056611
  0
ARC
  5
97E4
  8
0
 10
3324.7001020232128212
 20
295.5292614161224947
 30
0.0
 40
0.0567635222377504
 50
144.5565314423432994
 51
186.6225824968333029
  0
LINE
  5
97E5
  8
0
 10
3324.6437172619789635
 20
295.5227149546876149
 30
0.0
 11
3324.6465933613471861
 21
295.498758139897177
 31
0.0
  0
ARC
  5
97E6
  8
0
 10
3324.7134962958230062
 20
295.4688321329962832
 30
0.0
 40
0.0853188157580601
 50
91.9066489761305405
 51
125.2459776787329986
  0
ARC
  5
97E7
  8
0
 10
3324.6939777455268086
 20
295.5006965534802248
 30
0.0
 40
0.048094144815246
 50
128.1637464582900066
 51
164.2581771271746902
  0
ARC
  5
97E8
  8
0
 10
3324.686551955323921
 20
295.5033742285547191
 30
0.0
 40
0.0402243397345427
 50
165.0595828774025904
 51
186.5897012995523028
  0
ARC
  5
97E9
  8
0
 10
3324.6975254290400699
 20
295.5052122521557862
 30
0.0
 40
0.0513393716794718
 50
187.222029035095602
 51
226.3595012789969019
  0
ARC
  5
97EA
  8
0
 10
3324.7142243207849788
 20
295.5308391556555989
 30
0.0
 40
0.081602046088254
 50
230.2954048281279995
 51
267.4949048260621112
  0
ARC
  5
97EB
  8
0
 10
3324.7107639700998334
 20
295.4846522470049877
 30
0.0
 40
0.0230238032153533
 50
90.2646087770624348
 51
136.4284526165548925
  0
ARC
  5
97EC
  8
0
 10
3324.7037419597900225
 20
295.4921920933668957
 30
0.0
 40
0.0127545550090622
 50
139.2270098376490921
 51
204.9155463472887106
  0
ARC
  5
97ED
  8
0
 10
3324.7109198925491
 20
295.4989659132834845
 30
0.0
 40
0.0223370169678612
 50
212.9433501578203902
 51
269.3272905561826178
  0
ARC
  5
97EE
  8
0
 10
3324.7723681794382173
 20
295.7308450536697251
 30
0.0
 40
0.072769019930687
 50
37.6513537869433819
 51
89.3589603460130775
  0
ARC
  5
97EF
  8
0
 10
3324.7837379371921998
 20
295.7423792428880915
 30
0.0
 40
0.0567635222377504
 50
353.3774175031667255
 51
35.4434685576567432
  0
LINE
  5
97F0
  8
0
 10
3324.8401226984260575
 20
295.7358327814532117
 30
0.0
 11
3324.8372465990578348
 21
295.7118759666628875
 31
0.0
  0
ARC
  5
97F1
  8
0
 10
3324.7703436645820148
 20
295.6819499597618801
 30
0.0
 40
0.0853188157580601
 50
54.754022321266973
 51
88.0933510238694737
  0
ARC
  5
97F2
  8
0
 10
3324.7898622148768482
 20
295.7138143802458217
 30
0.0
 40
0.048094144815246
 50
15.7418228728252707
 51
51.8362535417099508
  0
ARC
  5
97F3
  8
0
 10
3324.7972880050811
 20
295.7164920553203729
 30
0.0
 40
0.0402243397345427
 50
353.4102987004476972
 51
14.9404171225974007
  0
ARC
  5
97F4
  8
0
 10
3324.7863145313649511
 20
295.7183300789214968
 30
0.0
 40
0.0513393716794718
 50
313.6404987210029844
 51
352.7779709649028064
  0
ARC
  5
97F5
  8
0
 10
3324.7696156396200422
 20
295.7439569824211958
 30
0.0
 40
0.081602046088254
 50
272.5050951739377751
 51
309.7045951718719152
  0
ARC
  5
97F6
  8
0
 10
3324.7730759903051876
 20
295.6977700737706982
 30
0.0
 40
0.0230238032153533
 50
43.5715473834451075
 51
89.7353912229375652
  0
ARC
  5
97F7
  8
0
 10
3324.7800980006159079
 20
295.7053099201326063
 30
0.0
 40
0.0127545550090622
 50
335.0844536527113178
 51
40.7729901623509008
  0
ARC
  5
97F8
  8
0
 10
3324.7729200678559209
 20
295.7120837400491951
 30
0.0
 40
0.0223370169678612
 50
270.6727094438173822
 51
327.0566498421795245
  0
ARC
  5
97F9
  8
0
 10
3324.7739964618181148
 20
295.7308450536697251
 30
0.0
 40
0.072769019930687
 50
90.6410396539869083
 51
142.348646213056611
  0
ARC
  5
97FA
  8
0
 10
3324.7626267040641324
 20
295.7423792428880915
 30
0.0
 40
0.0567635222377504
 50
144.5565314423432994
 51
186.6225824968333029
  0
LINE
  5
97FB
  8
0
 10
3324.7062419428298199
 20
295.7358327814532117
 30
0.0
 11
3324.709118042198952
 21
295.7118759666628875
 31
0.0
  0
ARC
  5
97FC
  8
0
 10
3324.7760209766738626
 20
295.6819499597618801
 30
0.0
 40
0.0853188157580601
 50
91.9066489761305405
 51
125.2459776787329986
  0
ARC
  5
97FD
  8
0
 10
3324.7565024263790292
 20
295.7138143802458217
 30
0.0
 40
0.048094144815246
 50
128.1637464582900066
 51
164.2581771271746902
  0
ARC
  5
97FE
  8
0
 10
3324.7490766361747774
 20
295.7164920553203729
 30
0.0
 40
0.0402243397345427
 50
165.0595828774025904
 51
186.5897012995523028
  0
ARC
  5
97FF
  8
0
 10
3324.7600501098909263
 20
295.7183300789214968
 30
0.0
 40
0.0513393716794718
 50
187.222029035095602
 51
226.3595012789969019
  0
ARC
  5
9800
  8
0
 10
3324.7767490016371994
 20
295.7439569824211958
 30
0.0
 40
0.081602046088254
 50
230.2954048281279995
 51
267.4949048260621112
  0
ARC
  5
9801
  8
0
 10
3324.7732886509511445
 20
295.6977700737706982
 30
0.0
 40
0.0230238032153533
 50
90.2646087770624348
 51
136.4284526165548925
  0
ARC
  5
9802
  8
0
 10
3324.7662666406408789
 20
295.7053099201326063
 30
0.0
 40
0.0127545550090622
 50
139.2270098376490921
 51
204.9155463472887106
  0
ARC
  5
9803
  8
0
 10
3324.7734445734008659
 20
295.7120837400491951
 30
0.0
 40
0.0223370169678612
 50
212.9433501578203902
 51
269.3272905561826178
  0
ARC
  5
9804
  8
0
 10
3324.648890017694157
 20
295.3151426454392094
 30
0.0
 40
0.072769019930687
 50
37.6513537869433819
 51
89.3589603460130775
  0
ARC
  5
9805
  8
0
 10
3324.6602597754481394
 20
295.3266768346576896
 30
0.0
 40
0.0567635222377504
 50
353.3774175031667255
 51
35.4434685576567432
  0
LINE
  5
9806
  8
0
 10
3324.7166445366838161
 20
295.3201303732228098
 30
0.0
 11
3324.7137684373151387
 21
295.2961735584323719
 31
0.0
  0
ARC
  5
9807
  8
0
 10
3324.6468655028388639
 20
295.2662475515314782
 30
0.0
 40
0.0853188157580601
 50
54.754022321266973
 51
88.0933510238694737
  0
ARC
  5
9808
  8
0
 10
3324.6663840531341521
 20
295.2981119720154197
 30
0.0
 40
0.048094144815246
 50
15.7418228728252707
 51
51.8362535417099508
  0
ARC
  5
9809
  8
0
 10
3324.6738098433379491
 20
295.3007896470899141
 30
0.0
 40
0.0402243397345427
 50
353.4102987004476972
 51
14.9404171225974007
  0
ARC
  5
980A
  8
0
 10
3324.6628363696218003
 20
295.3026276706910949
 30
0.0
 40
0.0513393716794718
 50
313.6404987210029844
 51
352.7779709649028064
  0
ARC
  5
980B
  8
0
 10
3324.6461374778768914
 20
295.3282545741906802
 30
0.0
 40
0.081602046088254
 50
272.5050951739377751
 51
309.7045951718719152
  0
ARC
  5
980C
  8
0
 10
3324.6495978285629462
 20
295.2820676655401826
 30
0.0
 40
0.0230238032153533
 50
43.5715473834451075
 51
89.7353912229375652
  0
ARC
  5
980D
  8
0
 10
3324.6566198388718476
 20
295.2896075119022044
 30
0.0
 40
0.0127545550090622
 50
335.0844536527113178
 51
40.7729901623509008
  0
ARC
  5
980E
  8
0
 10
3324.6494419061132248
 20
295.2963813318187931
 30
0.0
 40
0.0223370169678612
 50
270.6727094438173822
 51
327.0566498421795245
  0
ARC
  5
980F
  8
0
 10
3324.6505183000758734
 20
295.3151426454392094
 30
0.0
 40
0.072769019930687
 50
90.6410396539869083
 51
142.348646213056611
  0
ARC
  5
9810
  8
0
 10
3324.639148542321891
 20
295.3266768346576896
 30
0.0
 40
0.0567635222377504
 50
144.5565314423432994
 51
186.6225824968333029
  0
LINE
  5
9811
  8
0
 10
3324.5827637810871238
 20
295.3201303732228098
 30
0.0
 11
3324.5856398804558012
 21
295.2961735584323719
 31
0.0
  0
ARC
  5
9812
  8
0
 10
3324.6525428149311665
 20
295.2662475515314782
 30
0.0
 40
0.0853188157580601
 50
91.9066489761305405
 51
125.2459776787329986
  0
ARC
  5
9813
  8
0
 10
3324.6330242646358784
 20
295.2981119720154197
 30
0.0
 40
0.048094144815246
 50
128.1637464582900066
 51
164.2581771271746902
  0
ARC
  5
9814
  8
0
 10
3324.6255984744320813
 20
295.3007896470899141
 30
0.0
 40
0.0402243397345427
 50
165.0595828774025904
 51
186.5897012995523028
  0
ARC
  5
9815
  8
0
 10
3324.6365719481477754
 20
295.3026276706910949
 30
0.0
 40
0.0513393716794718
 50
187.222029035095602
 51
226.3595012789969019
  0
ARC
  5
9816
  8
0
 10
3324.6532708398931391
 20
295.3282545741906802
 30
0.0
 40
0.081602046088254
 50
230.2954048281279995
 51
267.4949048260621112
  0
ARC
  5
9817
  8
0
 10
3324.6498104892089032
 20
295.2820676655401826
 30
0.0
 40
0.0230238032153533
 50
90.2646087770624348
 51
136.4284526165548925
  0
ARC
  5
9818
  8
0
 10
3324.6427884788981828
 20
295.2896075119022044
 30
0.0
 40
0.0127545550090622
 50
139.2270098376490921
 51
204.9155463472887106
  0
ARC
  5
9819
  8
0
 10
3324.6499664116581698
 20
295.2963813318187931
 30
0.0
 40
0.0223370169678612
 50
212.9433501578203902
 51
269.3272905561826178
  0
ARC
  5
981A
  8
0
 10
3324.5842665745572049
 20
295.1160621061090978
 30
0.0
 40
0.072769019930687
 50
37.6513537869433819
 51
89.3589603460130775
  0
ARC
  5
981B
  8
0
 10
3324.5956363323111873
 20
295.1275962953275211
 30
0.0
 40
0.0567635222377504
 50
353.3774175031667255
 51
35.4434685576567432
  0
LINE
  5
981C
  8
0
 10
3324.6520210935459545
 20
295.1210498338925845
 30
0.0
 11
3324.6491449941768224
 21
295.0970930191023172
 31
0.0
  0
ARC
  5
981D
  8
0
 10
3324.5822420597019118
 20
295.0671670122014234
 30
0.0
 40
0.0853188157580601
 50
54.754022321266973
 51
88.0933510238694737
  0
ARC
  5
981E
  8
0
 10
3324.6017606099971999
 20
295.0990314326851944
 30
0.0
 40
0.048094144815246
 50
15.7418228728252707
 51
51.8362535417099508
  0
ARC
  5
981F
  8
0
 10
3324.609186400200997
 20
295.1017091077598025
 30
0.0
 40
0.0402243397345427
 50
353.4102987004476972
 51
14.9404171225974007
  0
ARC
  5
9820
  8
0
 10
3324.5982129264848481
 20
295.1035471313609264
 30
0.0
 40
0.0513393716794718
 50
313.6404987210029844
 51
352.7779709649028064
  0
ARC
  5
9821
  8
0
 10
3324.5815140347399392
 20
295.1291740348606254
 30
0.0
 40
0.081602046088254
 50
272.5050951739377751
 51
309.7045951718719152
  0
ARC
  5
9822
  8
0
 10
3324.5849743854241751
 20
295.0829871262101278
 30
0.0
 40
0.0230238032153533
 50
43.5715473834451075
 51
89.7353912229375652
  0
ARC
  5
9823
  8
0
 10
3324.5919963957348955
 20
295.0905269725719791
 30
0.0
 40
0.0127545550090622
 50
335.0844536527113178
 51
40.7729901623509008
  0
ARC
  5
9824
  8
0
 10
3324.584818462975818
 20
295.0973007924886247
 30
0.0
 40
0.0223370169678612
 50
270.6727094438173822
 51
327.0566498421795245
  0
ARC
  5
9825
  8
0
 10
3324.5858948569389213
 20
295.1160621061090978
 30
0.0
 40
0.072769019930687
 50
90.6410396539869083
 51
142.348646213056611
  0
ARC
  5
9826
  8
0
 10
3324.5745250991849389
 20
295.1275962953275211
 30
0.0
 40
0.0567635222377504
 50
144.5565314423432994
 51
186.6225824968333029
  0
LINE
  5
9827
  8
0
 10
3324.5181403379501717
 20
295.1210498338925845
 30
0.0
 11
3324.5210164373179396
 21
295.0970930191023172
 31
0.0
  0
ARC
  5
9828
  8
0
 10
3324.5879193717942144
 20
295.0671670122014234
 30
0.0
 40
0.0853188157580601
 50
91.9066489761305405
 51
125.2459776787329986
  0
ARC
  5
9829
  8
0
 10
3324.5684008214989262
 20
295.0990314326851944
 30
0.0
 40
0.048094144815246
 50
128.1637464582900066
 51
164.2581771271746902
  0
ARC
  5
982A
  8
0
 10
3324.5609750312951292
 20
295.1017091077598025
 30
0.0
 40
0.0402243397345427
 50
165.0595828774025904
 51
186.5897012995523028
  0
ARC
  5
982B
  8
0
 10
3324.5719485050108233
 20
295.1035471313609264
 30
0.0
 40
0.0513393716794718
 50
187.222029035095602
 51
226.3595012789969019
  0
ARC
  5
982C
  8
0
 10
3324.5886473967561869
 20
295.1291740348606254
 30
0.0
 40
0.081602046088254
 50
230.2954048281279995
 51
267.4949048260621112
  0
ARC
  5
982D
  8
0
 10
3324.5851870460710416
 20
295.0829871262101278
 30
0.0
 40
0.0230238032153533
 50
90.2646087770624348
 51
136.4284526165548925
  0
ARC
  5
982E
  8
0
 10
3324.5781650357607759
 20
295.0905269725719791
 30
0.0
 40
0.0127545550090622
 50
139.2270098376490921
 51
204.9155463472887106
  0
ARC
  5
982F
  8
0
 10
3324.5853429685212177
 20
295.0973007924886247
 30
0.0
 40
0.0223370169678612
 50
212.9433501578203902
 51
269.3272905561826178
  0
ARC
  5
9830
  8
0
 10
3325.1205044010439451
 20
295.6290488425952958
 30
0.0
 40
0.072769019930687
 50
37.6513537869433819
 51
89.3589603460130775
  0
ARC
  5
9831
  8
0
 10
3325.1318741587979275
 20
295.640583031813776
 30
0.0
 40
0.0567635222377504
 50
353.3774175031667255
 51
35.4434685576567432
  0
LINE
  5
9832
  8
0
 10
3325.1882589200331495
 20
295.6340365703787825
 30
0.0
 11
3325.1853828206631079
 21
295.6100797555885151
 31
0.0
  0
ARC
  5
9833
  8
0
 10
3325.1184798861891068
 20
295.5801537486875077
 30
0.0
 40
0.0853188157580601
 50
54.754022321266973
 51
88.0933510238694737
  0
ARC
  5
9834
  8
0
 10
3325.1379984364839402
 20
295.6120181691713924
 30
0.0
 40
0.048094144815246
 50
15.7418228728252707
 51
51.8362535417099508
  0
ARC
  5
9835
  8
0
 10
3325.145424226688192
 20
295.6146958442460004
 30
0.0
 40
0.0402243397345427
 50
353.4102987004476972
 51
14.9404171225974007
  0
ARC
  5
9836
  8
0
 10
3325.1344507529720431
 20
295.6165338678471244
 30
0.0
 40
0.0513393716794718
 50
313.6404987210029844
 51
352.7779709649028064
  0
ARC
  5
9837
  8
0
 10
3325.1177518612271342
 20
295.6421607713468802
 30
0.0
 40
0.081602046088254
 50
272.5050951739377751
 51
309.7045951718719152
  0
ARC
  5
9838
  8
0
 10
3325.1212122119109154
 20
295.5959738626963258
 30
0.0
 40
0.0230238032153533
 50
43.5715473834451075
 51
89.7353912229375652
  0
ARC
  5
9839
  8
0
 10
3325.1282342222220905
 20
295.603513709058177
 30
0.0
 40
0.0127545550090622
 50
335.0844536527113178
 51
40.7729901623509008
  0
ARC
  5
983A
  8
0
 10
3325.1210562894621035
 20
295.6102875289748226
 30
0.0
 40
0.0223370169678612
 50
270.6727094438173822
 51
327.0566498421795245
  0
ARC
  5
983B
  8
0
 10
3325.1221326834252068
 20
295.6290488425952958
 30
0.0
 40
0.072769019930687
 50
90.6410396539869083
 51
142.348646213056611
  0
ARC
  5
983C
  8
0
 10
3325.1107629256712244
 20
295.640583031813776
 30
0.0
 40
0.0567635222377504
 50
144.5565314423432994
 51
186.6225824968333029
  0
LINE
  5
983D
  8
0
 10
3325.0543781644369119
 20
295.6340365703787825
 30
0.0
 11
3325.057254263806044
 21
295.6100797555885151
 31
0.0
  0
ARC
  5
983E
  8
0
 10
3325.1241571982800451
 20
295.5801537486875077
 30
0.0
 40
0.0853188157580601
 50
91.9066489761305405
 51
125.2459776787329986
  0
ARC
  5
983F
  8
0
 10
3325.1046386479861212
 20
295.6120181691713924
 30
0.0
 40
0.048094144815246
 50
128.1637464582900066
 51
164.2581771271746902
  0
ARC
  5
9840
  8
0
 10
3325.0972128577818694
 20
295.6146958442460004
 30
0.0
 40
0.0402243397345427
 50
165.0595828774025904
 51
186.5897012995523028
  0
ARC
  5
9841
  8
0
 10
3325.1081863314971088
 20
295.6165338678471244
 30
0.0
 40
0.0513393716794718
 50
187.222029035095602
 51
226.3595012789969019
  0
ARC
  5
9842
  8
0
 10
3325.1248852232420177
 20
295.6421607713468802
 30
0.0
 40
0.081602046088254
 50
230.2954048281279995
 51
267.4949048260621112
  0
ARC
  5
9843
  8
0
 10
3325.1214248725577818
 20
295.5959738626963258
 30
0.0
 40
0.0230238032153533
 50
90.2646087770624348
 51
136.4284526165548925
  0
ARC
  5
9844
  8
0
 10
3325.1144028622470614
 20
295.603513709058177
 30
0.0
 40
0.0127545550090622
 50
139.2270098376490921
 51
204.9155463472887106
  0
ARC
  5
9845
  8
0
 10
3325.1215807950070484
 20
295.6102875289748226
 30
0.0
 40
0.0223370169678612
 50
212.9433501578203902
 51
269.3272905561826178
  0
ARC
  5
9846
  8
0
 10
3325.0033144011940749
 20
295.4324177041979169
 30
0.0
 40
0.072769019930687
 50
37.6513537869433819
 51
89.3589603460130775
  0
ARC
  5
9847
  8
0
 10
3325.0146841589480573
 20
295.4439518934162834
 30
0.0
 40
0.0567635222377504
 50
353.3774175031667255
 51
35.4434685576567432
  0
LINE
  5
9848
  8
0
 10
3325.0710689201828245
 20
295.4374054319814036
 30
0.0
 11
3325.0681928208141471
 21
295.4134486171910225
 31
0.0
  0
ARC
  5
9849
  8
0
 10
3325.0012898863378723
 20
295.383522610290072
 30
0.0
 40
0.0853188157580601
 50
54.754022321266973
 51
88.0933510238694737
  0
ARC
  5
984A
  8
0
 10
3325.0208084366331605
 20
295.4153870307738998
 30
0.0
 40
0.048094144815246
 50
15.7418228728252707
 51
51.8362535417099508
  0
ARC
  5
984B
  8
0
 10
3325.028234226837867
 20
295.4180647058485079
 30
0.0
 40
0.0402243397345427
 50
353.4102987004476972
 51
14.9404171225974007
  0
ARC
  5
984C
  8
0
 10
3325.0172607531221729
 20
295.419902729449575
 30
0.0
 40
0.0513393716794718
 50
313.6404987210029844
 51
352.7779709649028064
  0
ARC
  5
984D
  8
0
 10
3325.0005618613758998
 20
295.4455296329493876
 30
0.0
 40
0.081602046088254
 50
272.5050951739377751
 51
309.7045951718719152
  0
ARC
  5
984E
  8
0
 10
3325.0040222120619546
 20
295.3993427242987764
 30
0.0
 40
0.0230238032153533
 50
43.5715473834451075
 51
89.7353912229375652
  0
ARC
  5
984F
  8
0
 10
3325.011044222370856
 20
295.4068825706606845
 30
0.0
 40
0.0127545550090622
 50
335.0844536527113178
 51
40.7729901623509008
  0
ARC
  5
9850
  8
0
 10
3325.0038662896117785
 20
295.4136563905772732
 30
0.0
 40
0.0223370169678612
 50
270.6727094438173822
 51
327.0566498421795245
  0
ARC
  5
9851
  8
0
 10
3325.0049426835748818
 20
295.4324177041979169
 30
0.0
 40
0.072769019930687
 50
90.6410396539869083
 51
142.348646213056611
  0
ARC
  5
9852
  8
0
 10
3324.9935729258208994
 20
295.4439518934162834
 30
0.0
 40
0.0567635222377504
 50
144.5565314423432994
 51
186.6225824968333029
  0
LINE
  5
9853
  8
0
 10
3324.9371881645861322
 20
295.4374054319814036
 30
0.0
 11
3324.9400642639548096
 21
295.4134486171910225
 31
0.0
  0
ARC
  5
9854
  8
0
 10
3325.0069671984310844
 20
295.383522610290072
 30
0.0
 40
0.0853188157580601
 50
91.9066489761305405
 51
125.2459776787329986
  0
ARC
  5
9855
  8
0
 10
3324.9874486481357962
 20
295.4153870307738998
 30
0.0
 40
0.048094144815246
 50
128.1637464582900066
 51
164.2581771271746902
  0
ARC
  5
9856
  8
0
 10
3324.9800228579319992
 20
295.4180647058485079
 30
0.0
 40
0.0402243397345427
 50
165.0595828774025904
 51
186.5897012995523028
  0
ARC
  5
9857
  8
0
 10
3324.990996331648148
 20
295.419902729449575
 30
0.0
 40
0.0513393716794718
 50
187.222029035095602
 51
226.3595012789969019
  0
ARC
  5
9858
  8
0
 10
3325.0076952233930569
 20
295.4455296329493876
 30
0.0
 40
0.081602046088254
 50
230.2954048281279995
 51
267.4949048260621112
  0
ARC
  5
9859
  8
0
 10
3325.0042348727079116
 20
295.3993427242987764
 30
0.0
 40
0.0230238032153533
 50
90.2646087770624348
 51
136.4284526165548925
  0
ARC
  5
985A
  8
0
 10
3324.9972128623981007
 20
295.4068825706606845
 30
0.0
 40
0.0127545550090622
 50
139.2270098376490921
 51
204.9155463472887106
  0
ARC
  5
985B
  8
0
 10
3325.0043907951571782
 20
295.4136563905772732
 30
0.0
 40
0.0223370169678612
 50
212.9433501578203902
 51
269.3272905561826178
  0
ARC
  5
985C
  8
0
 10
3324.9087025559720132
 20
294.9832818662270029
 30
0.0
 40
0.072769019930687
 50
37.6513537869433819
 51
89.3589603460130775
  0
ARC
  5
985D
  8
0
 10
3324.9200723137269051
 20
294.994816055445483
 30
0.0
 40
0.0567635222377504
 50
353.3774175031667255
 51
35.4434685576567432
  0
LINE
  5
985E
  8
0
 10
3324.9764570749612176
 20
294.9882695940106032
 30
0.0
 11
3324.9735809755920855
 21
294.9643127792202222
 31
0.0
  0
ARC
  5
985F
  8
0
 10
3324.9066780411171749
 20
294.9343867723192716
 30
0.0
 40
0.0853188157580601
 50
54.754022321266973
 51
88.0933510238694737
  0
ARC
  5
9860
  8
0
 10
3324.9261965914120083
 20
294.9662511928032131
 30
0.0
 40
0.048094144815246
 50
15.7418228728252707
 51
51.8362535417099508
  0
ARC
  5
9861
  8
0
 10
3324.9336223816148959
 20
294.9689288678777075
 30
0.0
 40
0.0402243397345427
 50
353.4102987004476972
 51
14.9404171225974007
  0
ARC
  5
9862
  8
0
 10
3324.9226489079001112
 20
294.9707668914787746
 30
0.0
 40
0.0513393716794718
 50
313.6404987210029844
 51
352.7779709649028064
  0
ARC
  5
9863
  8
0
 10
3324.9059500161552023
 20
294.9963937949784736
 30
0.0
 40
0.081602046088254
 50
272.5050951739377751
 51
309.7045951718719152
  0
ARC
  5
9864
  8
0
 10
3324.909410366839893
 20
294.950206886327976
 30
0.0
 40
0.0230238032153533
 50
43.5715473834451075
 51
89.7353912229375652
  0
ARC
  5
9865
  8
0
 10
3324.9164323771501586
 20
294.9577467326899978
 30
0.0
 40
0.0127545550090622
 50
335.0844536527113178
 51
40.7729901623509008
  0
ARC
  5
9866
  8
0
 10
3324.9092544443910811
 20
294.9645205526064728
 30
0.0
 40
0.0223370169678612
 50
270.6727094438173822
 51
327.0566498421795245
  0
ARC
  5
9867
  8
0
 10
3324.9103308383541844
 20
294.9832818662270029
 30
0.0
 40
0.072769019930687
 50
90.6410396539869083
 51
142.348646213056611
  0
ARC
  5
9868
  8
0
 10
3324.898961080600202
 20
294.994816055445483
 30
0.0
 40
0.0567635222377504
 50
144.5565314423432994
 51
186.6225824968333029
  0
LINE
  5
9869
  8
0
 10
3324.8425763193640705
 20
294.9882695940106032
 30
0.0
 11
3324.8454524187341121
 21
294.9643127792202222
 31
0.0
  0
ARC
  5
986A
  8
0
 10
3324.9123553532090227
 20
294.9343867723192716
 30
0.0
 40
0.0853188157580601
 50
91.9066489761305405
 51
125.2459776787329986
  0
ARC
  5
986B
  8
0
 10
3324.8928368029141893
 20
294.9662511928032131
 30
0.0
 40
0.048094144815246
 50
128.1637464582900066
 51
164.2581771271746902
  0
ARC
  5
986C
  8
0
 10
3324.8854110127099375
 20
294.9689288678777075
 30
0.0
 40
0.0402243397345427
 50
165.0595828774025904
 51
186.5897012995523028
  0
ARC
  5
986D
  8
0
 10
3324.8963844864260864
 20
294.9707668914787746
 30
0.0
 40
0.0513393716794718
 50
187.222029035095602
 51
226.3595012789969019
  0
ARC
  5
986E
  8
0
 10
3324.9130833781709953
 20
294.9963937949784736
 30
0.0
 40
0.081602046088254
 50
230.2954048281279995
 51
267.4949048260621112
  0
ARC
  5
986F
  8
0
 10
3324.9096230274858499
 20
294.950206886327976
 30
0.0
 40
0.0230238032153533
 50
90.2646087770624348
 51
136.4284526165548925
  0
ARC
  5
9870
  8
0
 10
3324.9026010171751295
 20
294.9577467326899978
 30
0.0
 40
0.0127545550090622
 50
139.2270098376490921
 51
204.9155463472887106
  0
ARC
  5
9871
  8
0
 10
3324.909778949936026
 20
294.9645205526064728
 30
0.0
 40
0.0223370169678612
 50
212.9433501578203902
 51
269.3272905561826178
  0
ARC
  5
9872
  8
0
 10
3324.7326295402272081
 20
294.8366369402630767
 30
0.0
 40
0.072769019930687
 50
37.6513537869433819
 51
89.3589603460130775
  0
ARC
  5
9873
  8
0
 10
3324.7439992979811905
 20
294.8481711294816137
 30
0.0
 40
0.0567635222377504
 50
353.3774175031667255
 51
35.4434685576567432
  0
LINE
  5
9874
  8
0
 10
3324.8003840592159577
 20
294.8416246680466202
 30
0.0
 11
3324.7975079598481898
 21
294.817667853256296
 31
0.0
  0
ARC
  5
9875
  8
0
 10
3324.730605025371915
 20
294.7877418463554022
 30
0.0
 40
0.0853188157580601
 50
54.754022321266973
 51
88.0933510238694737
  0
ARC
  5
9876
  8
0
 10
3324.7501235756672031
 20
294.8196062668391733
 30
0.0
 40
0.048094144815246
 50
15.7418228728252707
 51
51.8362535417099508
  0
ARC
  5
9877
  8
0
 10
3324.7575493658710002
 20
294.8222839419137813
 30
0.0
 40
0.0402243397345427
 50
353.4102987004476972
 51
14.9404171225974007
  0
ARC
  5
9878
  8
0
 10
3324.7465758921562156
 20
294.8241219655149052
 30
0.0
 40
0.0513393716794718
 50
313.6404987210029844
 51
352.7779709649028064
  0
ARC
  5
9879
  8
0
 10
3324.7298770004099424
 20
294.8497488690147179
 30
0.0
 40
0.081602046088254
 50
272.5050951739377751
 51
309.7045951718719152
  0
ARC
  5
987A
  8
0
 10
3324.7333373510959973
 20
294.8035619603641067
 30
0.0
 40
0.0230238032153533
 50
43.5715473834451075
 51
89.7353912229375652
  0
ARC
  5
987B
  8
0
 10
3324.7403593614048987
 20
294.8111018067260147
 30
0.0
 40
0.0127545550090622
 50
335.0844536527113178
 51
40.7729901623509008
  0
ARC
  5
987C
  8
0
 10
3324.7331814286458211
 20
294.8178756266426035
 30
0.0
 40
0.0223370169678612
 50
270.6727094438173822
 51
327.0566498421795245
  0
ARC
  5
987D
  8
0
 10
3324.7342578226089245
 20
294.8366369402630767
 30
0.0
 40
0.072769019930687
 50
90.6410396539869083
 51
142.348646213056611
  0
ARC
  5
987E
  8
0
 10
3324.7228880648549421
 20
294.8481711294816137
 30
0.0
 40
0.0567635222377504
 50
144.5565314423432994
 51
186.6225824968333029
  0
LINE
  5
987F
  8
0
 10
3324.6665033036201748
 20
294.8416246680466202
 30
0.0
 11
3324.6693794029888522
 21
294.817667853256296
 31
0.0
  0
ARC
  5
9880
  8
0
 10
3324.7362823374651271
 20
294.7877418463554022
 30
0.0
 40
0.0853188157580601
 50
91.9066489761305405
 51
125.2459776787329986
  0
ARC
  5
9881
  8
0
 10
3324.7167637871698389
 20
294.8196062668391733
 30
0.0
 40
0.048094144815246
 50
128.1637464582900066
 51
164.2581771271746902
  0
ARC
  5
9882
  8
0
 10
3324.7093379969660418
 20
294.8222839419137813
 30
0.0
 40
0.0402243397345427
 50
165.0595828774025904
 51
186.5897012995523028
  0
ARC
  5
9883
  8
0
 10
3324.7203114706808265
 20
294.8241219655149052
 30
0.0
 40
0.0513393716794718
 50
187.222029035095602
 51
226.3595012789969019
  0
ARC
  5
9884
  8
0
 10
3324.7370103624261901
 20
294.8497488690147179
 30
0.0
 40
0.081602046088254
 50
230.2954048281279995
 51
267.4949048260621112
  0
ARC
  5
9885
  8
0
 10
3324.7335500117419542
 20
294.8035619603641067
 30
0.0
 40
0.0230238032153533
 50
90.2646087770624348
 51
136.4284526165548925
  0
ARC
  5
9886
  8
0
 10
3324.7265280014307791
 20
294.8111018067260147
 30
0.0
 40
0.0127545550090622
 50
139.2270098376490921
 51
204.9155463472887106
  0
ARC
  5
9887
  8
0
 10
3324.7337059341912209
 20
294.8178756266426035
 30
0.0
 40
0.0223370169678612
 50
212.9433501578203902
 51
269.3272905561826178
  0
ARC
  5
9888
  8
0
 10
3325.0833828407971851
 20
295.1382832267635195
 30
0.0
 40
0.072769019930687
 50
37.6513537869433819
 51
89.3589603460130775
  0
ARC
  5
9889
  8
0
 10
3325.0947525985511675
 20
295.1498174159818859
 30
0.0
 40
0.0567635222377504
 50
353.3774175031667255
 51
35.4434685576567432
  0
LINE
  5
988A
  8
0
 10
3325.1511373597859347
 20
295.1432709545470061
 30
0.0
 11
3325.1482612604168025
 21
295.1193141397566819
 31
0.0
  0
ARC
  5
988B
  8
0
 10
3325.081358325941892
 20
295.0893881328557882
 30
0.0
 40
0.0853188157580601
 50
54.754022321266973
 51
88.0933510238694737
  0
ARC
  5
988C
  8
0
 10
3325.1008768762358159
 20
295.121252553339616
 30
0.0
 40
0.048094144815246
 50
15.7418228728252707
 51
51.8362535417099508
  0
ARC
  5
988D
  8
0
 10
3325.1083026664400677
 20
295.1239302284142241
 30
0.0
 40
0.0402243397345427
 50
353.4102987004476972
 51
14.9404171225974007
  0
ARC
  5
988E
  8
0
 10
3325.0973291927248283
 20
295.1257682520152912
 30
0.0
 40
0.0513393716794718
 50
313.6404987210029844
 51
352.7779709649028064
  0
ARC
  5
988F
  8
0
 10
3325.0806303009790099
 20
295.1513951555151039
 30
0.0
 40
0.081602046088254
 50
272.5050951739377751
 51
309.7045951718719152
  0
ARC
  5
9890
  8
0
 10
3325.0840906516641553
 20
295.1052082468644926
 30
0.0
 40
0.0230238032153533
 50
43.5715473834451075
 51
89.7353912229375652
  0
ARC
  5
9891
  8
0
 10
3325.0911126619748757
 20
295.1127480932264007
 30
0.0
 40
0.0127545550090622
 50
335.0844536527113178
 51
40.7729901623509008
  0
ARC
  5
9892
  8
0
 10
3325.0839347292148886
 20
295.1195219131429894
 30
0.0
 40
0.0223370169678612
 50
270.6727094438173822
 51
327.0566498421795245
  0
ARC
  5
9893
  8
0
 10
3325.085011123177992
 20
295.1382832267635195
 30
0.0
 40
0.072769019930687
 50
90.6410396539869083
 51
142.348646213056611
  0
ARC
  5
9894
  8
0
 10
3325.0736413654240096
 20
295.1498174159818859
 30
0.0
 40
0.0567635222377504
 50
144.5565314423432994
 51
186.6225824968333029
  0
LINE
  5
9895
  8
0
 10
3325.0172566041887876
 20
295.1432709545470061
 30
0.0
 11
3325.0201327035588292
 21
295.1193141397566819
 31
0.0
  0
ARC
  5
9896
  8
0
 10
3325.0870356380328303
 20
295.0893881328557882
 30
0.0
 40
0.0853188157580601
 50
91.9066489761305405
 51
125.2459776787329986
  0
ARC
  5
9897
  8
0
 10
3325.0675170877389064
 20
295.121252553339616
 30
0.0
 40
0.048094144815246
 50
128.1637464582900066
 51
164.2581771271746902
  0
ARC
  5
9898
  8
0
 10
3325.0600912975341998
 20
295.1239302284142241
 30
0.0
 40
0.0402243397345427
 50
165.0595828774025904
 51
186.5897012995523028
  0
ARC
  5
9899
  8
0
 10
3325.071064771249894
 20
295.1257682520152912
 30
0.0
 40
0.0513393716794718
 50
187.222029035095602
 51
226.3595012789969019
  0
ARC
  5
989A
  8
0
 10
3325.0877636629961671
 20
295.1513951555151039
 30
0.0
 40
0.081602046088254
 50
230.2954048281279995
 51
267.4949048260621112
  0
ARC
  5
989B
  8
0
 10
3325.0843033123110217
 20
295.1052082468644926
 30
0.0
 40
0.0230238032153533
 50
90.2646087770624348
 51
136.4284526165548925
  0
ARC
  5
989C
  8
0
 10
3325.0772813020012109
 20
295.1127480932264007
 30
0.0
 40
0.0127545550090622
 50
139.2270098376490921
 51
204.9155463472887106
  0
ARC
  5
989D
  8
0
 10
3325.0844592347598336
 20
295.1195219131429894
 30
0.0
 40
0.0223370169678612
 50
212.9433501578203902
 51
269.3272905561826178
  0
ARC
  5
989E
  8
0
 10
3325.2503746681868506
 20
295.2990184981318862
 30
0.0
 40
0.072769019930687
 50
37.6513537869433819
 51
89.3589603460130775
  0
ARC
  5
989F
  8
0
 10
3325.261744425940833
 20
295.3105526873504232
 30
0.0
 40
0.0567635222377504
 50
353.3774175031667255
 51
35.4434685576567432
  0
LINE
  5
98A0
  8
0
 10
3325.318129187176055
 20
295.3040062259154865
 30
0.0
 11
3325.3152530878069228
 21
295.2800494111251055
 31
0.0
  0
ARC
  5
98A1
  8
0
 10
3325.2483501533311028
 20
295.2501234042240981
 30
0.0
 40
0.0853188157580601
 50
54.754022321266973
 51
88.0933510238694737
  0
ARC
  5
98A2
  8
0
 10
3325.2678687036259362
 20
295.2819878247079828
 30
0.0
 40
0.048094144815246
 50
15.7418228728252707
 51
51.8362535417099508
  0
ARC
  5
98A3
  8
0
 10
3325.275294493830188
 20
295.2846654997825908
 30
0.0
 40
0.0402243397345427
 50
353.4102987004476972
 51
14.9404171225974007
  0
ARC
  5
98A4
  8
0
 10
3325.2643210201140391
 20
295.2865035233837148
 30
0.0
 40
0.0513393716794718
 50
313.6404987210029844
 51
352.7779709649028064
  0
ARC
  5
98A5
  8
0
 10
3325.2476221283691302
 20
295.3121304268835274
 30
0.0
 40
0.081602046088254
 50
272.5050951739377751
 51
309.7045951718719152
  0
ARC
  5
98A6
  8
0
 10
3325.2510824790538209
 20
295.2659435182329162
 30
0.0
 40
0.0230238032153533
 50
43.5715473834451075
 51
89.7353912229375652
  0
ARC
  5
98A7
  8
0
 10
3325.2581044893640865
 20
295.2734833645948811
 30
0.0
 40
0.0127545550090622
 50
335.0844536527113178
 51
40.7729901623509008
  0
ARC
  5
98A8
  8
0
 10
3325.250926556605009
 20
295.280257184511413
 30
0.0
 40
0.0223370169678612
 50
270.6727094438173822
 51
327.0566498421795245
  0
ARC
  5
98A9
  8
0
 10
3325.2520029505681123
 20
295.2990184981318862
 30
0.0
 40
0.072769019930687
 50
90.6410396539869083
 51
142.348646213056611
  0
ARC
  5
98AA
  8
0
 10
3325.2406331928141299
 20
295.3105526873504232
 30
0.0
 40
0.0567635222377504
 50
144.5565314423432994
 51
186.6225824968333029
  0
LINE
  5
98AB
  8
0
 10
3325.1842484315789079
 20
295.3040062259154865
 30
0.0
 11
3325.1871245309471306
 21
295.2800494111251055
 31
0.0
  0
ARC
  5
98AC
  8
0
 10
3325.2540274654229506
 20
295.2501234042240981
 30
0.0
 40
0.0853188157580601
 50
91.9066489761305405
 51
125.2459776787329986
  0
ARC
  5
98AD
  8
0
 10
3325.2345089151290267
 20
295.2819878247079828
 30
0.0
 40
0.048094144815246
 50
128.1637464582900066
 51
164.2581771271746902
  0
ARC
  5
98AE
  8
0
 10
3325.2270831249238654
 20
295.2846654997825908
 30
0.0
 40
0.0402243397345427
 50
165.0595828774025904
 51
186.5897012995523028
  0
ARC
  5
98AF
  8
0
 10
3325.2380565986400143
 20
295.2865035233837148
 30
0.0
 40
0.0513393716794718
 50
187.222029035095602
 51
226.3595012789969019
  0
ARC
  5
98B0
  8
0
 10
3325.2547554903858327
 20
295.3121304268835274
 30
0.0
 40
0.081602046088254
 50
230.2954048281279995
 51
267.4949048260621112
  0
ARC
  5
98B1
  8
0
 10
3325.2512951396997778
 20
295.2659435182329162
 30
0.0
 40
0.0230238032153533
 50
90.2646087770624348
 51
136.4284526165548925
  0
ARC
  5
98B2
  8
0
 10
3325.2442731293899669
 20
295.2734833645948811
 30
0.0
 40
0.0127545550090622
 50
139.2270098376490921
 51
204.9155463472887106
  0
ARC
  5
98B3
  8
0
 10
3325.2514510621499539
 20
295.280257184511413
 30
0.0
 40
0.0223370169678612
 50
212.9433501578203902
 51
269.3272905561826178
  0
ARC
  5
98B4
  8
0
 10
3325.4166820373911833
 20
295.467277441650424
 30
0.0
 40
0.072769019930687
 50
37.6513537869433819
 51
89.3589603460130775
  0
ARC
  5
98B5
  8
0
 10
3325.4280517951451657
 20
295.4788116308689041
 30
0.0
 40
0.0567635222377504
 50
353.3774175031667255
 51
35.4434685576567432
  0
LINE
  5
98B6
  8
0
 10
3325.4844365563799329
 20
295.4722651694339106
 30
0.0
 11
3325.4815604570108007
 21
295.4483083546435864
 31
0.0
  0
ARC
  5
98B7
  8
0
 10
3325.4146575225358902
 20
295.418382347742579
 30
0.0
 40
0.0853188157580601
 50
54.754022321266973
 51
88.0933510238694737
  0
ARC
  5
98B8
  8
0
 10
3325.4341760728311783
 20
295.4502467682265205
 30
0.0
 40
0.048094144815246
 50
15.7418228728252707
 51
51.8362535417099508
  0
ARC
  5
98B9
  8
0
 10
3325.4416018630349754
 20
295.4529244433010717
 30
0.0
 40
0.0402243397345427
 50
353.4102987004476972
 51
14.9404171225974007
  0
ARC
  5
98BA
  8
0
 10
3325.4306283893188265
 20
295.4547624669021957
 30
0.0
 40
0.0513393716794718
 50
313.6404987210029844
 51
352.7779709649028064
  0
ARC
  5
98BB
  8
0
 10
3325.4139294975739176
 20
295.4803893704018947
 30
0.0
 40
0.081602046088254
 50
272.5050951739377751
 51
309.7045951718719152
  0
ARC
  5
98BC
  8
0
 10
3325.4173898482581535
 20
295.4342024617513971
 30
0.0
 40
0.0230238032153533
 50
43.5715473834451075
 51
89.7353912229375652
  0
ARC
  5
98BD
  8
0
 10
3325.4244118585697834
 20
295.4417423081133052
 30
0.0
 40
0.0127545550090622
 50
335.0844536527113178
 51
40.7729901623509008
  0
ARC
  5
98BE
  8
0
 10
3325.4172339258088869
 20
295.4485161280298939
 30
0.0
 40
0.0223370169678612
 50
270.6727094438173822
 51
327.0566498421795245
  0
ARC
  5
98BF
  8
0
 10
3325.4183103197719902
 20
295.467277441650424
 30
0.0
 40
0.072769019930687
 50
90.6410396539869083
 51
142.348646213056611
  0
ARC
  5
98C0
  8
0
 10
3325.4069405620189173
 20
295.4788116308689041
 30
0.0
 40
0.0567635222377504
 50
144.5565314423432994
 51
186.6225824968333029
  0
LINE
  5
98C1
  8
0
 10
3325.3505558007841501
 20
295.4722651694339106
 30
0.0
 11
3325.3534319001528274
 21
295.4483083546435864
 31
0.0
  0
ARC
  5
98C2
  8
0
 10
3325.4203348346281928
 20
295.418382347742579
 30
0.0
 40
0.0853188157580601
 50
91.9066489761305405
 51
125.2459776787329986
  0
ARC
  5
98C3
  8
0
 10
3325.4008162843329046
 20
295.4502467682265205
 30
0.0
 40
0.048094144815246
 50
128.1637464582900066
 51
164.2581771271746902
  0
ARC
  5
98C4
  8
0
 10
3325.3933904941291075
 20
295.4529244433010717
 30
0.0
 40
0.0402243397345427
 50
165.0595828774025904
 51
186.5897012995523028
  0
ARC
  5
98C5
  8
0
 10
3325.4043639678448017
 20
295.4547624669021957
 30
0.0
 40
0.0513393716794718
 50
187.222029035095602
 51
226.3595012789969019
  0
ARC
  5
98C6
  8
0
 10
3325.4210628595901653
 20
295.4803893704018947
 30
0.0
 40
0.081602046088254
 50
230.2954048281279995
 51
267.4949048260621112
  0
ARC
  5
98C7
  8
0
 10
3325.4176025089050199
 20
295.4342024617513971
 30
0.0
 40
0.0230238032153533
 50
90.2646087770624348
 51
136.4284526165548925
  0
ARC
  5
98C8
  8
0
 10
3325.4105804985938448
 20
295.4417423081133052
 30
0.0
 40
0.0127545550090622
 50
139.2270098376490921
 51
204.9155463472887106
  0
ARC
  5
98C9
  8
0
 10
3325.4177584313551961
 20
295.4485161280298939
 30
0.0
 40
0.0223370169678612
 50
212.9433501578203902
 51
269.3272905561826178
  0
ARC
  5
98CA
  8
0
 10
3324.8704729187211342
 20
294.5960032768454084
 30
0.0
 40
0.072769019930687
 50
37.6513537869433819
 51
89.3589603460130775
  0
ARC
  5
98CB
  8
0
 10
3324.8818426764751166
 20
294.6075374660638886
 30
0.0
 40
0.0567635222377504
 50
353.3774175031667255
 51
35.4434685576567432
  0
LINE
  5
98CC
  8
0
 10
3324.9382274377098838
 20
294.6009910046288951
 30
0.0
 11
3324.9353513383412064
 21
294.5770341898386278
 31
0.0
  0
ARC
  5
98CD
  8
0
 10
3324.8684484038649316
 20
294.5471081829376772
 30
0.0
 40
0.0853188157580601
 50
54.754022321266973
 51
88.0933510238694737
  0
ARC
  5
98CE
  8
0
 10
3324.8879669541602198
 20
294.5789726034216187
 30
0.0
 40
0.048094144815246
 50
15.7418228728252707
 51
51.8362535417099508
  0
ARC
  5
98CF
  8
0
 10
3324.8953927443649263
 20
294.5816502784961131
 30
0.0
 40
0.0402243397345427
 50
353.4102987004476972
 51
14.9404171225974007
  0
ARC
  5
98D0
  8
0
 10
3324.8844192706487775
 20
294.5834883020971802
 30
0.0
 40
0.0513393716794718
 50
313.6404987210029844
 51
352.7779709649028064
  0
ARC
  5
98D1
  8
0
 10
3324.8677203789029591
 20
294.6091152055969928
 30
0.0
 40
0.081602046088254
 50
272.5050951739377751
 51
309.7045951718719152
  0
ARC
  5
98D2
  8
0
 10
3324.8711807295881044
 20
294.5629282969464953
 30
0.0
 40
0.0230238032153533
 50
43.5715473834451075
 51
89.7353912229375652
  0
ARC
  5
98D3
  8
0
 10
3324.8782027398988248
 20
294.5704681433082897
 30
0.0
 40
0.0127545550090622
 50
335.0844536527113178
 51
40.7729901623509008
  0
ARC
  5
98D4
  8
0
 10
3324.8710248071388378
 20
294.5772419632248784
 30
0.0
 40
0.0223370169678612
 50
270.6727094438173822
 51
327.0566498421795245
  0
ARC
  5
98D5
  8
0
 10
3324.8721012011019411
 20
294.5960032768454084
 30
0.0
 40
0.072769019930687
 50
90.6410396539869083
 51
142.348646213056611
  0
ARC
  5
98D6
  8
0
 10
3324.8607314433479587
 20
294.6075374660638886
 30
0.0
 40
0.0567635222377504
 50
144.5565314423432994
 51
186.6225824968333029
  0
LINE
  5
98D7
  8
0
 10
3324.8043466821131915
 20
294.6009910046288951
 30
0.0
 11
3324.8072227814818689
 21
294.5770341898386278
 31
0.0
  0
ARC
  5
98D8
  8
0
 10
3324.8741257159567795
 20
294.5471081829376772
 30
0.0
 40
0.0853188157580601
 50
91.9066489761305405
 51
125.2459776787329986
  0
ARC
  5
98D9
  8
0
 10
3324.8546071656628556
 20
294.5789726034216187
 30
0.0
 40
0.048094144815246
 50
128.1637464582900066
 51
164.2581771271746902
  0
ARC
  5
98DA
  8
0
 10
3324.8471813754590585
 20
294.5816502784961131
 30
0.0
 40
0.0402243397345427
 50
165.0595828774025904
 51
186.5897012995523028
  0
ARC
  5
98DB
  8
0
 10
3324.8581548491738431
 20
294.5834883020971802
 30
0.0
 40
0.0513393716794718
 50
187.222029035095602
 51
226.3595012789969019
  0
ARC
  5
98DC
  8
0
 10
3324.8748537409201163
 20
294.6091152055969928
 30
0.0
 40
0.081602046088254
 50
230.2954048281279995
 51
267.4949048260621112
  0
ARC
  5
98DD
  8
0
 10
3324.8713933902340614
 20
294.5629282969464953
 30
0.0
 40
0.0230238032153533
 50
90.2646087770624348
 51
136.4284526165548925
  0
ARC
  5
98DE
  8
0
 10
3324.8643713799237958
 20
294.5704681433082897
 30
0.0
 40
0.0127545550090622
 50
139.2270098376490921
 51
204.9155463472887106
  0
ARC
  5
98DF
  8
0
 10
3324.8715493126837828
 20
294.5772419632248784
 30
0.0
 40
0.0223370169678612
 50
212.9433501578203902
 51
269.3272905561826178
  0
ARC
  5
98E0
  8
0
 10
3325.1022523695569362
 20
294.7539393818490794
 30
0.0
 40
0.072769019930687
 50
37.6513537869433819
 51
89.3589603460130775
  0
ARC
  5
98E1
  8
0
 10
3325.1136221273109186
 20
294.7654735710676732
 30
0.0
 40
0.0567635222377504
 50
353.3774175031667255
 51
35.4434685576567432
  0
LINE
  5
98E2
  8
0
 10
3325.17000688854705
 20
294.7589271096326797
 30
0.0
 11
3325.1671307891770084
 21
294.7349702948422987
 31
0.0
  0
ARC
  5
98E3
  8
0
 10
3325.1002278547020978
 20
294.7050442879414049
 30
0.0
 40
0.0853188157580601
 50
54.754022321266973
 51
88.0933510238694737
  0
ARC
  5
98E4
  8
0
 10
3325.1197464049969312
 20
294.7369087084252897
 30
0.0
 40
0.048094144815246
 50
15.7418228728252707
 51
51.8362535417099508
  0
ARC
  5
98E5
  8
0
 10
3325.1271721952011831
 20
294.739586383499784
 30
0.0
 40
0.0402243397345427
 50
353.4102987004476972
 51
14.9404171225974007
  0
ARC
  5
98E6
  8
0
 10
3325.1161987214850342
 20
294.7414244071010216
 30
0.0
 40
0.0513393716794718
 50
313.6404987210029844
 51
352.7779709649028064
  0
ARC
  5
98E7
  8
0
 10
3325.0994998297401253
 20
294.7670513106007206
 30
0.0
 40
0.081602046088254
 50
272.5050951739377751
 51
309.7045951718719152
  0
ARC
  5
98E8
  8
0
 10
3325.1029601804248159
 20
294.7208644019502231
 30
0.0
 40
0.0230238032153533
 50
43.5715473834451075
 51
89.7353912229375652
  0
ARC
  5
98E9
  8
0
 10
3325.1099821907350815
 20
294.7284042483120743
 30
0.0
 40
0.0127545550090622
 50
335.0844536527113178
 51
40.7729901623509008
  0
ARC
  5
98EA
  8
0
 10
3325.1028042579750945
 20
294.7351780682287199
 30
0.0
 40
0.0223370169678612
 50
270.6727094438173822
 51
327.0566498421795245
  0
ARC
  5
98EB
  8
0
 10
3325.1038806519391073
 20
294.7539393818490794
 30
0.0
 40
0.072769019930687
 50
90.6410396539869083
 51
142.348646213056611
  0
ARC
  5
98EC
  8
0
 10
3325.0925108941851249
 20
294.7654735710676732
 30
0.0
 40
0.0567635222377504
 50
144.5565314423432994
 51
186.6225824968333029
  0
LINE
  5
98ED
  8
0
 10
3325.036126132949903
 20
294.7589271096326797
 30
0.0
 11
3325.0390022323190351
 21
294.7349702948422987
 31
0.0
  0
ARC
  5
98EE
  8
0
 10
3325.1059051667939457
 20
294.7050442879414049
 30
0.0
 40
0.0853188157580601
 50
91.9066489761305405
 51
125.2459776787329986
  0
ARC
  5
98EF
  8
0
 10
3325.0863866164991123
 20
294.7369087084252897
 30
0.0
 40
0.048094144815246
 50
128.1637464582900066
 51
164.2581771271746902
  0
ARC
  5
98F0
  8
0
 10
3325.0789608262962247
 20
294.739586383499784
 30
0.0
 40
0.0402243397345427
 50
165.0595828774025904
 51
186.5897012995523028
  0
ARC
  5
98F1
  8
0
 10
3325.0899343000110093
 20
294.7414244071010216
 30
0.0
 40
0.0513393716794718
 50
187.222029035095602
 51
226.3595012789969019
  0
ARC
  5
98F2
  8
0
 10
3325.1066331917559182
 20
294.7670513106007206
 30
0.0
 40
0.081602046088254
 50
230.2954048281279995
 51
267.4949048260621112
  0
ARC
  5
98F3
  8
0
 10
3325.1031728410721371
 20
294.7208644019502231
 30
0.0
 40
0.0230238032153533
 50
90.2646087770624348
 51
136.4284526165548925
  0
ARC
  5
98F4
  8
0
 10
3325.096150830760962
 20
294.7284042483120743
 30
0.0
 40
0.0127545550090622
 50
139.2270098376490921
 51
204.9155463472887106
  0
ARC
  5
98F5
  8
0
 10
3325.1033287635200395
 20
294.7351780682287199
 30
0.0
 40
0.0223370169678612
 50
212.9433501578203902
 51
269.3272905561826178
  0
ARC
  5
98F6
  8
0
 10
3325.3340318203941024
 20
294.8293977214015058
 30
0.0
 40
0.072769019930687
 50
37.6513537869433819
 51
89.3589603460130775
  0
ARC
  5
98F7
  8
0
 10
3325.3454015781480848
 20
294.8409319106198723
 30
0.0
 40
0.0567635222377504
 50
353.3774175031667255
 51
35.4434685576567432
  0
LINE
  5
98F8
  8
0
 10
3325.401786339382852
 20
294.8343854491849925
 30
0.0
 11
3325.3989102400141746
 21
294.8104286343946114
 31
0.0
  0
ARC
  5
98F9
  8
0
 10
3325.3320073055388093
 20
294.7805026274937745
 30
0.0
 40
0.0853188157580601
 50
54.754022321266973
 51
88.0933510238694737
  0
ARC
  5
98FA
  8
0
 10
3325.351525855833188
 20
294.8123670479776024
 30
0.0
 40
0.048094144815246
 50
15.7418228728252707
 51
51.8362535417099508
  0
ARC
  5
98FB
  8
0
 10
3325.3589516460378945
 20
294.8150447230520967
 30
0.0
 40
0.0402243397345427
 50
353.4102987004476972
 51
14.9404171225974007
  0
ARC
  5
98FC
  8
0
 10
3325.3479781723222004
 20
294.8168827466532775
 30
0.0
 40
0.0513393716794718
 50
313.6404987210029844
 51
352.7779709649028064
  0
ARC
  5
98FD
  8
0
 10
3325.3312792805759273
 20
294.8425096501529765
 30
0.0
 40
0.081602046088254
 50
272.5050951739377751
 51
309.7045951718719152
  0
ARC
  5
98FE
  8
0
 10
3325.3347396312610726
 20
294.7963227415024789
 30
0.0
 40
0.0230238032153533
 50
43.5715473834451075
 51
89.7353912229375652
  0
ARC
  5
98FF
  8
0
 10
3325.341761641571793
 20
294.803862587864387
 30
0.0
 40
0.0127545550090622
 50
335.0844536527113178
 51
40.7729901623509008
  0
ARC
  5
9900
  8
0
 10
3325.334583708811806
 20
294.8106364077809758
 30
0.0
 40
0.0223370169678612
 50
270.6727094438173822
 51
327.0566498421795245
  0
ARC
  5
9901
  8
0
 10
3325.3356601027749093
 20
294.8293977214015058
 30
0.0
 40
0.072769019930687
 50
90.6410396539869083
 51
142.348646213056611
  0
ARC
  5
9902
  8
0
 10
3325.3242903450209269
 20
294.8409319106198723
 30
0.0
 40
0.0567635222377504
 50
144.5565314423432994
 51
186.6225824968333029
  0
LINE
  5
9903
  8
0
 10
3325.2679055837861597
 20
294.8343854491849925
 30
0.0
 11
3325.2707816831548371
 21
294.8104286343946114
 31
0.0
  0
ARC
  5
9904
  8
0
 10
3325.3376846176302024
 20
294.7805026274937745
 30
0.0
 40
0.0853188157580601
 50
91.9066489761305405
 51
125.2459776787329986
  0
ARC
  5
9905
  8
0
 10
3325.3181660673358238
 20
294.8123670479776024
 30
0.0
 40
0.048094144815246
 50
128.1637464582900066
 51
164.2581771271746902
  0
ARC
  5
9906
  8
0
 10
3325.3107402771320267
 20
294.8150447230520967
 30
0.0
 40
0.0402243397345427
 50
165.0595828774025904
 51
186.5897012995523028
  0
ARC
  5
9907
  8
0
 10
3325.3217137508468113
 20
294.8168827466532775
 30
0.0
 40
0.0513393716794718
 50
187.222029035095602
 51
226.3595012789969019
  0
ARC
  5
9908
  8
0
 10
3325.3384126425930845
 20
294.8425096501529765
 30
0.0
 40
0.081602046088254
 50
230.2954048281279995
 51
267.4949048260621112
  0
ARC
  5
9909
  8
0
 10
3325.3349522919070296
 20
294.7963227415024789
 30
0.0
 40
0.0230238032153533
 50
90.2646087770624348
 51
136.4284526165548925
  0
ARC
  5
990A
  8
0
 10
3325.3279302815972187
 20
294.803862587864387
 30
0.0
 40
0.0127545550090622
 50
139.2270098376490921
 51
204.9155463472887106
  0
ARC
  5
990B
  8
0
 10
3325.3351082143572057
 20
294.8106364077809758
 30
0.0
 40
0.0223370169678612
 50
212.9433501578203902
 51
269.3272905561826178
  0
ARC
  5
990C
  8
0
 10
3325.4446537673447892
 20
295.1207020059438264
 30
0.0
 40
0.072769019930687
 50
37.6513537869433819
 51
89.3589603460130775
  0
ARC
  5
990D
  8
0
 10
3325.4560235250992264
 20
295.1322361951623066
 30
0.0
 40
0.0567635222377504
 50
353.3774175031667255
 51
35.4434685576567432
  0
LINE
  5
990E
  8
0
 10
3325.5124082863330841
 20
295.1256897337274268
 30
0.0
 11
3325.5095321869648615
 21
295.1017329189371026
 31
0.0
  0
ARC
  5
990F
  8
0
 10
3325.4426292524899509
 20
295.0718069120360951
 30
0.0
 40
0.0853188157580601
 50
54.754022321266973
 51
88.0933510238694737
  0
ARC
  5
9910
  8
0
 10
3325.4621478027847843
 20
295.1036713325199798
 30
0.0
 40
0.048094144815246
 50
15.7418228728252707
 51
51.8362535417099508
  0
ARC
  5
9911
  8
0
 10
3325.4695735929881266
 20
295.1063490075944742
 30
0.0
 40
0.0402243397345427
 50
353.4102987004476972
 51
14.9404171225974007
  0
ARC
  5
9912
  8
0
 10
3325.4586001192728872
 20
295.1081870311957118
 30
0.0
 40
0.0513393716794718
 50
313.6404987210029844
 51
352.7779709649028064
  0
ARC
  5
9913
  8
0
 10
3325.4419012275270688
 20
295.1338139346954108
 30
0.0
 40
0.081602046088254
 50
272.5050951739377751
 51
309.7045951718719152
  0
ARC
  5
9914
  8
0
 10
3325.4453615782131237
 20
295.0876270260449132
 30
0.0
 40
0.0230238032153533
 50
43.5715473834451075
 51
89.7353912229375652
  0
ARC
  5
9915
  8
0
 10
3325.4523835885229346
 20
295.0951668724067076
 30
0.0
 40
0.0127545550090622
 50
335.0844536527113178
 51
40.7729901623509008
  0
ARC
  5
9916
  8
0
 10
3325.4452056557629476
 20
295.1019406923232964
 30
0.0
 40
0.0223370169678612
 50
270.6727094438173822
 51
327.0566498421795245
  0
ARC
  5
9917
  8
0
 10
3325.4462820497260509
 20
295.1207020059438264
 30
0.0
 40
0.072769019930687
 50
90.6410396539869083
 51
142.348646213056611
  0
ARC
  5
9918
  8
0
 10
3325.4349122919720685
 20
295.1322361951623066
 30
0.0
 40
0.0567635222377504
 50
144.5565314423432994
 51
186.6225824968333029
  0
LINE
  5
9919
  8
0
 10
3325.3785275307368465
 20
295.1256897337274268
 30
0.0
 11
3325.3814036301059787
 21
295.1017329189371026
 31
0.0
  0
ARC
  5
991A
  8
0
 10
3325.4483065645808892
 20
295.0718069120360951
 30
0.0
 40
0.0853188157580601
 50
91.9066489761305405
 51
125.2459776787329986
  0
ARC
  5
991B
  8
0
 10
3325.4287880142869653
 20
295.1036713325199798
 30
0.0
 40
0.048094144815246
 50
128.1637464582900066
 51
164.2581771271746902
  0
ARC
  5
991C
  8
0
 10
3325.4213622240831683
 20
295.1063490075944742
 30
0.0
 40
0.0402243397345427
 50
165.0595828774025904
 51
186.5897012995523028
  0
ARC
  5
991D
  8
0
 10
3325.4323356977988624
 20
295.1081870311957118
 30
0.0
 40
0.0513393716794718
 50
187.222029035095602
 51
226.3595012789969019
  0
ARC
  5
991E
  8
0
 10
3325.449034589544226
 20
295.1338139346954108
 30
0.0
 40
0.081602046088254
 50
230.2954048281279995
 51
267.4949048260621112
  0
ARC
  5
991F
  8
0
 10
3325.4455742388590807
 20
295.0876270260449132
 30
0.0
 40
0.0230238032153533
 50
90.2646087770624348
 51
136.4284526165548925
  0
ARC
  5
9920
  8
0
 10
3325.4385522285479055
 20
295.0951668724067076
 30
0.0
 40
0.0127545550090622
 50
139.2270098376490921
 51
204.9155463472887106
  0
ARC
  5
9921
  8
0
 10
3325.4457301613078926
 20
295.1019406923232964
 30
0.0
 40
0.0223370169678612
 50
212.9433501578203902
 51
269.3272905561826178
  0
ARC
  5
9922
  8
0
 10
3325.6483387732519077
 20
295.2505605377145912
 30
0.0
 40
0.072769019930687
 50
37.6513537869433819
 51
89.3589603460130775
  0
ARC
  5
9923
  8
0
 10
3325.6597085310058901
 20
295.2620947269331282
 30
0.0
 40
0.0567635222377504
 50
353.3774175031667255
 51
35.4434685576567432
  0
LINE
  5
9924
  8
0
 10
3325.7160932922411121
 20
295.2555482654981915
 30
0.0
 11
3325.7132171928719799
 21
295.2315914507078105
 31
0.0
  0
ARC
  5
9925
  8
0
 10
3325.6463142583970694
 20
295.2016654438068031
 30
0.0
 40
0.0853188157580601
 50
54.754022321266973
 51
88.0933510238694737
  0
ARC
  5
9926
  8
0
 10
3325.6658328086919028
 20
295.2335298642906878
 30
0.0
 40
0.048094144815246
 50
15.7418228728252707
 51
51.8362535417099508
  0
ARC
  5
9927
  8
0
 10
3325.6732585988961546
 20
295.2362075393652958
 30
0.0
 40
0.0402243397345427
 50
353.4102987004476972
 51
14.9404171225974007
  0
ARC
  5
9928
  8
0
 10
3325.6622851251800057
 20
295.2380455629664198
 30
0.0
 40
0.0513393716794718
 50
313.6404987210029844
 51
352.7779709649028064
  0
ARC
  5
9929
  8
0
 10
3325.6455862334350968
 20
295.2636724664661756
 30
0.0
 40
0.081602046088254
 50
272.5050951739377751
 51
309.7045951718719152
  0
ARC
  5
992A
  8
0
 10
3325.6490465841197874
 20
295.2174855578156212
 30
0.0
 40
0.0230238032153533
 50
43.5715473834451075
 51
89.7353912229375652
  0
ARC
  5
992B
  8
0
 10
3325.6560685944300531
 20
295.2250254041775861
 30
0.0
 40
0.0127545550090622
 50
335.0844536527113178
 51
40.7729901623509008
  0
ARC
  5
992C
  8
0
 10
3325.648890661670066
 20
295.231799224094118
 30
0.0
 40
0.0223370169678612
 50
270.6727094438173822
 51
327.0566498421795245
  0
ARC
  5
992D
  8
0
 10
3325.6499670556340789
 20
295.2505605377145912
 30
0.0
 40
0.072769019930687
 50
90.6410396539869083
 51
142.348646213056611
  0
ARC
  5
992E
  8
0
 10
3325.6385972978800964
 20
295.2620947269331282
 30
0.0
 40
0.0567635222377504
 50
144.5565314423432994
 51
186.6225824968333029
  0
LINE
  5
992F
  8
0
 10
3325.582212536643965
 20
295.2555482654981915
 30
0.0
 11
3325.5850886360140066
 21
295.2315914507078105
 31
0.0
  0
ARC
  5
9930
  8
0
 10
3325.6519915704889172
 20
295.2016654438068031
 30
0.0
 40
0.0853188157580601
 50
91.9066489761305405
 51
125.2459776787329986
  0
ARC
  5
9931
  8
0
 10
3325.6324730201940838
 20
295.2335298642906878
 30
0.0
 40
0.048094144815246
 50
128.1637464582900066
 51
164.2581771271746902
  0
ARC
  5
9932
  8
0
 10
3325.625047229989832
 20
295.2362075393652958
 30
0.0
 40
0.0402243397345427
 50
165.0595828774025904
 51
186.5897012995523028
  0
ARC
  5
9933
  8
0
 10
3325.6360207037059808
 20
295.2380455629664198
 30
0.0
 40
0.0513393716794718
 50
187.222029035095602
 51
226.3595012789969019
  0
ARC
  5
9934
  8
0
 10
3325.6527195954508898
 20
295.2636724664661756
 30
0.0
 40
0.081602046088254
 50
230.2954048281279995
 51
267.4949048260621112
  0
ARC
  5
9935
  8
0
 10
3325.6492592447661991
 20
295.2174855578156212
 30
0.0
 40
0.0230238032153533
 50
90.2646087770624348
 51
136.4284526165548925
  0
ARC
  5
9936
  8
0
 10
3325.642237234455024
 20
295.2250254041775861
 30
0.0
 40
0.0127545550090622
 50
139.2270098376490921
 51
204.9155463472887106
  0
ARC
  5
9937
  8
0
 10
3325.6494151672159205
 20
295.231799224094118
 30
0.0
 40
0.0223370169678612
 50
212.9433501578203902
 51
269.3272905561826178
  0
ARC
  5
9938
  8
0
 10
3325.7940790565357929
 20
295.0066371498551803
 30
0.0
 40
0.072769019930687
 50
37.6513537869433819
 51
89.3589603460130775
  0
ARC
  5
9939
  8
0
 10
3325.8054488142897753
 20
295.0181713390737173
 30
0.0
 40
0.0567635222377504
 50
353.3774175031667255
 51
35.4434685576567432
  0
LINE
  5
993A
  8
0
 10
3325.8618335755249973
 20
295.0116248776387238
 30
0.0
 11
3325.8589574761558652
 21
294.9876680628483996
 31
0.0
  0
ARC
  5
993B
  8
0
 10
3325.7920545416809546
 20
294.9577420559473921
 30
0.0
 40
0.0853188157580601
 50
54.754022321266973
 51
88.0933510238694737
  0
ARC
  5
993C
  8
0
 10
3325.8115730919748785
 20
294.9896064764312769
 30
0.0
 40
0.048094144815246
 50
15.7418228728252707
 51
51.8362535417099508
  0
ARC
  5
993D
  8
0
 10
3325.8189988821791303
 20
294.992284151505828
 30
0.0
 40
0.0402243397345427
 50
353.4102987004476972
 51
14.9404171225974007
  0
ARC
  5
993E
  8
0
 10
3325.8080254084629814
 20
294.9941221751070088
 30
0.0
 40
0.0513393716794718
 50
313.6404987210029844
 51
352.7779709649028064
  0
ARC
  5
993F
  8
0
 10
3325.7913265167180725
 20
295.0197490786067078
 30
0.0
 40
0.081602046088254
 50
272.5050951739377751
 51
309.7045951718719152
  0
ARC
  5
9940
  8
0
 10
3325.7947868674032179
 20
294.9735621699560966
 30
0.0
 40
0.0230238032153533
 50
43.5715473834451075
 51
89.7353912229375652
  0
ARC
  5
9941
  8
0
 10
3325.8018088777139383
 20
294.9811020163181183
 30
0.0
 40
0.0127545550090622
 50
335.0844536527113178
 51
40.7729901623509008
  0
ARC
  5
9942
  8
0
 10
3325.7946309449539513
 20
294.9878758362347071
 30
0.0
 40
0.0223370169678612
 50
270.6727094438173822
 51
327.0566498421795245
  0
ARC
  5
9943
  8
0
 10
3325.7957073389170546
 20
295.0066371498551803
 30
0.0
 40
0.072769019930687
 50
90.6410396539869083
 51
142.348646213056611
  0
ARC
  5
9944
  8
0
 10
3325.7843375811630722
 20
295.0181713390737173
 30
0.0
 40
0.0567635222377504
 50
144.5565314423432994
 51
186.6225824968333029
  0
LINE
  5
9945
  8
0
 10
3325.7279528199278502
 20
295.0116248776387238
 30
0.0
 11
3325.7308289192969823
 21
294.9876680628483996
 31
0.0
  0
ARC
  5
9946
  8
0
 10
3325.7977318537728024
 20
294.9577420559473921
 30
0.0
 40
0.0853188157580601
 50
91.9066489761305405
 51
125.2459776787329986
  0
ARC
  5
9947
  8
0
 10
3325.778213303477969
 20
294.9896064764312769
 30
0.0
 40
0.048094144815246
 50
128.1637464582900066
 51
164.2581771271746902
  0
ARC
  5
9948
  8
0
 10
3325.7707875132741719
 20
294.992284151505828
 30
0.0
 40
0.0402243397345427
 50
165.0595828774025904
 51
186.5897012995523028
  0
ARC
  5
9949
  8
0
 10
3325.7817609869898661
 20
294.9941221751070088
 30
0.0
 40
0.0513393716794718
 50
187.222029035095602
 51
226.3595012789969019
  0
ARC
  5
994A
  8
0
 10
3325.798459878734775
 20
295.0197490786067078
 30
0.0
 40
0.081602046088254
 50
230.2954048281279995
 51
267.4949048260621112
  0
ARC
  5
994B
  8
0
 10
3325.7949995280500843
 20
294.9735621699560966
 30
0.0
 40
0.0230238032153533
 50
90.2646087770624348
 51
136.4284526165548925
  0
ARC
  5
994C
  8
0
 10
3325.7879775177398187
 20
294.9811020163181183
 30
0.0
 40
0.0127545550090622
 50
139.2270098376490921
 51
204.9155463472887106
  0
ARC
  5
994D
  8
0
 10
3325.7951554504988962
 20
294.9878758362347071
 30
0.0
 40
0.0223370169678612
 50
212.9433501578203902
 51
269.3272905561826178
  0
ARC
  5
994E
  8
0
 10
3325.5605434927629176
 20
294.915385134620692
 30
0.0
 40
0.072769019930687
 50
37.6513537869433819
 51
89.3589603460130775
  0
ARC
  5
994F
  8
0
 10
3325.5719132505169
 20
294.9269193238392859
 30
0.0
 40
0.0567635222377504
 50
353.3774175031667255
 51
35.4434685576567432
  0
LINE
  5
9950
  8
0
 10
3325.628298011752122
 20
294.9203728624042924
 30
0.0
 11
3325.6254219123829898
 21
294.8964160476139114
 31
0.0
  0
ARC
  5
9951
  8
0
 10
3325.5585189779080793
 20
294.8664900407130176
 30
0.0
 40
0.0853188157580601
 50
54.754022321266973
 51
88.0933510238694737
  0
ARC
  5
9952
  8
0
 10
3325.5780375282020032
 20
294.8983544611967886
 30
0.0
 40
0.048094144815246
 50
15.7418228728252707
 51
51.8362535417099508
  0
ARC
  5
9953
  8
0
 10
3325.5854633184058002
 20
294.9010321362713967
 30
0.0
 40
0.0402243397345427
 50
353.4102987004476972
 51
14.9404171225974007
  0
ARC
  5
9954
  8
0
 10
3325.5744898446910156
 20
294.9028701598725206
 30
0.0
 40
0.0513393716794718
 50
313.6404987210029844
 51
352.7779709649028064
  0
ARC
  5
9955
  8
0
 10
3325.5577909529451972
 20
294.9284970633722764
 30
0.0
 40
0.081602046088254
 50
272.5050951739377751
 51
309.7045951718719152
  0
ARC
  5
9956
  8
0
 10
3325.5612513036307973
 20
294.882310154721722
 30
0.0
 40
0.0230238032153533
 50
43.5715473834451075
 51
89.7353912229375652
  0
ARC
  5
9957
  8
0
 10
3325.568273313941063
 20
294.8898500010836869
 30
0.0
 40
0.0127545550090622
 50
335.0844536527113178
 51
40.7729901623509008
  0
ARC
  5
9958
  8
0
 10
3325.5610953811810759
 20
294.8966238210002189
 30
0.0
 40
0.0223370169678612
 50
270.6727094438173822
 51
327.0566498421795245
  0
ARC
  5
9959
  8
0
 10
3325.5621717751450888
 20
294.915385134620692
 30
0.0
 40
0.072769019930687
 50
90.6410396539869083
 51
142.348646213056611
  0
ARC
  5
995A
  8
0
 10
3325.5508020173911063
 20
294.9269193238392859
 30
0.0
 40
0.0567635222377504
 50
144.5565314423432994
 51
186.6225824968333029
  0
LINE
  5
995B
  8
0
 10
3325.4944172561558844
 20
294.9203728624042924
 30
0.0
 11
3325.4972933555250165
 21
294.8964160476139114
 31
0.0
  0
ARC
  5
995C
  8
0
 10
3325.5641962899990176
 20
294.8664900407130176
 30
0.0
 40
0.0853188157580601
 50
91.9066489761305405
 51
125.2459776787329986
  0
ARC
  5
995D
  8
0
 10
3325.5446777397050937
 20
294.8983544611967886
 30
0.0
 40
0.048094144815246
 50
128.1637464582900066
 51
164.2581771271746902
  0
ARC
  5
995E
  8
0
 10
3325.5372519495008419
 20
294.9010321362713967
 30
0.0
 40
0.0402243397345427
 50
165.0595828774025904
 51
186.5897012995523028
  0
ARC
  5
995F
  8
0
 10
3325.5482254232160813
 20
294.9028701598725206
 30
0.0
 40
0.0513393716794718
 50
187.222029035095602
 51
226.3595012789969019
  0
ARC
  5
9960
  8
0
 10
3325.5649243149618997
 20
294.9284970633722764
 30
0.0
 40
0.081602046088254
 50
230.2954048281279995
 51
267.4949048260621112
  0
ARC
  5
9961
  8
0
 10
3325.561463964277209
 20
294.882310154721722
 30
0.0
 40
0.0230238032153533
 50
90.2646087770624348
 51
136.4284526165548925
  0
ARC
  5
9962
  8
0
 10
3325.5544419539669434
 20
294.8898500010836869
 30
0.0
 40
0.0127545550090622
 50
139.2270098376490921
 51
204.9155463472887106
  0
ARC
  5
9963
  8
0
 10
3325.5616198867260209
 20
294.8966238210002189
 30
0.0
 40
0.0223370169678612
 50
212.9433501578203902
 51
269.3272905561826178
  0
ARC
  5
9964
  8
0
 10
3325.8432443351621259
 20
294.7451651320661767
 30
0.0
 40
0.072769019930687
 50
37.6513537869433819
 51
89.3589603460130775
  0
ARC
  5
9965
  8
0
 10
3325.8546140929161083
 20
294.7566993212846
 30
0.0
 40
0.0567635222377504
 50
353.3774175031667255
 51
35.4434685576567432
  0
LINE
  5
9966
  8
0
 10
3325.9109988541499661
 20
294.7501528598497202
 30
0.0
 11
3325.9081227547821982
 21
294.7261960450592824
 31
0.0
  0
ARC
  5
9967
  8
0
 10
3325.8412198203059233
 20
294.6962700381583886
 30
0.0
 40
0.0853188157580601
 50
54.754022321266973
 51
88.0933510238694737
  0
ARC
  5
9968
  8
0
 10
3325.860738370602121
 20
294.7281344586422733
 30
0.0
 40
0.048094144815246
 50
15.7418228728252707
 51
51.8362535417099508
  0
ARC
  5
9969
  8
0
 10
3325.8681641608050086
 20
294.7308121337168245
 30
0.0
 40
0.0402243397345427
 50
353.4102987004476972
 51
14.9404171225974007
  0
ARC
  5
996A
  8
0
 10
3325.8571906870902239
 20
294.7326501573178916
 30
0.0
 40
0.0513393716794718
 50
313.6404987210029844
 51
352.7779709649028064
  0
ARC
  5
996B
  8
0
 10
3325.8404917953439508
 20
294.7582770608177043
 30
0.0
 40
0.081602046088254
 50
272.5050951739377751
 51
309.7045951718719152
  0
ARC
  5
996C
  8
0
 10
3325.8439521460290962
 20
294.712090152167093
 30
0.0
 40
0.0230238032153533
 50
43.5715473834451075
 51
89.7353912229375652
  0
ARC
  5
996D
  8
0
 10
3325.8509741563398165
 20
294.7196299985291148
 30
0.0
 40
0.0127545550090622
 50
335.0844536527113178
 51
40.7729901623509008
  0
ARC
  5
996E
  8
0
 10
3325.8437962235798295
 20
294.7264038184457036
 30
0.0
 40
0.0223370169678612
 50
270.6727094438173822
 51
327.0566498421795245
  0
ARC
  5
996F
  8
0
 10
3325.8448726175438424
 20
294.7451651320661767
 30
0.0
 40
0.072769019930687
 50
90.6410396539869083
 51
142.348646213056611
  0
ARC
  5
9970
  8
0
 10
3325.8335028597889504
 20
294.7566993212846
 30
0.0
 40
0.0567635222377504
 50
144.5565314423432994
 51
186.6225824968333029
  0
LINE
  5
9971
  8
0
 10
3325.7771180985541832
 20
294.7501528598497202
 30
0.0
 11
3325.7799941979242249
 21
294.7261960450592824
 31
0.0
  0
ARC
  5
9972
  8
0
 10
3325.8468971323991354
 20
294.6962700381583886
 30
0.0
 40
0.0853188157580601
 50
91.9066489761305405
 51
125.2459776787329986
  0
ARC
  5
9973
  8
0
 10
3325.8273785821029378
 20
294.7281344586422733
 30
0.0
 40
0.048094144815246
 50
128.1637464582900066
 51
164.2581771271746902
  0
ARC
  5
9974
  8
0
 10
3325.8199527919000502
 20
294.7308121337168245
 30
0.0
 40
0.0402243397345427
 50
165.0595828774025904
 51
186.5897012995523028
  0
ARC
  5
9975
  8
0
 10
3325.8309262656161991
 20
294.7326501573178916
 30
0.0
 40
0.0513393716794718
 50
187.222029035095602
 51
226.3595012789969019
  0
ARC
  5
9976
  8
0
 10
3325.8476251573601985
 20
294.7582770608177043
 30
0.0
 40
0.081602046088254
 50
230.2954048281279995
 51
267.4949048260621112
  0
ARC
  5
9977
  8
0
 10
3325.8441648066759626
 20
294.712090152167093
 30
0.0
 40
0.0230238032153533
 50
90.2646087770624348
 51
136.4284526165548925
  0
ARC
  5
9978
  8
0
 10
3325.8371427963647875
 20
294.7196299985291148
 30
0.0
 40
0.0127545550090622
 50
139.2270098376490921
 51
204.9155463472887106
  0
ARC
  5
9979
  8
0
 10
3325.8443207291247745
 20
294.7264038184457036
 30
0.0
 40
0.0223370169678612
 50
212.9433501578203902
 51
269.3272905561826178
  0
ARC
  5
997A
  8
0
 10
3325.6061971058588824
 20
294.6942745876154959
 30
0.0
 40
0.072769019930687
 50
37.6513537869433819
 51
89.3589603460130775
  0
ARC
  5
997B
  8
0
 10
3325.6175668636128648
 20
294.7058087768339192
 30
0.0
 40
0.0567635222377504
 50
353.3774175031667255
 51
35.4434685576567432
  0
LINE
  5
997C
  8
0
 10
3325.6739516248471773
 20
294.6992623153989825
 30
0.0
 11
3325.6710755254789547
 21
294.6753055006086015
 31
0.0
  0
ARC
  5
997D
  8
0
 10
3325.6041725910031346
 20
294.6453794937077078
 30
0.0
 40
0.0853188157580601
 50
54.754022321266973
 51
88.0933510238694737
  0
ARC
  5
997E
  8
0
 10
3325.6236911412988775
 20
294.6772439141915925
 30
0.0
 40
0.048094144815246
 50
15.7418228728252707
 51
51.8362535417099508
  0
ARC
  5
997F
  8
0
 10
3325.6311169315022198
 20
294.6799215892660868
 30
0.0
 40
0.0402243397345427
 50
353.4102987004476972
 51
14.9404171225974007
  0
ARC
  5
9980
  8
0
 10
3325.6201434577860709
 20
294.6817596128673244
 30
0.0
 40
0.0513393716794718
 50
313.6404987210029844
 51
352.7779709649028064
  0
ARC
  5
9981
  8
0
 10
3325.6034445660397978
 20
294.7073865163670234
 30
0.0
 40
0.081602046088254
 50
272.5050951739377751
 51
309.7045951718719152
  0
ARC
  5
9982
  8
0
 10
3325.6069049167258527
 20
294.6611996077164122
 30
0.0
 40
0.0230238032153533
 50
43.5715473834451075
 51
89.7353912229375652
  0
ARC
  5
9983
  8
0
 10
3325.6139269270370278
 20
294.6687394540783771
 30
0.0
 40
0.0127545550090622
 50
335.0844536527113178
 51
40.7729901623509008
  0
ARC
  5
9984
  8
0
 10
3325.6067489942770408
 20
294.6755132739950227
 30
0.0
 40
0.0223370169678612
 50
270.6727094438173822
 51
327.0566498421795245
  0
ARC
  5
9985
  8
0
 10
3325.6078253882401441
 20
294.6942745876154959
 30
0.0
 40
0.072769019930687
 50
90.6410396539869083
 51
142.348646213056611
  0
ARC
  5
9986
  8
0
 10
3325.5964556304861617
 20
294.7058087768339192
 30
0.0
 40
0.0567635222377504
 50
144.5565314423432994
 51
186.6225824968333029
  0
LINE
  5
9987
  8
0
 10
3325.5400708692509397
 20
294.6992623153989825
 30
0.0
 11
3325.5429469686200719
 21
294.6753055006086015
 31
0.0
  0
ARC
  5
9988
  8
0
 10
3325.6098499030949824
 20
294.6453794937077078
 30
0.0
 40
0.0853188157580601
 50
91.9066489761305405
 51
125.2459776787329986
  0
ARC
  5
9989
  8
0
 10
3325.590331352800149
 20
294.6772439141915925
 30
0.0
 40
0.048094144815246
 50
128.1637464582900066
 51
164.2581771271746902
  0
ARC
  5
998A
  8
0
 10
3325.5829055625968067
 20
294.6799215892660868
 30
0.0
 40
0.0402243397345427
 50
165.0595828774025904
 51
186.5897012995523028
  0
ARC
  5
998B
  8
0
 10
3325.5938790363120461
 20
294.6817596128673244
 30
0.0
 40
0.0513393716794718
 50
187.222029035095602
 51
226.3595012789969019
  0
ARC
  5
998C
  8
0
 10
3325.6105779280578645
 20
294.7073865163670234
 30
0.0
 40
0.081602046088254
 50
230.2954048281279995
 51
267.4949048260621112
  0
ARC
  5
998D
  8
0
 10
3325.6071175773731738
 20
294.6611996077164122
 30
0.0
 40
0.0230238032153533
 50
90.2646087770624348
 51
136.4284526165548925
  0
ARC
  5
998E
  8
0
 10
3325.6000955670610892
 20
294.6687394540783771
 30
0.0
 40
0.0127545550090622
 50
139.2270098376490921
 51
204.9155463472887106
  0
ARC
  5
998F
  8
0
 10
3325.6072734998219858
 20
294.6755132739950227
 30
0.0
 40
0.0223370169678612
 50
212.9433501578203902
 51
269.3272905561826178
  0
ARC
  5
9990
  8
0
 10
3325.7940790565357929
 20
294.4836931142771164
 30
0.0
 40
0.072769019930687
 50
37.6513537869433819
 51
89.3589603460130775
  0
ARC
  5
9991
  8
0
 10
3325.8054488142897753
 20
294.4952273034954828
 30
0.0
 40
0.0567635222377504
 50
353.3774175031667255
 51
35.4434685576567432
  0
LINE
  5
9992
  8
0
 10
3325.8618335755249973
 20
294.488680842060603
 30
0.0
 11
3325.8589574761558652
 21
294.4647240272702788
 31
0.0
  0
ARC
  5
9993
  8
0
 10
3325.7920545416809546
 20
294.4347980203693851
 30
0.0
 40
0.0853188157580601
 50
54.754022321266973
 51
88.0933510238694737
  0
ARC
  5
9994
  8
0
 10
3325.8115730919748785
 20
294.466662440853213
 30
0.0
 40
0.048094144815246
 50
15.7418228728252707
 51
51.8362535417099508
  0
ARC
  5
9995
  8
0
 10
3325.8189988821791303
 20
294.469340115927821
 30
0.0
 40
0.0402243397345427
 50
353.4102987004476972
 51
14.9404171225974007
  0
ARC
  5
9996
  8
0
 10
3325.8080254084629814
 20
294.4711781395288881
 30
0.0
 40
0.0513393716794718
 50
313.6404987210029844
 51
352.7779709649028064
  0
ARC
  5
9997
  8
0
 10
3325.7913265167180725
 20
294.4968050430285871
 30
0.0
 40
0.081602046088254
 50
272.5050951739377751
 51
309.7045951718719152
  0
ARC
  5
9998
  8
0
 10
3325.7947868674032179
 20
294.4506181343780895
 30
0.0
 40
0.0230238032153533
 50
43.5715473834451075
 51
89.7353912229375652
  0
ARC
  5
9999
  8
0
 10
3325.8018088777139383
 20
294.4581579807399976
 30
0.0
 40
0.0127545550090622
 50
335.0844536527113178
 51
40.7729901623509008
  0
ARC
  5
999A
  8
0
 10
3325.7946309449539513
 20
294.4649318006565863
 30
0.0
 40
0.0223370169678612
 50
270.6727094438173822
 51
327.0566498421795245
  0
ARC
  5
999B
  8
0
 10
3325.7957073389170546
 20
294.4836931142771164
 30
0.0
 40
0.072769019930687
 50
90.6410396539869083
 51
142.348646213056611
  0
ARC
  5
999C
  8
0
 10
3325.7843375811630722
 20
294.4952273034954828
 30
0.0
 40
0.0567635222377504
 50
144.5565314423432994
 51
186.6225824968333029
  0
LINE
  5
999D
  8
0
 10
3325.7279528199278502
 20
294.488680842060603
 30
0.0
 11
3325.7308289192969823
 21
294.4647240272702788
 31
0.0
  0
ARC
  5
999E
  8
0
 10
3325.7977318537728024
 20
294.4347980203693851
 30
0.0
 40
0.0853188157580601
 50
91.9066489761305405
 51
125.2459776787329986
  0
ARC
  5
999F
  8
0
 10
3325.778213303477969
 20
294.466662440853213
 30
0.0
 40
0.048094144815246
 50
128.1637464582900066
 51
164.2581771271746902
  0
ARC
  5
99A0
  8
0
 10
3325.7707875132741719
 20
294.469340115927821
 30
0.0
 40
0.0402243397345427
 50
165.0595828774025904
 51
186.5897012995523028
  0
ARC
  5
99A1
  8
0
 10
3325.7817609869898661
 20
294.4711781395288881
 30
0.0
 40
0.0513393716794718
 50
187.222029035095602
 51
226.3595012789969019
  0
ARC
  5
99A2
  8
0
 10
3325.798459878734775
 20
294.4968050430285871
 30
0.0
 40
0.081602046088254
 50
230.2954048281279995
 51
267.4949048260621112
  0
ARC
  5
99A3
  8
0
 10
3325.7949995280500843
 20
294.4506181343780895
 30
0.0
 40
0.0230238032153533
 50
90.2646087770624348
 51
136.4284526165548925
  0
ARC
  5
99A4
  8
0
 10
3325.7879775177398187
 20
294.4581579807399976
 30
0.0
 40
0.0127545550090622
 50
139.2270098376490921
 51
204.9155463472887106
  0
ARC
  5
99A5
  8
0
 10
3325.7951554504988962
 20
294.4649318006565863
 30
0.0
 40
0.0223370169678612
 50
212.9433501578203902
 51
269.3272905561826178
  0
ARC
  5
99A6
  8
0
 10
3325.5658112712299044
 20
294.4696543928424148
 30
0.0
 40
0.072769019930687
 50
37.6513537869433819
 51
89.3589603460130775
  0
ARC
  5
99A7
  8
0
 10
3325.5771810289838868
 20
294.481188582060895
 30
0.0
 40
0.0567635222377504
 50
353.3774175031667255
 51
35.4434685576567432
  0
LINE
  5
99A8
  8
0
 10
3325.6335657902181993
 20
294.4746421206259015
 30
0.0
 11
3325.6306896908499766
 21
294.4506853058355773
 31
0.0
  0
ARC
  5
99A9
  8
0
 10
3325.563786756375066
 20
294.4207592989346267
 30
0.0
 40
0.0853188157580601
 50
54.754022321266973
 51
88.0933510238694737
  0
ARC
  5
99AA
  8
0
 10
3325.5833053066698994
 20
294.4526237194185114
 30
0.0
 40
0.048094144815246
 50
15.7418228728252707
 51
51.8362535417099508
  0
ARC
  5
99AB
  8
0
 10
3325.590731096872787
 20
294.4553013944931195
 30
0.0
 40
0.0402243397345427
 50
353.4102987004476972
 51
14.9404171225974007
  0
ARC
  5
99AC
  8
0
 10
3325.5797576231580024
 20
294.4571394180941866
 30
0.0
 40
0.0513393716794718
 50
313.6404987210029844
 51
352.7779709649028064
  0
ARC
  5
99AD
  8
0
 10
3325.563058731412184
 20
294.4827663215939992
 30
0.0
 40
0.081602046088254
 50
272.5050951739377751
 51
309.7045951718719152
  0
ARC
  5
99AE
  8
0
 10
3325.5665190820977841
 20
294.436579412943388
 30
0.0
 40
0.0230238032153533
 50
43.5715473834451075
 51
89.7353912229375652
  0
ARC
  5
99AF
  8
0
 10
3325.5735410924080497
 20
294.4441192593052961
 30
0.0
 40
0.0127545550090622
 50
335.0844536527113178
 51
40.7729901623509008
  0
ARC
  5
99B0
  8
0
 10
3325.5663631596480627
 20
294.4508930792218848
 30
0.0
 40
0.0223370169678612
 50
270.6727094438173822
 51
327.0566498421795245
  0
ARC
  5
99B1
  8
0
 10
3325.567439553611166
 20
294.4696543928424148
 30
0.0
 40
0.072769019930687
 50
90.6410396539869083
 51
142.348646213056611
  0
ARC
  5
99B2
  8
0
 10
3325.5560697958571836
 20
294.481188582060895
 30
0.0
 40
0.0567635222377504
 50
144.5565314423432994
 51
186.6225824968333029
  0
LINE
  5
99B3
  8
0
 10
3325.4996850346228712
 20
294.4746421206259015
 30
0.0
 11
3325.5025611339910938
 21
294.4506853058355773
 31
0.0
  0
ARC
  5
99B4
  8
0
 10
3325.5694640684669139
 20
294.4207592989346267
 30
0.0
 40
0.0853188157580601
 50
91.9066489761305405
 51
125.2459776787329986
  0
ARC
  5
99B5
  8
0
 10
3325.5499455181720805
 20
294.4526237194185114
 30
0.0
 40
0.048094144815246
 50
128.1637464582900066
 51
164.2581771271746902
  0
ARC
  5
99B6
  8
0
 10
3325.5425197279678287
 20
294.4553013944931195
 30
0.0
 40
0.0402243397345427
 50
165.0595828774025904
 51
186.5897012995523028
  0
ARC
  5
99B7
  8
0
 10
3325.5534932016839775
 20
294.4571394180941866
 30
0.0
 40
0.0513393716794718
 50
187.222029035095602
 51
226.3595012789969019
  0
ARC
  5
99B8
  8
0
 10
3325.5701920934288864
 20
294.4827663215939992
 30
0.0
 40
0.081602046088254
 50
230.2954048281279995
 51
267.4949048260621112
  0
ARC
  5
99B9
  8
0
 10
3325.5667317427441958
 20
294.436579412943388
 30
0.0
 40
0.0230238032153533
 50
90.2646087770624348
 51
136.4284526165548925
  0
ARC
  5
99BA
  8
0
 10
3325.5597097324330207
 20
294.4441192593052961
 30
0.0
 40
0.0127545550090622
 50
139.2270098376490921
 51
204.9155463472887106
  0
ARC
  5
99BB
  8
0
 10
3325.5668876651930077
 20
294.4508930792218848
 30
0.0
 40
0.0223370169678612
 50
212.9433501578203902
 51
269.3272905561826178
  0
ARC
  5
99BC
  8
0
 10
3325.3322759876291457
 20
294.4749189948576031
 30
0.0
 40
0.072769019930687
 50
37.6513537869433819
 51
89.3589603460130775
  0
ARC
  5
99BD
  8
0
 10
3325.3436457453831281
 20
294.486453184076197
 30
0.0
 40
0.0567635222377504
 50
353.3774175031667255
 51
35.4434685576567432
  0
LINE
  5
99BE
  8
0
 10
3325.4000305066169858
 20
294.4799067226412035
 30
0.0
 11
3325.3971544072478537
 21
294.4559499078508225
 31
0.0
  0
ARC
  5
99BF
  8
0
 10
3325.3302514727729431
 20
294.4260239009498719
 30
0.0
 40
0.0853188157580601
 50
54.754022321266973
 51
88.0933510238694737
  0
ARC
  5
99C0
  8
0
 10
3325.3497700230677765
 20
294.4578883214338134
 30
0.0
 40
0.048094144815246
 50
15.7418228728252707
 51
51.8362535417099508
  0
ARC
  5
99C1
  8
0
 10
3325.3571958132720283
 20
294.4605659965083078
 30
0.0
 40
0.0402243397345427
 50
353.4102987004476972
 51
14.9404171225974007
  0
ARC
  5
99C2
  8
0
 10
3325.3462223395558794
 20
294.4624040201094886
 30
0.0
 40
0.0513393716794718
 50
313.6404987210029844
 51
352.7779709649028064
  0
ARC
  5
99C3
  8
0
 10
3325.329523447810061
 20
294.4880309236091875
 30
0.0
 40
0.081602046088254
 50
272.5050951739377751
 51
309.7045951718719152
  0
ARC
  5
99C4
  8
0
 10
3325.3329837984961159
 20
294.4418440149585763
 30
0.0
 40
0.0230238032153533
 50
43.5715473834451075
 51
89.7353912229375652
  0
ARC
  5
99C5
  8
0
 10
3325.3400058088059268
 20
294.449383861320598
 30
0.0
 40
0.0127545550090622
 50
335.0844536527113178
 51
40.7729901623509008
  0
ARC
  5
99C6
  8
0
 10
3325.3328278760459398
 20
294.4561576812370731
 30
0.0
 40
0.0223370169678612
 50
270.6727094438173822
 51
327.0566498421795245
  0
ARC
  5
99C7
  8
0
 10
3325.3339042700099526
 20
294.4749189948576031
 30
0.0
 40
0.072769019930687
 50
90.6410396539869083
 51
142.348646213056611
  0
ARC
  5
99C8
  8
0
 10
3325.3225345122559702
 20
294.486453184076197
 30
0.0
 40
0.0567635222377504
 50
144.5565314423432994
 51
186.6225824968333029
  0
LINE
  5
99C9
  8
0
 10
3325.266149751021203
 20
294.4799067226412035
 30
0.0
 11
3325.2690258503898804
 21
294.4559499078508225
 31
0.0
  0
ARC
  5
99CA
  8
0
 10
3325.3359287848647909
 20
294.4260239009498719
 30
0.0
 40
0.0853188157580601
 50
91.9066489761305405
 51
125.2459776787329986
  0
ARC
  5
99CB
  8
0
 10
3325.3164102345699575
 20
294.4578883214338134
 30
0.0
 40
0.048094144815246
 50
128.1637464582900066
 51
164.2581771271746902
  0
ARC
  5
99CC
  8
0
 10
3325.30898444436707
 20
294.4605659965083078
 30
0.0
 40
0.0402243397345427
 50
165.0595828774025904
 51
186.5897012995523028
  0
ARC
  5
99CD
  8
0
 10
3325.3199579180818546
 20
294.4624040201094886
 30
0.0
 40
0.0513393716794718
 50
187.222029035095602
 51
226.3595012789969019
  0
ARC
  5
99CE
  8
0
 10
3325.3366568098272182
 20
294.4880309236091875
 30
0.0
 40
0.081602046088254
 50
230.2954048281279995
 51
267.4949048260621112
  0
ARC
  5
99CF
  8
0
 10
3325.3331964591429823
 20
294.4418440149585763
 30
0.0
 40
0.0230238032153533
 50
90.2646087770624348
 51
136.4284526165548925
  0
ARC
  5
99D0
  8
0
 10
3325.3261744488318072
 20
294.449383861320598
 30
0.0
 40
0.0127545550090622
 50
139.2270098376490921
 51
204.9155463472887106
  0
ARC
  5
99D1
  8
0
 10
3325.3333523815908848
 20
294.4561576812370731
 30
0.0
 40
0.0223370169678612
 50
212.9433501578203902
 51
269.3272905561826178
  0
ARC
  5
99D2
  8
0
 10
3325.0969845910899494
 20
294.4889577162923047
 30
0.0
 40
0.072769019930687
 50
37.6513537869433819
 51
89.3589603460130775
  0
ARC
  5
99D3
  8
0
 10
3325.1083543488439318
 20
294.5004919055107848
 30
0.0
 40
0.0567635222377504
 50
353.3774175031667255
 51
35.4434685576567432
  0
LINE
  5
99D4
  8
0
 10
3325.1647391100791538
 20
294.4939454440757913
 30
0.0
 11
3325.1618630107100216
 21
294.469988629285524
 31
0.0
  0
ARC
  5
99D5
  8
0
 10
3325.094960076235111
 20
294.4400626223845734
 30
0.0
 40
0.0853188157580601
 50
54.754022321266973
 51
88.0933510238694737
  0
ARC
  5
99D6
  8
0
 10
3325.1144786265299444
 20
294.4719270428684013
 30
0.0
 40
0.048094144815246
 50
15.7418228728252707
 51
51.8362535417099508
  0
ARC
  5
99D7
  8
0
 10
3325.1219044167341963
 20
294.4746047179430093
 30
0.0
 40
0.0402243397345427
 50
353.4102987004476972
 51
14.9404171225974007
  0
ARC
  5
99D8
  8
0
 10
3325.1109309430189569
 20
294.4764427415440764
 30
0.0
 40
0.0513393716794718
 50
313.6404987210029844
 51
352.7779709649028064
  0
ARC
  5
99D9
  8
0
 10
3325.0942320512731385
 20
294.5020696450438891
 30
0.0
 40
0.081602046088254
 50
272.5050951739377751
 51
309.7045951718719152
  0
ARC
  5
99DA
  8
0
 10
3325.0976924019578291
 20
294.4558827363933915
 30
0.0
 40
0.0230238032153533
 50
43.5715473834451075
 51
89.7353912229375652
  0
ARC
  5
99DB
  8
0
 10
3325.1047144122680947
 20
294.4634225827551859
 30
0.0
 40
0.0127545550090622
 50
335.0844536527113178
 51
40.7729901623509008
  0
ARC
  5
99DC
  8
0
 10
3325.0975364795081077
 20
294.4701964026717746
 30
0.0
 40
0.0223370169678612
 50
270.6727094438173822
 51
327.0566498421795245
  0
ARC
  5
99DD
  8
0
 10
3325.0986128734721206
 20
294.4889577162923047
 30
0.0
 40
0.072769019930687
 50
90.6410396539869083
 51
142.348646213056611
  0
ARC
  5
99DE
  8
0
 10
3325.0872431157181381
 20
294.5004919055107848
 30
0.0
 40
0.0567635222377504
 50
144.5565314423432994
 51
186.6225824968333029
  0
LINE
  5
99DF
  8
0
 10
3325.0308583544820067
 20
294.4939454440757913
 30
0.0
 11
3325.0337344538520483
 21
294.469988629285524
 31
0.0
  0
ARC
  5
99E0
  8
0
 10
3325.1006373883269589
 20
294.4400626223845734
 30
0.0
 40
0.0853188157580601
 50
91.9066489761305405
 51
125.2459776787329986
  0
ARC
  5
99E1
  8
0
 10
3325.0811188380321255
 20
294.4719270428684013
 30
0.0
 40
0.048094144815246
 50
128.1637464582900066
 51
164.2581771271746902
  0
ARC
  5
99E2
  8
0
 10
3325.0736930478287832
 20
294.4746047179430093
 30
0.0
 40
0.0402243397345427
 50
165.0595828774025904
 51
186.5897012995523028
  0
ARC
  5
99E3
  8
0
 10
3325.0846665215440225
 20
294.4764427415440764
 30
0.0
 40
0.0513393716794718
 50
187.222029035095602
 51
226.3595012789969019
  0
ARC
  5
99E4
  8
0
 10
3325.1013654132889314
 20
294.5020696450438891
 30
0.0
 40
0.081602046088254
 50
230.2954048281279995
 51
267.4949048260621112
  0
ARC
  5
99E5
  8
0
 10
3325.0979050626037861
 20
294.4558827363933915
 30
0.0
 40
0.0230238032153533
 50
90.2646087770624348
 51
136.4284526165548925
  0
ARC
  5
99E6
  8
0
 10
3325.0908830522939752
 20
294.4634225827551859
 30
0.0
 40
0.0127545550090622
 50
139.2270098376490921
 51
204.9155463472887106
  0
ARC
  5
99E7
  8
0
 10
3325.0980609850539622
 20
294.4701964026717746
 30
0.0
 40
0.0223370169678612
 50
212.9433501578203902
 51
269.3272905561826178
  0
ARC
  5
99E8
  8
0
 10
3325.6518507189539378
 20
294.2292406527507183
 30
0.0
 40
0.072769019930687
 50
37.6513537869433819
 51
89.3589603460130775
  0
ARC
  5
99E9
  8
0
 10
3325.6632204767079202
 20
294.2407748419693121
 30
0.0
 40
0.0567635222377504
 50
353.3774175031667255
 51
35.4434685576567432
  0
LINE
  5
99EA
  8
0
 10
3325.7196052379431421
 20
294.2342283805343186
 30
0.0
 11
3325.7167291385731005
 21
294.2102715657438807
 31
0.0
  0
ARC
  5
99EB
  8
0
 10
3325.6498262040990994
 20
294.180345558842987
 30
0.0
 40
0.0853188157580601
 50
54.754022321266973
 51
88.0933510238694737
  0
ARC
  5
99EC
  8
0
 10
3325.6693447543939328
 20
294.2122099793268717
 30
0.0
 40
0.048094144815246
 50
15.7418228728252707
 51
51.8362535417099508
  0
ARC
  5
99ED
  8
0
 10
3325.6767705445968204
 20
294.2148876544014229
 30
0.0
 40
0.0402243397345427
 50
353.4102987004476972
 51
14.9404171225974007
  0
ARC
  5
99EE
  8
0
 10
3325.6657970708820358
 20
294.2167256780026037
 30
0.0
 40
0.0513393716794718
 50
313.6404987210029844
 51
352.7779709649028064
  0
ARC
  5
99EF
  8
0
 10
3325.6490981791371269
 20
294.2423525815023027
 30
0.0
 40
0.081602046088254
 50
272.5050951739377751
 51
309.7045951718719152
  0
ARC
  5
99F0
  8
0
 10
3325.652558529820908
 20
294.1961656728516914
 30
0.0
 40
0.0230238032153533
 50
43.5715473834451075
 51
89.7353912229375652
  0
ARC
  5
99F1
  8
0
 10
3325.6595805401320831
 20
294.2037055192137132
 30
0.0
 40
0.0127545550090622
 50
335.0844536527113178
 51
40.7729901623509008
  0
ARC
  5
99F2
  8
0
 10
3325.6524026073720961
 20
294.2104793391303019
 30
0.0
 40
0.0223370169678612
 50
270.6727094438173822
 51
327.0566498421795245
  0
ARC
  5
99F3
  8
0
 10
3325.6534790013351994
 20
294.2292406527507183
 30
0.0
 40
0.072769019930687
 50
90.6410396539869083
 51
142.348646213056611
  0
ARC
  5
99F4
  8
0
 10
3325.642109243581217
 20
294.2407748419693121
 30
0.0
 40
0.0567635222377504
 50
144.5565314423432994
 51
186.6225824968333029
  0
LINE
  5
99F5
  8
0
 10
3325.5857244823469046
 20
294.2342283805343186
 30
0.0
 11
3325.5886005817160367
 21
294.2102715657438807
 31
0.0
  0
ARC
  5
99F6
  8
0
 10
3325.6555035161900378
 20
294.180345558842987
 30
0.0
 40
0.0853188157580601
 50
91.9066489761305405
 51
125.2459776787329986
  0
ARC
  5
99F7
  8
0
 10
3325.6359849658961139
 20
294.2122099793268717
 30
0.0
 40
0.048094144815246
 50
128.1637464582900066
 51
164.2581771271746902
  0
ARC
  5
99F8
  8
0
 10
3325.628559175691862
 20
294.2148876544014229
 30
0.0
 40
0.0402243397345427
 50
165.0595828774025904
 51
186.5897012995523028
  0
ARC
  5
99F9
  8
0
 10
3325.6395326494071014
 20
294.2167256780026037
 30
0.0
 40
0.0513393716794718
 50
187.222029035095602
 51
226.3595012789969019
  0
ARC
  5
99FA
  8
0
 10
3325.6562315411529198
 20
294.2423525815023027
 30
0.0
 40
0.081602046088254
 50
230.2954048281279995
 51
267.4949048260621112
  0
ARC
  5
99FB
  8
0
 10
3325.6527711904677744
 20
294.1961656728516914
 30
0.0
 40
0.0230238032153533
 50
90.2646087770624348
 51
136.4284526165548925
  0
ARC
  5
99FC
  8
0
 10
3325.6457491801570541
 20
294.2037055192137132
 30
0.0
 40
0.0127545550090622
 50
139.2270098376490921
 51
204.9155463472887106
  0
ARC
  5
99FD
  8
0
 10
3325.6529271129170411
 20
294.2104793391303019
 30
0.0
 40
0.0223370169678612
 50
212.9433501578203902
 51
269.3272905561826178
  0
ARC
  5
99FE
  8
0
 10
3325.4411421018139663
 20
294.2625826976354233
 30
0.0
 40
0.072769019930687
 50
37.6513537869433819
 51
89.3589603460130775
  0
ARC
  5
99FF
  8
0
 10
3325.4525118595679487
 20
294.2741168868539035
 30
0.0
 40
0.0567635222377504
 50
353.3774175031667255
 51
35.4434685576567432
  0
LINE
  5
9A00
  8
0
 10
3325.5088966208031707
 20
294.2675704254190236
 30
0.0
 11
3325.5060205214340385
 21
294.2436136106285858
 31
0.0
  0
ARC
  5
9A01
  8
0
 10
3325.4391175869591279
 20
294.213687603727692
 30
0.0
 40
0.0853188157580601
 50
54.754022321266973
 51
88.0933510238694737
  0
ARC
  5
9A02
  8
0
 10
3325.4586361372539614
 20
294.2455520242115199
 30
0.0
 40
0.048094144815246
 50
15.7418228728252707
 51
51.8362535417099508
  0
ARC
  5
9A03
  8
0
 10
3325.4660619274582132
 20
294.2482296992860142
 30
0.0
 40
0.0402243397345427
 50
353.4102987004476972
 51
14.9404171225974007
  0
ARC
  5
9A04
  8
0
 10
3325.4550884537420643
 20
294.250067722887195
 30
0.0
 40
0.0513393716794718
 50
313.6404987210029844
 51
352.7779709649028064
  0
ARC
  5
9A05
  8
0
 10
3325.4383895619971554
 20
294.2756946263870077
 30
0.0
 40
0.081602046088254
 50
272.5050951739377751
 51
309.7045951718719152
  0
ARC
  5
9A06
  8
0
 10
3325.441849912681846
 20
294.2295077177363964
 30
0.0
 40
0.0230238032153533
 50
43.5715473834451075
 51
89.7353912229375652
  0
ARC
  5
9A07
  8
0
 10
3325.4488719229921116
 20
294.2370475640984182
 30
0.0
 40
0.0127545550090622
 50
335.0844536527113178
 51
40.7729901623509008
  0
ARC
  5
9A08
  8
0
 10
3325.4416939902321246
 20
294.2438213840148933
 30
0.0
 40
0.0223370169678612
 50
270.6727094438173822
 51
327.0566498421795245
  0
ARC
  5
9A09
  8
0
 10
3325.4427703841961375
 20
294.2625826976354233
 30
0.0
 40
0.072769019930687
 50
90.6410396539869083
 51
142.348646213056611
  0
ARC
  5
9A0A
  8
0
 10
3325.431400626442155
 20
294.2741168868539035
 30
0.0
 40
0.0567635222377504
 50
144.5565314423432994
 51
186.6225824968333029
  0
LINE
  5
9A0B
  8
0
 10
3325.3750158652069331
 20
294.2675704254190236
 30
0.0
 11
3325.3778919645760652
 21
294.2436136106285858
 31
0.0
  0
ARC
  5
9A0C
  8
0
 10
3325.4447948990509758
 20
294.213687603727692
 30
0.0
 40
0.0853188157580601
 50
91.9066489761305405
 51
125.2459776787329986
  0
ARC
  5
9A0D
  8
0
 10
3325.4252763487561424
 20
294.2455520242115199
 30
0.0
 40
0.048094144815246
 50
128.1637464582900066
 51
164.2581771271746902
  0
ARC
  5
9A0E
  8
0
 10
3325.4178505585518906
 20
294.2482296992860142
 30
0.0
 40
0.0402243397345427
 50
165.0595828774025904
 51
186.5897012995523028
  0
ARC
  5
9A0F
  8
0
 10
3325.4288240322680394
 20
294.250067722887195
 30
0.0
 40
0.0513393716794718
 50
187.222029035095602
 51
226.3595012789969019
  0
ARC
  5
9A10
  8
0
 10
3325.4455229240129484
 20
294.2756946263870077
 30
0.0
 40
0.081602046088254
 50
230.2954048281279995
 51
267.4949048260621112
  0
ARC
  5
9A11
  8
0
 10
3325.442062573327803
 20
294.2295077177363964
 30
0.0
 40
0.0230238032153533
 50
90.2646087770624348
 51
136.4284526165548925
  0
ARC
  5
9A12
  8
0
 10
3325.4350405630179921
 20
294.2370475640984182
 30
0.0
 40
0.0127545550090622
 50
139.2270098376490921
 51
204.9155463472887106
  0
ARC
  5
9A13
  8
0
 10
3325.4422184957779791
 20
294.2438213840148933
 30
0.0
 40
0.0223370169678612
 50
212.9433501578203902
 51
269.3272905561826178
  0
ARC
  5
9A14
  8
0
 10
3324.7296899842399398
 20
294.3634189114524133
 30
0.0
 40
0.072769019930687
 50
37.6513537869433819
 51
89.3589603460130775
  0
ARC
  5
9A15
  8
0
 10
3324.7410597419939222
 20
294.3749531006708935
 30
0.0
 40
0.0567635222377504
 50
353.3774175031667255
 51
35.4434685576567432
  0
LINE
  5
9A16
  8
0
 10
3324.7974445032291442
 20
294.3684066392360137
 30
0.0
 11
3324.794568403860012
 21
294.3444498244455758
 31
0.0
  0
ARC
  5
9A17
  8
0
 10
3324.7276654693851015
 20
294.3145238175446821
 30
0.0
 40
0.0853188157580601
 50
54.754022321266973
 51
88.0933510238694737
  0
ARC
  5
9A18
  8
0
 10
3324.7471840196799349
 20
294.3463882380286236
 30
0.0
 40
0.048094144815246
 50
15.7418228728252707
 51
51.8362535417099508
  0
ARC
  5
9A19
  8
0
 10
3324.7546098098828224
 20
294.349065913103118
 30
0.0
 40
0.0402243397345427
 50
353.4102987004476972
 51
14.9404171225974007
  0
ARC
  5
9A1A
  8
0
 10
3324.7436363361680378
 20
294.3509039367042988
 30
0.0
 40
0.0513393716794718
 50
313.6404987210029844
 51
352.7779709649028064
  0
ARC
  5
9A1B
  8
0
 10
3324.7269374444231289
 20
294.3765308402038841
 30
0.0
 40
0.081602046088254
 50
272.5050951739377751
 51
309.7045951718719152
  0
ARC
  5
9A1C
  8
0
 10
3324.7303977951078195
 20
294.3303439315533865
 30
0.0
 40
0.0230238032153533
 50
43.5715473834451075
 51
89.7353912229375652
  0
ARC
  5
9A1D
  8
0
 10
3324.7374198054180852
 20
294.3378837779154082
 30
0.0
 40
0.0127545550090622
 50
335.0844536527113178
 51
40.7729901623509008
  0
ARC
  5
9A1E
  8
0
 10
3324.7302418726580981
 20
294.3446575978318833
 30
0.0
 40
0.0223370169678612
 50
270.6727094438173822
 51
327.0566498421795245
  0
ARC
  5
9A1F
  8
0
 10
3324.731318266622111
 20
294.3634189114524133
 30
0.0
 40
0.072769019930687
 50
90.6410396539869083
 51
142.348646213056611
  0
ARC
  5
9A20
  8
0
 10
3324.7199485088672191
 20
294.3749531006708935
 30
0.0
 40
0.0567635222377504
 50
144.5565314423432994
 51
186.6225824968333029
  0
LINE
  5
9A21
  8
0
 10
3324.6635637476329066
 20
294.3684066392360137
 30
0.0
 11
3324.6664398470020387
 21
294.3444498244455758
 31
0.0
  0
ARC
  5
9A22
  8
0
 10
3324.7333427814769493
 20
294.3145238175446821
 30
0.0
 40
0.0853188157580601
 50
91.9066489761305405
 51
125.2459776787329986
  0
ARC
  5
9A23
  8
0
 10
3324.7138242311821159
 20
294.3463882380286236
 30
0.0
 40
0.048094144815246
 50
128.1637464582900066
 51
164.2581771271746902
  0
ARC
  5
9A24
  8
0
 10
3324.7063984409778641
 20
294.349065913103118
 30
0.0
 40
0.0402243397345427
 50
165.0595828774025904
 51
186.5897012995523028
  0
ARC
  5
9A25
  8
0
 10
3324.717371914694013
 20
294.3509039367042988
 30
0.0
 40
0.0513393716794718
 50
187.222029035095602
 51
226.3595012789969019
  0
ARC
  5
9A26
  8
0
 10
3324.7340708064389219
 20
294.3765308402038841
 30
0.0
 40
0.081602046088254
 50
230.2954048281279995
 51
267.4949048260621112
  0
ARC
  5
9A27
  8
0
 10
3324.7306104557537765
 20
294.3303439315533865
 30
0.0
 40
0.0230238032153533
 50
90.2646087770624348
 51
136.4284526165548925
  0
ARC
  5
9A28
  8
0
 10
3324.7235884454439656
 20
294.3378837779154082
 30
0.0
 40
0.0127545550090622
 50
139.2270098376490921
 51
204.9155463472887106
  0
ARC
  5
9A29
  8
0
 10
3324.7307663782030431
 20
294.3446575978318833
 30
0.0
 40
0.0223370169678612
 50
212.9433501578203902
 51
269.3272905561826178
  0
ARC
  5
9A2A
  8
0
 10
3324.9086120606821169
 20
294.2596625538869262
 30
0.0
 40
0.072769019930687
 50
37.6513537869433819
 51
89.3589603460130775
  0
ARC
  5
9A2B
  8
0
 10
3324.9199818184360993
 20
294.2711967431052926
 30
0.0
 40
0.0567635222377504
 50
353.3774175031667255
 51
35.4434685576567432
  0
LINE
  5
9A2C
  8
0
 10
3324.9763665796708665
 20
294.2646502816704128
 30
0.0
 11
3324.9734904803021891
 21
294.2406934668799749
 31
0.0
  0
ARC
  5
9A2D
  8
0
 10
3324.9065875458268238
 20
294.2107674599791949
 30
0.0
 40
0.0853188157580601
 50
54.754022321266973
 51
88.0933510238694737
  0
ARC
  5
9A2E
  8
0
 10
3324.9261060961221119
 20
294.2426318804630228
 30
0.0
 40
0.048094144815246
 50
15.7418228728252707
 51
51.8362535417099508
  0
ARC
  5
9A2F
  8
0
 10
3324.9335318863249995
 20
294.2453095555375171
 30
0.0
 40
0.0402243397345427
 50
353.4102987004476972
 51
14.9404171225974007
  0
ARC
  5
9A30
  8
0
 10
3324.9225584126102149
 20
294.2471475791386979
 30
0.0
 40
0.0513393716794718
 50
313.6404987210029844
 51
352.7779709649028064
  0
ARC
  5
9A31
  8
0
 10
3324.9058595208639417
 20
294.2727744826383969
 30
0.0
 40
0.081602046088254
 50
272.5050951739377751
 51
309.7045951718719152
  0
ARC
  5
9A32
  8
0
 10
3324.9093198715499966
 20
294.2265875739877856
 30
0.0
 40
0.0230238032153533
 50
43.5715473834451075
 51
89.7353912229375652
  0
ARC
  5
9A33
  8
0
 10
3324.9163418818611717
 20
294.2341274203498074
 30
0.0
 40
0.0127545550090622
 50
335.0844536527113178
 51
40.7729901623509008
  0
ARC
  5
9A34
  8
0
 10
3324.9091639491011847
 20
294.2409012402662825
 30
0.0
 40
0.0223370169678612
 50
270.6727094438173822
 51
327.0566498421795245
  0
ARC
  5
9A35
  8
0
 10
3324.9102403430638333
 20
294.2596625538869262
 30
0.0
 40
0.072769019930687
 50
90.6410396539869083
 51
142.348646213056611
  0
ARC
  5
9A36
  8
0
 10
3324.8988705853098509
 20
294.2711967431052926
 30
0.0
 40
0.0567635222377504
 50
144.5565314423432994
 51
186.6225824968333029
  0
LINE
  5
9A37
  8
0
 10
3324.8424858240750837
 20
294.2646502816704128
 30
0.0
 11
3324.8453619234428515
 21
294.2406934668799749
 31
0.0
  0
ARC
  5
9A38
  8
0
 10
3324.9122648579191264
 20
294.2107674599791949
 30
0.0
 40
0.0853188157580601
 50
91.9066489761305405
 51
125.2459776787329986
  0
ARC
  5
9A39
  8
0
 10
3324.8927463076238382
 20
294.2426318804630228
 30
0.0
 40
0.048094144815246
 50
128.1637464582900066
 51
164.2581771271746902
  0
ARC
  5
9A3A
  8
0
 10
3324.8853205174200411
 20
294.2453095555375171
 30
0.0
 40
0.0402243397345427
 50
165.0595828774025904
 51
186.5897012995523028
  0
ARC
  5
9A3B
  8
0
 10
3324.89629399113619
 20
294.2471475791386979
 30
0.0
 40
0.0513393716794718
 50
187.222029035095602
 51
226.3595012789969019
  0
ARC
  5
9A3C
  8
0
 10
3324.9129928828820084
 20
294.2727744826383969
 30
0.0
 40
0.081602046088254
 50
230.2954048281279995
 51
267.4949048260621112
  0
ARC
  5
9A3D
  8
0
 10
3324.9095325321959535
 20
294.2265875739877856
 30
0.0
 40
0.0230238032153533
 50
90.2646087770624348
 51
136.4284526165548925
  0
ARC
  5
9A3E
  8
0
 10
3324.9025105218861427
 20
294.2341274203498074
 30
0.0
 40
0.0127545550090622
 50
139.2270098376490921
 51
204.9155463472887106
  0
ARC
  5
9A3F
  8
0
 10
3324.9096884546461297
 20
294.2409012402662825
 30
0.0
 40
0.0223370169678612
 50
212.9433501578203902
 51
269.3272905561826178
  0
ARC
  5
9A40
  8
0
 10
3325.0831163980069505
 20
294.1669440789635814
 30
0.0
 40
0.072769019930687
 50
37.6513537869433819
 51
89.3589603460130775
  0
ARC
  5
9A41
  8
0
 10
3325.0944861557609329
 20
294.1784782681821184
 30
0.0
 40
0.0567635222377504
 50
353.3774175031667255
 51
35.4434685576567432
  0
LINE
  5
9A42
  8
0
 10
3325.1508709169970643
 20
294.1719318067471818
 30
0.0
 11
3325.1479948176279322
 21
294.1479749919569144
 31
0.0
  0
ARC
  5
9A43
  8
0
 10
3325.0810918831521121
 20
294.118048985055907
 30
0.0
 40
0.0853188157580601
 50
54.754022321266973
 51
88.0933510238694737
  0
ARC
  5
9A44
  8
0
 10
3325.1006104334469455
 20
294.1499134055397917
 30
0.0
 40
0.048094144815246
 50
15.7418228728252707
 51
51.8362535417099508
  0
ARC
  5
9A45
  8
0
 10
3325.1080362236511974
 20
294.1525910806142861
 30
0.0
 40
0.0402243397345427
 50
353.4102987004476972
 51
14.9404171225974007
  0
ARC
  5
9A46
  8
0
 10
3325.097062749935958
 20
294.1544291042155237
 30
0.0
 40
0.0513393716794718
 50
313.6404987210029844
 51
352.7779709649028064
  0
ARC
  5
9A47
  8
0
 10
3325.0803638581901396
 20
294.180056007715109
 30
0.0
 40
0.081602046088254
 50
272.5050951739377751
 51
309.7045951718719152
  0
ARC
  5
9A48
  8
0
 10
3325.0838242088748302
 20
294.1338690990647251
 30
0.0
 40
0.0230238032153533
 50
43.5715473834451075
 51
89.7353912229375652
  0
ARC
  5
9A49
  8
0
 10
3325.0908462191860053
 20
294.1414089454265763
 30
0.0
 40
0.0127545550090622
 50
335.0844536527113178
 51
40.7729901623509008
  0
ARC
  5
9A4A
  8
0
 10
3325.0836682864251088
 20
294.1481827653431083
 30
0.0
 40
0.0223370169678612
 50
270.6727094438173822
 51
327.0566498421795245
  0
ARC
  5
9A4B
  8
0
 10
3325.0847446803891216
 20
294.1669440789635814
 30
0.0
 40
0.072769019930687
 50
90.6410396539869083
 51
142.348646213056611
  0
ARC
  5
9A4C
  8
0
 10
3325.0733749226351392
 20
294.1784782681821184
 30
0.0
 40
0.0567635222377504
 50
144.5565314423432994
 51
186.6225824968333029
  0
LINE
  5
9A4D
  8
0
 10
3325.0169901613999173
 20
294.1719318067471818
 30
0.0
 11
3325.0198662607690494
 21
294.1479749919569144
 31
0.0
  0
ARC
  5
9A4E
  8
0
 10
3325.0867691952448695
 20
294.118048985055907
 30
0.0
 40
0.0853188157580601
 50
91.9066489761305405
 51
125.2459776787329986
  0
ARC
  5
9A4F
  8
0
 10
3325.0672506449491266
 20
294.1499134055397917
 30
0.0
 40
0.048094144815246
 50
128.1637464582900066
 51
164.2581771271746902
  0
ARC
  5
9A50
  8
0
 10
3325.0598248547457843
 20
294.1525910806142861
 30
0.0
 40
0.0402243397345427
 50
165.0595828774025904
 51
186.5897012995523028
  0
ARC
  5
9A51
  8
0
 10
3325.0707983284610236
 20
294.1544291042155237
 30
0.0
 40
0.0513393716794718
 50
187.222029035095602
 51
226.3595012789969019
  0
ARC
  5
9A52
  8
0
 10
3325.0874972202059325
 20
294.180056007715109
 30
0.0
 40
0.081602046088254
 50
230.2954048281279995
 51
267.4949048260621112
  0
ARC
  5
9A53
  8
0
 10
3325.0840368695221514
 20
294.1338690990647251
 30
0.0
 40
0.0230238032153533
 50
90.2646087770624348
 51
136.4284526165548925
  0
ARC
  5
9A54
  8
0
 10
3325.0770148592109763
 20
294.1414089454265763
 30
0.0
 40
0.0127545550090622
 50
139.2270098376490921
 51
204.9155463472887106
  0
ARC
  5
9A55
  8
0
 10
3325.0841927919709633
 20
294.1481827653431083
 30
0.0
 40
0.0223370169678612
 50
212.9433501578203902
 51
269.3272905561826178
  0
ARC
  5
9A56
  8
0
 10
3325.2532029962171691
 20
294.0885749818390877
 30
0.0
 40
0.072769019930687
 50
37.6513537869433819
 51
89.3589603460130775
  0
ARC
  5
9A57
  8
0
 10
3325.2645727539711515
 20
294.1001091710576247
 30
0.0
 40
0.0567635222377504
 50
353.3774175031667255
 51
35.4434685576567432
  0
LINE
  5
9A58
  8
0
 10
3325.3209575152059188
 20
294.0935627096226881
 30
0.0
 11
3325.3180814158367866
 21
294.0696058948323071
 31
0.0
  0
ARC
  5
9A59
  8
0
 10
3325.2511784813609665
 20
294.0396798879314133
 30
0.0
 40
0.0853188157580601
 50
54.754022321266973
 51
88.0933510238694737
  0
ARC
  5
9A5A
  8
0
 10
3325.2706970316571642
 20
294.0715443084151843
 30
0.0
 40
0.048094144815246
 50
15.7418228728252707
 51
51.8362535417099508
  0
ARC
  5
9A5B
  8
0
 10
3325.2781228218600518
 20
294.0742219834897924
 30
0.0
 40
0.0402243397345427
 50
353.4102987004476972
 51
14.9404171225974007
  0
ARC
  5
9A5C
  8
0
 10
3325.2671493481448124
 20
294.0760600070909163
 30
0.0
 40
0.0513393716794718
 50
313.6404987210029844
 51
352.7779709649028064
  0
ARC
  5
9A5D
  8
0
 10
3325.250450456398994
 20
294.1016869105906721
 30
0.0
 40
0.081602046088254
 50
272.5050951739377751
 51
309.7045951718719152
  0
ARC
  5
9A5E
  8
0
 10
3325.2539108070841394
 20
294.0555000019401177
 30
0.0
 40
0.0230238032153533
 50
43.5715473834451075
 51
89.7353912229375652
  0
ARC
  5
9A5F
  8
0
 10
3325.2609328173948597
 20
294.0630398483020826
 30
0.0
 40
0.0127545550090622
 50
335.0844536527113178
 51
40.7729901623509008
  0
ARC
  5
9A60
  8
0
 10
3325.2537548846348727
 20
294.0698136682186146
 30
0.0
 40
0.0223370169678612
 50
270.6727094438173822
 51
327.0566498421795245
  0
ARC
  5
9A61
  8
0
 10
3325.2548312785979761
 20
294.0885749818390877
 30
0.0
 40
0.072769019930687
 50
90.6410396539869083
 51
142.348646213056611
  0
ARC
  5
9A62
  8
0
 10
3325.2434615208449031
 20
294.1001091710576247
 30
0.0
 40
0.0567635222377504
 50
144.5565314423432994
 51
186.6225824968333029
  0
LINE
  5
9A63
  8
0
 10
3325.1870767596101359
 20
294.0935627096226881
 30
0.0
 11
3325.1899528589779038
 21
294.0696058948323071
 31
0.0
  0
ARC
  5
9A64
  8
0
 10
3325.2568557934528144
 20
294.0396798879314133
 30
0.0
 40
0.0853188157580601
 50
91.9066489761305405
 51
125.2459776787329986
  0
ARC
  5
9A65
  8
0
 10
3325.2373372431588905
 20
294.0715443084151843
 30
0.0
 40
0.048094144815246
 50
128.1637464582900066
 51
164.2581771271746902
  0
ARC
  5
9A66
  8
0
 10
3325.2299114529550934
 20
294.0742219834897924
 30
0.0
 40
0.0402243397345427
 50
165.0595828774025904
 51
186.5897012995523028
  0
ARC
  5
9A67
  8
0
 10
3325.240884926669878
 20
294.0760600070909163
 30
0.0
 40
0.0513393716794718
 50
187.222029035095602
 51
226.3595012789969019
  0
ARC
  5
9A68
  8
0
 10
3325.2575838184161512
 20
294.1016869105906721
 30
0.0
 40
0.081602046088254
 50
230.2954048281279995
 51
267.4949048260621112
  0
ARC
  5
9A69
  8
0
 10
3325.2541234677310058
 20
294.0555000019401177
 30
0.0
 40
0.0230238032153533
 50
90.2646087770624348
 51
136.4284526165548925
  0
ARC
  5
9A6A
  8
0
 10
3325.2471014574198307
 20
294.0630398483020826
 30
0.0
 40
0.0127545550090622
 50
139.2270098376490921
 51
204.9155463472887106
  0
ARC
  5
9A6B
  8
0
 10
3325.2542793901798177
 20
294.0698136682186146
 30
0.0
 40
0.0223370169678612
 50
212.9433501578203902
 51
269.3272905561826178
  0
ARC
  5
9A6C
  8
0
 10
3325.4188715751379277
 20
294.0223474252575784
 30
0.0
 40
0.072769019930687
 50
37.6513537869433819
 51
89.3589603460130775
  0
ARC
  5
9A6D
  8
0
 10
3325.4302413328919101
 20
294.0338816144761722
 30
0.0
 40
0.0567635222377504
 50
353.3774175031667255
 51
35.4434685576567432
  0
LINE
  5
9A6E
  8
0
 10
3325.4866260941271321
 20
294.0273351530411787
 30
0.0
 11
3325.483749994758
 21
294.0033783382509114
 31
0.0
  0
ARC
  5
9A6F
  8
0
 10
3325.4168470602830894
 20
293.9734523313499039
 30
0.0
 40
0.0853188157580601
 50
54.754022321266973
 51
88.0933510238694737
  0
ARC
  5
9A70
  8
0
 10
3325.4363656105779228
 20
294.0053167518337887
 30
0.0
 40
0.048094144815246
 50
15.7418228728252707
 51
51.8362535417099508
  0
ARC
  5
9A71
  8
0
 10
3325.4437914007821746
 20
294.007994426908283
 30
0.0
 40
0.0402243397345427
 50
353.4102987004476972
 51
14.9404171225974007
  0
ARC
  5
9A72
  8
0
 10
3325.4328179270660257
 20
294.0098324505095206
 30
0.0
 40
0.0513393716794718
 50
313.6404987210029844
 51
352.7779709649028064
  0
ARC
  5
9A73
  8
0
 10
3325.4161190353211168
 20
294.0354593540092196
 30
0.0
 40
0.081602046088254
 50
272.5050951739377751
 51
309.7045951718719152
  0
ARC
  5
9A74
  8
0
 10
3325.4195793860058075
 20
293.9892724453587221
 30
0.0
 40
0.0230238032153533
 50
43.5715473834451075
 51
89.7353912229375652
  0
ARC
  5
9A75
  8
0
 10
3325.4266013963160731
 20
293.996812291720687
 30
0.0
 40
0.0127545550090622
 50
335.0844536527113178
 51
40.7729901623509008
  0
ARC
  5
9A76
  8
0
 10
3325.4194234635560861
 20
294.0035861116371052
 30
0.0
 40
0.0223370169678612
 50
270.6727094438173822
 51
327.0566498421795245
  0
ARC
  5
9A77
  8
0
 10
3325.4204998575200989
 20
294.0223474252575784
 30
0.0
 40
0.072769019930687
 50
90.6410396539869083
 51
142.348646213056611
  0
ARC
  5
9A78
  8
0
 10
3325.4091300997661165
 20
294.0338816144761722
 30
0.0
 40
0.0567635222377504
 50
144.5565314423432994
 51
186.6225824968333029
  0
LINE
  5
9A79
  8
0
 10
3325.352745338529985
 20
294.0273351530411787
 30
0.0
 11
3325.3556214379000266
 21
294.0033783382509114
 31
0.0
  0
ARC
  5
9A7A
  8
0
 10
3325.4225243723749372
 20
293.9734523313499039
 30
0.0
 40
0.0853188157580601
 50
91.9066489761305405
 51
125.2459776787329986
  0
ARC
  5
9A7B
  8
0
 10
3325.4030058220801038
 20
294.0053167518337887
 30
0.0
 40
0.048094144815246
 50
128.1637464582900066
 51
164.2581771271746902
  0
ARC
  5
9A7C
  8
0
 10
3325.3955800318772162
 20
294.007994426908283
 30
0.0
 40
0.0402243397345427
 50
165.0595828774025904
 51
186.5897012995523028
  0
ARC
  5
9A7D
  8
0
 10
3325.4065535055920009
 20
294.0098324505095206
 30
0.0
 40
0.0513393716794718
 50
187.222029035095602
 51
226.3595012789969019
  0
ARC
  5
9A7E
  8
0
 10
3325.4232523973369098
 20
294.0354593540092196
 30
0.0
 40
0.081602046088254
 50
230.2954048281279995
 51
267.4949048260621112
  0
ARC
  5
9A7F
  8
0
 10
3325.4197920466522191
 20
293.9892724453587221
 30
0.0
 40
0.0230238032153533
 50
90.2646087770624348
 51
136.4284526165548925
  0
ARC
  5
9A80
  8
0
 10
3325.412770036341044
 20
293.996812291720687
 30
0.0
 40
0.0127545550090622
 50
139.2270098376490921
 51
204.9155463472887106
  0
ARC
  5
9A81
  8
0
 10
3325.4199479691019405
 20
294.0035861116371052
 30
0.0
 40
0.0223370169678612
 50
212.9433501578203902
 51
269.3272905561826178
  0
ARC
  5
9A82
  8
0
 10
3325.121212673779155
 20
293.860453091475506
 30
0.0
 40
0.072769019930687
 50
37.6513537869433819
 51
89.3589603460130775
  0
ARC
  5
9A83
  8
0
 10
3325.1325824315331374
 20
293.8719872806939861
 30
0.0
 40
0.0567635222377504
 50
353.3774175031667255
 51
35.4434685576567432
  0
LINE
  5
9A84
  8
0
 10
3325.1889671927679046
 20
293.8654408192589926
 30
0.0
 11
3325.1860910933992272
 21
293.8414840044687253
 31
0.0
  0
ARC
  5
9A85
  8
0
 10
3325.1191881589238619
 20
293.8115579975677178
 30
0.0
 40
0.0853188157580601
 50
54.754022321266973
 51
88.0933510238694737
  0
ARC
  5
9A86
  8
0
 10
3325.1387067092177858
 20
293.8434224180516026
 30
0.0
 40
0.048094144815246
 50
15.7418228728252707
 51
51.8362535417099508
  0
ARC
  5
9A87
  8
0
 10
3325.1461324994229471
 20
293.8461000931260969
 30
0.0
 40
0.0402243397345427
 50
353.4102987004476972
 51
14.9404171225974007
  0
ARC
  5
9A88
  8
0
 10
3325.1351590257067983
 20
293.8479381167272777
 30
0.0
 40
0.0513393716794718
 50
313.6404987210029844
 51
352.7779709649028064
  0
ARC
  5
9A89
  8
0
 10
3325.1184601339618894
 20
293.8735650202270904
 30
0.0
 40
0.081602046088254
 50
272.5050951739377751
 51
309.7045951718719152
  0
ARC
  5
9A8A
  8
0
 10
3325.1219204846461253
 20
293.8273781115764223
 30
0.0
 40
0.0230238032153533
 50
43.5715473834451075
 51
89.7353912229375652
  0
ARC
  5
9A8B
  8
0
 10
3325.1289424949568456
 20
293.8349179579383872
 30
0.0
 40
0.0127545550090622
 50
335.0844536527113178
 51
40.7729901623509008
  0
ARC
  5
9A8C
  8
0
 10
3325.1217645621968586
 20
293.841691777854976
 30
0.0
 40
0.0223370169678612
 50
270.6727094438173822
 51
327.0566498421795245
  0
ARC
  5
9A8D
  8
0
 10
3325.1228409561608714
 20
293.860453091475506
 30
0.0
 40
0.072769019930687
 50
90.6410396539869083
 51
142.348646213056611
  0
ARC
  5
9A8E
  8
0
 10
3325.1114711984059795
 20
293.8719872806939861
 30
0.0
 40
0.0567635222377504
 50
144.5565314423432994
 51
186.6225824968333029
  0
LINE
  5
9A8F
  8
0
 10
3325.0550864371712123
 20
293.8654408192589926
 30
0.0
 11
3325.0579625365398897
 21
293.8414840044687253
 31
0.0
  0
ARC
  5
9A90
  8
0
 10
3325.1248654710148003
 20
293.8115579975677178
 30
0.0
 40
0.0853188157580601
 50
91.9066489761305405
 51
125.2459776787329986
  0
ARC
  5
9A91
  8
0
 10
3325.1053469207208764
 20
293.8434224180516026
 30
0.0
 40
0.048094144815246
 50
128.1637464582900066
 51
164.2581771271746902
  0
ARC
  5
9A92
  8
0
 10
3325.0979211305170793
 20
293.8461000931260969
 30
0.0
 40
0.0402243397345427
 50
165.0595828774025904
 51
186.5897012995523028
  0
ARC
  5
9A93
  8
0
 10
3325.1088946042327734
 20
293.8479381167272777
 30
0.0
 40
0.0513393716794718
 50
187.222029035095602
 51
226.3595012789969019
  0
ARC
  5
9A94
  8
0
 10
3325.1255934959781371
 20
293.8735650202270904
 30
0.0
 40
0.081602046088254
 50
230.2954048281279995
 51
267.4949048260621112
  0
ARC
  5
9A95
  8
0
 10
3325.1221331452920822
 20
293.8273781115764223
 30
0.0
 40
0.0230238032153533
 50
90.2646087770624348
 51
136.4284526165548925
  0
ARC
  5
9A96
  8
0
 10
3325.1151111349818166
 20
293.8349179579383872
 30
0.0
 40
0.0127545550090622
 50
139.2270098376490921
 51
204.9155463472887106
  0
ARC
  5
9A97
  8
0
 10
3325.1222890677418036
 20
293.841691777854976
 30
0.0
 40
0.0223370169678612
 50
212.9433501578203902
 51
269.3272905561826178
  0
ARC
  5
9A98
  8
0
 10
3324.9975134569781403
 20
293.958461850035178
 30
0.0
 40
0.072769019930687
 50
37.6513537869433819
 51
89.3589603460130775
  0
ARC
  5
9A99
  8
0
 10
3325.0088832147312132
 20
293.969996039253715
 30
0.0
 40
0.0567635222377504
 50
353.3774175031667255
 51
35.4434685576567432
  0
LINE
  5
9A9A
  8
0
 10
3325.0652679759659804
 20
293.9634495778187784
 30
0.0
 11
3325.0623918765982125
 21
293.939492763028511
 31
0.0
  0
ARC
  5
9A9B
  8
0
 10
3324.9954889421219377
 20
293.9095667561275036
 30
0.0
 40
0.0853188157580601
 50
54.754022321266973
 51
88.0933510238694737
  0
ARC
  5
9A9C
  8
0
 10
3325.0150074924172259
 20
293.9414311766113883
 30
0.0
 40
0.048094144815246
 50
15.7418228728252707
 51
51.8362535417099508
  0
ARC
  5
9A9D
  8
0
 10
3325.022433282621023
 20
293.9441088516858827
 30
0.0
 40
0.0402243397345427
 50
353.4102987004476972
 51
14.9404171225974007
  0
ARC
  5
9A9E
  8
0
 10
3325.0114598089048741
 20
293.9459468752870066
 30
0.0
 40
0.0513393716794718
 50
313.6404987210029844
 51
352.7779709649028064
  0
ARC
  5
9A9F
  8
0
 10
3324.9947609171599652
 20
293.9715737787868193
 30
0.0
 40
0.081602046088254
 50
272.5050951739377751
 51
309.7045951718719152
  0
ARC
  5
9AA0
  8
0
 10
3324.9982212678451106
 20
293.925386870136208
 30
0.0
 40
0.0230238032153533
 50
43.5715473834451075
 51
89.7353912229375652
  0
ARC
  5
9AA1
  8
0
 10
3325.0052432781549214
 20
293.9329267164981729
 30
0.0
 40
0.0127545550090622
 50
335.0844536527113178
 51
40.7729901623509008
  0
ARC
  5
9AA2
  8
0
 10
3324.9980653453958439
 20
293.9397005364148185
 30
0.0
 40
0.0223370169678612
 50
270.6727094438173822
 51
327.0566498421795245
  0
ARC
  5
9AA3
  8
0
 10
3324.9991417393589472
 20
293.958461850035178
 30
0.0
 40
0.072769019930687
 50
90.6410396539869083
 51
142.348646213056611
  0
ARC
  5
9AA4
  8
0
 10
3324.9877719816049648
 20
293.969996039253715
 30
0.0
 40
0.0567635222377504
 50
144.5565314423432994
 51
186.6225824968333029
  0
LINE
  5
9AA5
  8
0
 10
3324.9313872203701976
 20
293.9634495778187784
 30
0.0
 11
3324.934263319738875
 21
293.939492763028511
 31
0.0
  0
ARC
  5
9AA6
  8
0
 10
3325.0011662542137856
 20
293.9095667561275036
 30
0.0
 40
0.0853188157580601
 50
91.9066489761305405
 51
125.2459776787329986
  0
ARC
  5
9AA7
  8
0
 10
3324.9816477039189522
 20
293.9414311766113883
 30
0.0
 40
0.048094144815246
 50
128.1637464582900066
 51
164.2581771271746902
  0
ARC
  5
9AA8
  8
0
 10
3324.9742219137151551
 20
293.9441088516858827
 30
0.0
 40
0.0402243397345427
 50
165.0595828774025904
 51
186.5897012995523028
  0
ARC
  5
9AA9
  8
0
 10
3324.9851953874308492
 20
293.9459468752870066
 30
0.0
 40
0.0513393716794718
 50
187.222029035095602
 51
226.3595012789969019
  0
ARC
  5
9AAA
  8
0
 10
3325.0018942791762129
 20
293.9715737787868193
 30
0.0
 40
0.081602046088254
 50
230.2954048281279995
 51
267.4949048260621112
  0
ARC
  5
9AAB
  8
0
 10
3324.998433928491977
 20
293.925386870136208
 30
0.0
 40
0.0230238032153533
 50
90.2646087770624348
 51
136.4284526165548925
  0
ARC
  5
9AAC
  8
0
 10
3324.9914119181808019
 20
293.9329267164981729
 30
0.0
 40
0.0127545550090622
 50
139.2270098376490921
 51
204.9155463472887106
  0
ARC
  5
9AAD
  8
0
 10
3324.9985898509398794
 20
293.9397005364148185
 30
0.0
 40
0.0223370169678612
 50
212.9433501578203902
 51
269.3272905561826178
  0
ARC
  5
9AAE
  8
0
 10
3324.5874112158458047
 20
294.1266359268760198
 30
0.0
 40
0.072769019930687
 50
37.6513537869433819
 51
89.3589603460130775
  0
ARC
  5
9AAF
  8
0
 10
3324.5987809735997871
 20
294.1381701160944999
 30
0.0
 40
0.0567635222377504
 50
353.3774175031667255
 51
35.4434685576567432
  0
LINE
  5
9AB0
  8
0
 10
3324.6551657348350091
 20
294.1316236546595064
 30
0.0
 11
3324.6522896354658769
 21
294.1076668398691822
 31
0.0
  0
ARC
  5
9AB1
  8
0
 10
3324.5853867009918758
 20
294.0777408329682885
 30
0.0
 40
0.0853188157580601
 50
54.754022321266973
 51
88.0933510238694737
  0
ARC
  5
9AB2
  8
0
 10
3324.6049052512857997
 20
294.1096052534521164
 30
0.0
 40
0.048094144815246
 50
15.7418228728252707
 51
51.8362535417099508
  0
ARC
  5
9AB3
  8
0
 10
3324.6123310414891421
 20
294.1122829285267244
 30
0.0
 40
0.0402243397345427
 50
353.4102987004476972
 51
14.9404171225974007
  0
ARC
  5
9AB4
  8
0
 10
3324.6013575677739027
 20
294.1141209521277915
 30
0.0
 40
0.0513393716794718
 50
313.6404987210029844
 51
352.7779709649028064
  0
ARC
  5
9AB5
  8
0
 10
3324.5846586760289938
 20
294.1397478556274905
 30
0.0
 40
0.081602046088254
 50
272.5050951739377751
 51
309.7045951718719152
  0
ARC
  5
9AB6
  8
0
 10
3324.5881190267141392
 20
294.0935609469769929
 30
0.0
 40
0.0230238032153533
 50
43.5715473834451075
 51
89.7353912229375652
  0
ARC
  5
9AB7
  8
0
 10
3324.59514103702395
 20
294.101100793338901
 30
0.0
 40
0.0127545550090622
 50
335.0844536527113178
 51
40.7729901623509008
  0
ARC
  5
9AB8
  8
0
 10
3324.5879631042648725
 20
294.1078746132554897
 30
0.0
 40
0.0223370169678612
 50
270.6727094438173822
 51
327.0566498421795245
  0
ARC
  5
9AB9
  8
0
 10
3324.5890394982279759
 20
294.1266359268760198
 30
0.0
 40
0.072769019930687
 50
90.6410396539869083
 51
142.348646213056611
  0
ARC
  5
9ABA
  8
0
 10
3324.5776697404739934
 20
294.1381701160944999
 30
0.0
 40
0.0567635222377504
 50
144.5565314423432994
 51
186.6225824968333029
  0
LINE
  5
9ABB
  8
0
 10
3324.5212849792392262
 20
294.1316236546595064
 30
0.0
 11
3324.5241610786079036
 21
294.1076668398691822
 31
0.0
  0
ARC
  5
9ABC
  8
0
 10
3324.5910640130828142
 20
294.0777408329682885
 30
0.0
 40
0.0853188157580601
 50
91.9066489761305405
 51
125.2459776787329986
  0
ARC
  5
9ABD
  8
0
 10
3324.5715454627879808
 20
294.1096052534521164
 30
0.0
 40
0.048094144815246
 50
128.1637464582900066
 51
164.2581771271746902
  0
ARC
  5
9ABE
  8
0
 10
3324.5641196725841837
 20
294.1122829285267244
 30
0.0
 40
0.0402243397345427
 50
165.0595828774025904
 51
186.5897012995523028
  0
ARC
  5
9ABF
  8
0
 10
3324.5750931462989683
 20
294.1141209521277915
 30
0.0
 40
0.0513393716794718
 50
187.222029035095602
 51
226.3595012789969019
  0
ARC
  5
9AC0
  8
0
 10
3324.5917920380447868
 20
294.1397478556274905
 30
0.0
 40
0.081602046088254
 50
230.2954048281279995
 51
267.4949048260621112
  0
ARC
  5
9AC1
  8
0
 10
3324.5883316873610056
 20
294.0935609469769929
 30
0.0
 40
0.0230238032153533
 50
90.2646087770624348
 51
136.4284526165548925
  0
ARC
  5
9AC2
  8
0
 10
3324.5813096770498305
 20
294.101100793338901
 30
0.0
 40
0.0127545550090622
 50
139.2270098376490921
 51
204.9155463472887106
  0
ARC
  5
9AC3
  8
0
 10
3324.5884876098098175
 20
294.1078746132554897
 30
0.0
 40
0.0223370169678612
 50
212.9433501578203902
 51
269.3272905561826178
  0
ARC
  5
9AC4
  8
0
 10
3324.6475891829200009
 20
293.9818502460076957
 30
0.0
 40
0.072769019930687
 50
37.6513537869433819
 51
89.3589603460130775
  0
ARC
  5
9AC5
  8
0
 10
3324.6589589406748928
 20
293.9933844352261758
 30
0.0
 40
0.0567635222377504
 50
353.3774175031667255
 51
35.4434685576567432
  0
LINE
  5
9AC6
  8
0
 10
3324.7153437019092053
 20
293.9868379737911823
 30
0.0
 11
3324.7124676025400731
 21
293.962881159000915
 31
0.0
  0
ARC
  5
9AC7
  8
0
 10
3324.6455646680651626
 20
293.9329551521000212
 30
0.0
 40
0.0853188157580601
 50
54.754022321266973
 51
88.0933510238694737
  0
ARC
  5
9AC8
  8
0
 10
3324.665083218359996
 20
293.9648195725839059
 30
0.0
 40
0.048094144815246
 50
15.7418228728252707
 51
51.8362535417099508
  0
ARC
  5
9AC9
  8
0
 10
3324.672509008563793
 20
293.9674972476584003
 30
0.0
 40
0.0402243397345427
 50
353.4102987004476972
 51
14.9404171225974007
  0
ARC
  5
9ACA
  8
0
 10
3324.6615355348480989
 20
293.9693352712595242
 30
0.0
 40
0.0513393716794718
 50
313.6404987210029844
 51
352.7779709649028064
  0
ARC
  5
9ACB
  8
0
 10
3324.6448366431018258
 20
293.9949621747592801
 30
0.0
 40
0.081602046088254
 50
272.5050951739377751
 51
309.7045951718719152
  0
ARC
  5
9ACC
  8
0
 10
3324.6482969937878806
 20
293.9487752661087256
 30
0.0
 40
0.0230238032153533
 50
43.5715473834451075
 51
89.7353912229375652
  0
ARC
  5
9ACD
  8
0
 10
3324.6553190040990557
 20
293.9563151124705769
 30
0.0
 40
0.0127545550090622
 50
335.0844536527113178
 51
40.7729901623509008
  0
ARC
  5
9ACE
  8
0
 10
3324.6481410713390687
 20
293.9630889323872225
 30
0.0
 40
0.0223370169678612
 50
270.6727094438173822
 51
327.0566498421795245
  0
ARC
  5
9ACF
  8
0
 10
3324.6492174653021721
 20
293.9818502460076957
 30
0.0
 40
0.072769019930687
 50
90.6410396539869083
 51
142.348646213056611
  0
ARC
  5
9AD0
  8
0
 10
3324.6378477075481896
 20
293.9933844352261758
 30
0.0
 40
0.0567635222377504
 50
144.5565314423432994
 51
186.6225824968333029
  0
LINE
  5
9AD1
  8
0
 10
3324.5814629463129677
 20
293.9868379737911823
 30
0.0
 11
3324.5843390456820998
 21
293.962881159000915
 31
0.0
  0
ARC
  5
9AD2
  8
0
 10
3324.6512419801570104
 20
293.9329551521000212
 30
0.0
 40
0.0853188157580601
 50
91.9066489761305405
 51
125.2459776787329986
  0
ARC
  5
9AD3
  8
0
 10
3324.631723429862177
 20
293.9648195725839059
 30
0.0
 40
0.048094144815246
 50
128.1637464582900066
 51
164.2581771271746902
  0
ARC
  5
9AD4
  8
0
 10
3324.6242976396588347
 20
293.9674972476584003
 30
0.0
 40
0.0402243397345427
 50
165.0595828774025904
 51
186.5897012995523028
  0
ARC
  5
9AD5
  8
0
 10
3324.635271113374074
 20
293.9693352712595242
 30
0.0
 40
0.0513393716794718
 50
187.222029035095602
 51
226.3595012789969019
  0
ARC
  5
9AD6
  8
0
 10
3324.651970005118983
 20
293.9949621747592801
 30
0.0
 40
0.081602046088254
 50
230.2954048281279995
 51
267.4949048260621112
  0
ARC
  5
9AD7
  8
0
 10
3324.6485096544338376
 20
293.9487752661087256
 30
0.0
 40
0.0230238032153533
 50
90.2646087770624348
 51
136.4284526165548925
  0
ARC
  5
9AD8
  8
0
 10
3324.6414876441240267
 20
293.9563151124705769
 30
0.0
 40
0.0127545550090622
 50
139.2270098376490921
 51
204.9155463472887106
  0
ARC
  5
9AD9
  8
0
 10
3324.6486655768840137
 20
293.9630889323872225
 30
0.0
 40
0.0223370169678612
 50
212.9433501578203902
 51
269.3272905561826178
  0
ARC
  5
9ADA
  8
0
 10
3324.7088816709360799
 20
293.8682492234661936
 30
0.0
 40
0.072769019930687
 50
37.6513537869433819
 51
89.3589603460130775
  0
ARC
  5
9ADB
  8
0
 10
3324.7202514286900623
 20
293.8797834126847874
 30
0.0
 40
0.0567635222377504
 50
353.3774175031667255
 51
35.4434685576567432
  0
LINE
  5
9ADC
  8
0
 10
3324.7766361899261938
 20
293.8732369512499076
 30
0.0
 11
3324.7737600905561521
 21
293.8492801364595266
 31
0.0
  0
ARC
  5
9ADD
  8
0
 10
3324.7068571560798773
 20
293.8193541295585192
 30
0.0
 40
0.0853188157580601
 50
54.754022321266973
 51
88.0933510238694737
  0
ARC
  5
9ADE
  8
0
 10
3324.726375706376075
 20
293.8512185500424039
 30
0.0
 40
0.048094144815246
 50
15.7418228728252707
 51
51.8362535417099508
  0
ARC
  5
9ADF
  8
0
 10
3324.7338014965789625
 20
293.8538962251170119
 30
0.0
 40
0.0402243397345427
 50
353.4102987004476972
 51
14.9404171225974007
  0
ARC
  5
9AE0
  8
0
 10
3324.7228280228641779
 20
293.855734248718079
 30
0.0
 40
0.0513393716794718
 50
313.6404987210029844
 51
352.7779709649028064
  0
ARC
  5
9AE1
  8
0
 10
3324.7061291311188143
 20
293.881361152217778
 30
0.0
 40
0.081602046088254
 50
272.5050951739377751
 51
309.7045951718719152
  0
ARC
  5
9AE2
  8
0
 10
3324.7095894818039596
 20
293.8351742435672804
 30
0.0
 40
0.0230238032153533
 50
43.5715473834451075
 51
89.7353912229375652
  0
ARC
  5
9AE3
  8
0
 10
3324.7166114921142253
 20
293.8427140899293022
 30
0.0
 40
0.0127545550090622
 50
335.0844536527113178
 51
40.7729901623509008
  0
ARC
  5
9AE4
  8
0
 10
3324.7094335593537835
 20
293.8494879098457773
 30
0.0
 40
0.0223370169678612
 50
270.6727094438173822
 51
327.0566498421795245
  0
ARC
  5
9AE5
  8
0
 10
3324.7105099533168868
 20
293.8682492234661936
 30
0.0
 40
0.072769019930687
 50
141.1920788048066981
 51
142.348646213056611
  0
ARC
  5
9AE6
  8
0
 10
3324.7105099533168868
 20
293.8682492234661936
 30
0.0
 40
0.072769019930687
 50
90.6410396539869083
 51
94.9939436498673331
  0
ARC
  5
9AE7
  8
0
 10
3324.6991401955629044
 20
293.8797834126847874
 30
0.0
 40
0.0567635222377504
 50
144.5565314423432994
 51
186.6225824968333029
  0
LINE
  5
9AE8
  8
0
 10
3324.6427554343290467
 20
293.8732369512499076
 30
0.0
 11
3324.6456315336968146
 21
293.8492801364595266
 31
0.0
  0
ARC
  5
9AE9
  8
0
 10
3324.7125344681730894
 20
293.8193541295585192
 30
0.0
 40
0.0853188157580601
 50
91.9066489761305405
 51
125.2459776787329986
  0
ARC
  5
9AEA
  8
0
 10
3324.6930159178778013
 20
293.8512185500424039
 30
0.0
 40
0.048094144815246
 50
128.1637464582900066
 51
164.2581771271746902
  0
ARC
  5
9AEB
  8
0
 10
3324.6855901276740042
 20
293.8538962251170119
 30
0.0
 40
0.0402243397345427
 50
165.0595828774025904
 51
186.5897012995523028
  0
ARC
  5
9AEC
  8
0
 10
3324.6965636013887888
 20
293.855734248718079
 30
0.0
 40
0.0513393716794718
 50
187.222029035095602
 51
226.3595012789969019
  0
ARC
  5
9AED
  8
0
 10
3324.713262493135062
 20
293.881361152217778
 30
0.0
 40
0.081602046088254
 50
230.2954048281279995
 51
267.4949048260621112
  0
ARC
  5
9AEE
  8
0
 10
3324.7098021424499166
 20
293.8351742435672804
 30
0.0
 40
0.0230238032153533
 50
90.2646087770624348
 51
136.4284526165548925
  0
ARC
  5
9AEF
  8
0
 10
3324.7027801321401057
 20
293.8427140899293022
 30
0.0
 40
0.0127545550090622
 50
139.2270098376490921
 51
204.9155463472887106
  0
ARC
  5
9AF0
  8
0
 10
3324.7099580648991832
 20
293.8494879098457773
 30
0.0
 40
0.0223370169678612
 50
212.9433501578203902
 51
269.3272905561826178
  0
ARC
  5
9AF1
  8
0
 10
3324.7679453972400552
 20
293.7557618968197062
 30
0.0
 40
0.072769019930687
 50
37.6513537869433819
 51
89.3589603460130775
  0
ARC
  5
9AF2
  8
0
 10
3324.7793151549940376
 20
293.7672960860381863
 30
0.0
 40
0.0567635222377504
 50
353.3774175031667255
 51
35.4434685576567432
  0
LINE
  5
9AF3
  8
0
 10
3324.8356999162278953
 20
293.7607496246031928
 30
0.0
 11
3324.8328238168601274
 21
293.7367928098129255
 31
0.0
  0
ARC
  5
9AF4
  8
0
 10
3324.7659208823838526
 20
293.7068668029119181
 30
0.0
 40
0.0853188157580601
 50
54.754022321266973
 51
88.0933510238694737
  0
ARC
  5
9AF5
  8
0
 10
3324.7854394326791407
 20
293.7387312233958028
 30
0.0
 40
0.048094144815246
 50
15.7418228728252707
 51
51.8362535417099508
  0
ARC
  5
9AF6
  8
0
 10
3324.7928652228829378
 20
293.7414088984704108
 30
0.0
 40
0.0402243397345427
 50
353.4102987004476972
 51
14.9404171225974007
  0
ARC
  5
9AF7
  8
0
 10
3324.7818917491681532
 20
293.7432469220714779
 30
0.0
 40
0.0513393716794718
 50
313.6404987210029844
 51
352.7779709649028064
  0
ARC
  5
9AF8
  8
0
 10
3324.76519285742188
 20
293.7688738255711769
 30
0.0
 40
0.081602046088254
 50
272.5050951739377751
 51
309.7045951718719152
  0
ARC
  5
9AF9
  8
0
 10
3324.7686532081070254
 20
293.7226869169206793
 30
0.0
 40
0.0230238032153533
 50
43.5715473834451075
 51
89.7353912229375652
  0
ARC
  5
9AFA
  8
0
 10
3324.7756752184182005
 20
293.7302267632825874
 30
0.0
 40
0.0127545550090622
 50
335.0844536527113178
 51
40.7729901623509008
  0
ARC
  5
9AFB
  8
0
 10
3324.7684972856582135
 20
293.7370005831991762
 30
0.0
 40
0.0223370169678612
 50
270.6727094438173822
 51
327.0566498421795245
  0
ARC
  5
9AFC
  8
0
 10
3324.7695736796222263
 20
293.7557618968197062
 30
0.0
 40
0.072769019930687
 50
90.6410396539869083
 51
92.560889349145512
  0
ARC
  5
9AFD
  8
0
 10
3324.7582039218668797
 20
293.7672960860381863
 30
0.0
 40
0.0567635222377504
 50
144.5565314423432994
 51
186.6225824968333029
  0
LINE
  5
9AFE
  8
0
 10
3324.7018191606321125
 20
293.7607496246031928
 30
0.0
 11
3324.7046952600021541
 21
293.7367928098129255
 31
0.0
  0
ARC
  5
9AFF
  8
0
 10
3324.7715981944770647
 20
293.7068668029119181
 30
0.0
 40
0.0853188157580601
 50
91.9066489761305405
 51
125.2459776787329986
  0
ARC
  5
9B00
  8
0
 10
3324.752079644180867
 20
293.7387312233958028
 30
0.0
 40
0.048094144815246
 50
128.1637464582900066
 51
164.2581771271746902
  0
ARC
  5
9B01
  8
0
 10
3324.7446538539779795
 20
293.7414088984704108
 30
0.0
 40
0.0402243397345427
 50
165.0595828774025904
 51
186.5897012995523028
  0
ARC
  5
9B02
  8
0
 10
3324.7556273276932188
 20
293.7432469220714779
 30
0.0
 40
0.0513393716794718
 50
187.222029035095602
 51
226.3595012789969019
  0
ARC
  5
9B03
  8
0
 10
3324.7723262194381277
 20
293.7688738255711769
 30
0.0
 40
0.081602046088254
 50
230.2954048281279995
 51
267.4949048260621112
  0
ARC
  5
9B04
  8
0
 10
3324.7688658687538918
 20
293.7226869169206793
 30
0.0
 40
0.0230238032153533
 50
90.2646087770624348
 51
136.4284526165548925
  0
ARC
  5
9B05
  8
0
 10
3324.7618438584431715
 20
293.7302267632825874
 30
0.0
 40
0.0127545550090622
 50
139.2270098376490921
 51
204.9155463472887106
  0
ARC
  5
9B06
  8
0
 10
3324.7690217912031585
 20
293.7370005831991762
 30
0.0
 40
0.0223370169678612
 50
212.9433501578203902
 51
269.3272905561826178
  0
LINE
  5
9B07
  8
0
 10
3320.6741985862508955
 20
270.189110430608082
 30
0.0
 11
3320.6741985862508955
 21
258.9951247575667139
 31
0.0
  0
LINE
  5
9B08
  8
0
 10
3320.1229824440638367
 20
270.189110430608082
 30
0.0
 11
3320.126225174704814
 21
258.8412265368816065
 31
0.0
  0
ARC
  5
9B09
  8
0
 10
3323.1015022770548057
 20
258.8716465342138804
 30
0.0
 40
2.9754326092197401
 50
180.5857863556549034
 51
234.5431844819341052
  0
ARC
  5
9B0A
  8
0
 10
3322.4098794887909207
 20
258.1613680681904839
 30
0.0
 40
2.0332326004909791
 50
270.9983754649273919
 51
317.7970069973220006
  0
ARC
  5
9B0B
  8
0
 10
3321.9870286847371972
 20
258.6708555755515135
 30
0.0
 40
2.6903408800623718
 50
315.8083584451268848
 51
2.1461484615858462
  0
ARC
  5
9B0C
  8
0
 10
3323.185456010443886
 20
258.8975079662292273
 30
0.0
 40
2.5131539723054068
 50
177.7739376242585081
 51
226.0672881910221008
  0
ARC
  5
9B0D
  8
0
 10
3322.4296761946861807
 20
258.1130334465564147
 30
0.0
 40
1.4238407015138179
 50
226.0672881910221008
 51
298.9727760614276804
  0
ARC
  5
9B0E
  8
0
 10
3322.0113729944009719
 20
258.6667483596556281
 30
0.0
 40
2.1131431748923779
 50
301.623746250269221
 51
359.2013900626171221
  0
LINE
  5
9B10
  8
0
 10
3319.9686245121511092
 20
271.2116247314081079
 30
0.0
 11
3319.9686245121511092
 21
270.8572940227081176
 31
0.0
  0
LINE
  5
9B11
  8
0
 10
3319.9795621140510775
 20
271.2116247314081079
 30
0.0
 11
3319.9795621140510775
 21
270.8572940227081176
 31
0.0
  0
LINE
  5
9B12
  8
0
 10
3319.9925412881511875
 20
271.2116247314081079
 30
0.0
 11
3319.9925412881511875
 21
270.8572940227081176
 31
0.0
  0
LINE
  5
9B13
  8
0
 10
3320.0074988012511312
 20
271.2116247314081079
 30
0.0
 11
3320.0074988012511312
 21
270.8572940227081176
 31
0.0
  0
LINE
  5
9B14
  8
0
 10
3320.0243617817509403
 20
271.2116247314081079
 30
0.0
 11
3320.0243617817509403
 21
270.8572940227081176
 31
0.0
  0
LINE
  5
9B15
  8
0
 10
3320.0430480749510025
 20
271.2116247314081079
 30
0.0
 11
3320.0430480749510025
 21
270.8572940227081176
 31
0.0
  0
LINE
  5
9B16
  8
0
 10
3320.0634666430510151
 20
271.2116247314081079
 30
0.0
 11
3320.0634666430510151
 21
270.8572940227081176
 31
0.0
  0
LINE
  5
9B17
  8
0
 10
3320.0855180088510679
 20
271.2116247314081079
 30
0.0
 11
3320.0855180088510679
 21
270.8572940227081176
 31
0.0
  0
LINE
  5
9B18
  8
0
 10
3320.1090947403508835
 20
271.2116247314081079
 30
0.0
 11
3320.1090947403508835
 21
270.8572940227081176
 31
0.0
  0
LINE
  5
9B19
  8
0
 10
3320.1340819741508312
 20
271.2116247314081079
 30
0.0
 11
3320.1340819741508312
 21
270.8572940227081176
 31
0.0
  0
LINE
  5
9B1A
  8
0
 10
3320.1603579748511947
 20
271.2116247314081079
 30
0.0
 11
3320.1603579748511947
 21
270.8572940227081176
 31
0.0
  0
LINE
  5
9B1B
  8
0
 10
3320.1843185568509398
 20
271.2116247314081079
 30
0.0
 11
3320.1843185568509398
 21
270.8572940227081176
 31
0.0
  0
LINE
  5
9B1C
  8
0
 10
3320.2126619302512154
 20
271.2116247314081079
 30
0.0
 11
3320.2126619302512154
 21
270.8572940227081176
 31
0.0
  0
LINE
  5
9B1D
  8
0
 10
3320.2419112368511378
 20
271.2116247314081079
 30
0.0
 11
3320.2419112368511378
 21
270.8572940227081176
 31
0.0
  0
LINE
  5
9B1E
  8
0
 10
3320.271923977150891
 20
271.2116247314081079
 30
0.0
 11
3320.271923977150891
 21
270.8572940227081176
 31
0.0
  0
LINE
  5
9B1F
  8
0
 10
3320.3025539319510244
 20
271.2116247314081079
 30
0.0
 11
3320.3025539319510244
 21
270.8572940227081176
 31
0.0
  0
LINE
  5
9B20
  8
0
 10
3320.3233095407508699
 20
271.2116247314081079
 30
0.0
 11
3320.3233095407508699
 21
270.8572940227081176
 31
0.0
  0
LINE
  5
9B21
  8
0
 10
3320.3532835405508195
 20
271.2116247314081079
 30
0.0
 11
3320.3532835405508195
 21
270.8572940227081176
 31
0.0
  0
LINE
  5
9B22
  8
0
 10
3320.3834783794509349
 20
271.2116247314081079
 30
0.0
 11
3320.3834783794509349
 21
270.8572940227081176
 31
0.0
  0
LINE
  5
9B23
  8
0
 10
3320.4005811691508825
 20
271.2116247314081079
 30
0.0
 11
3320.4005811691508825
 21
270.8572940227081176
 31
0.0
  0
LINE
  5
9B24
  8
0
 10
3320.4282316118510607
 20
271.2116247314081079
 30
0.0
 11
3320.4282316118510607
 21
270.8572940227081176
 31
0.0
  0
LINE
  5
9B25
  8
0
 10
3320.4596747619511916
 20
271.2116247314081079
 30
0.0
 11
3320.4596747619511916
 21
270.8572940227081176
 31
0.0
  0
LINE
  5
9B26
  8
0
 10
3320.486134126188972
 20
271.2116247314081079
 30
0.0
 11
3320.486134126188972
 21
270.8572940227081176
 31
0.0
  0
LINE
  5
9B27
  8
0
 10
3320.5215168583508785
 20
271.2116247314081079
 30
0.0
 11
3320.5215168583508785
 21
270.8572940227081176
 31
0.0
  0
LINE
  5
9B28
  8
0
 10
3320.5553140934498515
 20
271.2116247314081079
 30
0.0
 11
3320.5553140934498515
 21
270.8572940227081176
 31
0.0
  0
LINE
  5
9B29
  8
0
 10
3320.5845634001511826
 20
271.2116247314081079
 30
0.0
 11
3320.5845634001511826
 21
270.8572940227081176
 31
0.0
  0
LINE
  5
9B2A
  8
0
 10
3320.6094306018508178
 20
271.2116247314081079
 30
0.0
 11
3320.6094306018508178
 21
270.8572940227081176
 31
0.0
  0
LINE
  5
9B2B
  8
0
 10
3320.6368673554511588
 20
271.2116247314081079
 30
0.0
 11
3320.6368673554511588
 21
270.8572940227081176
 31
0.0
  0
LINE
  5
9B2C
  8
0
 10
3320.6631433561510676
 20
271.2116247314081079
 30
0.0
 11
3320.6631433561510676
 21
270.8572940227081176
 31
0.0
  0
LINE
  5
9B2D
  8
0
 10
3320.6881305899510153
 20
271.2116247314081079
 30
0.0
 11
3320.6881305899510153
 21
270.8572940227081176
 31
0.0
  0
LINE
  5
9B2E
  8
0
 10
3320.7117073214508309
 20
271.2116247314081079
 30
0.0
 11
3320.7117073214508309
 21
270.8572940227081176
 31
0.0
  0
LINE
  5
9B2F
  8
0
 10
3320.7337586873509281
 20
271.2116247314081079
 30
0.0
 11
3320.7337586873509281
 21
270.8572940227081176
 31
0.0
  0
LINE
  5
9B30
  8
0
 10
3320.7541772554509407
 20
271.2116247314081079
 30
0.0
 11
3320.7541772554509407
 21
270.8572940227081176
 31
0.0
  0
LINE
  5
9B31
  8
0
 10
3320.7728635486510029
 20
271.2116247314081079
 30
0.0
 11
3320.7728635486510029
 21
270.8572940227081176
 31
0.0
  0
LINE
  5
9B32
  8
0
 10
3320.7897265290512223
 20
271.2116247314081079
 30
0.0
 11
3320.7897265290512223
 21
270.8572940227081176
 31
0.0
  0
LINE
  5
9B33
  8
0
 10
3320.8046840421511661
 20
271.2116247314081079
 30
0.0
 11
3320.8046840421511661
 21
270.8572940227081176
 31
0.0
  0
LINE
  5
9B34
  8
0
 10
3320.8176632162508213
 20
271.2116247314081079
 30
0.0
 11
3320.8176632162508213
 21
270.8572940227081176
 31
0.0
  0
LINE
  5
9B35
  8
0
 10
3320.828600818250834
 20
271.2116247314081079
 30
0.0
 11
3320.828600818250834
 21
270.8572940227081176
 31
0.0
  0
LINE
  5
9B36
  8
0
 10
3320.8374435611508488
 20
271.2116247314081079
 30
0.0
 11
3320.8374435611508488
 21
270.8572940227081176
 31
0.0
  0
LINE
  5
9B37
  8
0
 10
3320.8441483640508523
 20
271.2116247314081079
 30
0.0
 11
3320.8441483640508523
 21
270.8572940227081176
 31
0.0
  0
LINE
  5
9B38
  8
0
 10
3319.9588293208507821
 20
271.2116247314081079
 30
0.0
 11
3319.9588293208507821
 21
270.8572940227081176
 31
0.0
  0
LINE
  5
9B39
  8
0
 10
3319.953076966351091
 20
271.2116247314081079
 30
0.0
 11
3319.953076966351091
 21
270.8572940227081176
 31
0.0
  0
ARC
  5
9B3A
  8
0
 10
3324.3542075138580003
 20
293.9534286033522221
 30
0.0
 40
2.5600377680934812
 50
67.2923401069751037
 51
89.0061280061005533
  0
ARC
  5
9B3B
  8
0
 10
3322.4737908595279805
 20
258.1743796192328091
 30
0.0
 40
2.046133759477891
 50
237.5359174835130034
 51
269.2023602095345041
  0
LINE
  5
9B3C
  8
0
 10
3320.8720076208510363
 20
271.3100499281081284
 30
0.0
 11
3319.9261717202512045
 21
271.3100499281081284
 31
0.0
  0
ENDSEC
  0
EOF
