  0
SECTION
  2
HEADER
  9
$ACADVER
  1
AC1009
  9
$INSBASE
 10
3947.2393261160259499
 20
61.2224949150247966
 30
0.0
  9
$EXTMIN
 10
3935.4428890743070042
 20
56.809144521216048
 30
0.0
  9
$EXTMAX
 10
3955.6177825453551122
 20
67.3850458555132263
 30
0.0
  9
$LIMMIN
 10
0.0
 20
0.0
  9
$LIMMAX
 10
11.6929133858000007
 20
8.2677165353999982
  9
$ORTHOMODE
 70
     0
  9
$REGENMODE
 70
     1
  9
$FILLMODE
 70
     1
  9
$QTEXTMODE
 70
     0
  9
$MIRRTEXT
 70
     0
  9
$DRAGMODE
 70
     2
  9
$LTSCALE
 40
0.6431102362
  9
$OSMODE
 70
  4095
  9
$ATTMODE
 70
     1
  9
$TEXTSIZE
 40
0.2
  9
$TRACEWID
 40
0.05
  9
$TEXTSTYLE
  7
STANDARD
  9
$CLAYER
  8
0
  9
$CELTYPE
  6
BYLAYER
  9
$CECOLOR
 62
   256
  9
$DIMSCALE
 40
1.0
  9
$DIMASZ
 40
0.1875
  9
$DIMEXO
 40
0.0625
  9
$DIMDLI
 40
0.4443307087
  9
$DIMRND
 40
0.0
  9
$DIMDLE
 40
0.0
  9
$DIMEXE
 40
0.125
  9
$DIMTP
 40
0.01
  9
$DIMTM
 40
0.01
  9
$DIMTXT
 40
2.0
  9
$DIMCEN
 40
0.1052362205
  9
$DIMTSZ
 40
0.0
  9
$DIMTOL
 70
     1
  9
$DIMLIM
 70
     0
  9
$DIMTIH
 70
     1
  9
$DIMTOH
 70
     1
  9
$DIMSE1
 70
     0
  9
$DIMSE2
 70
     0
  9
$DIMTAD
 70
     0
  9
$DIMZIN
 70
     0
  9
$DIMBLK
  1

  9
$DIMASO
 70
     1
  9
$DIMSHO
 70
     1
  9
$DIMPOST
  1
\X
  9
$DIMAPOST
  1

  9
$DIMALT
 70
     1
  9
$DIMALTD
 70
     2
  9
$DIMALTF
 40
25.3999999999999986
  9
$DIMLFAC
 40
1.0
  9
$DIMTOFL
 70
     0
  9
$DIMTVP
 40
0.0
  9
$DIMTIX
 70
     0
  9
$DIMSOXD
 70
     0
  9
$DIMSAH
 70
     0
  9
$DIMBLK1
  1

  9
$DIMBLK2
  1

  9
$DIMSTYLE
  2
STANDARD
  9
$DIMCLRD
 70
     0
  9
$DIMCLRE
 70
     0
  9
$DIMCLRT
 70
     0
  9
$DIMTFAC
 40
1.0
  9
$DIMGAP
 40
0.09
  9
$LUNITS
 70
     2
  9
$LUPREC
 70
     4
  9
$SKETCHINC
 40
0.1
  9
$FILLETRAD
 40
0.0
  9
$AUNITS
 70
     0
  9
$AUPREC
 70
     0
  9
$MENU
  1
.
  9
$ELEVATION
 40
0.0
  9
$PELEVATION
 40
0.0
  9
$THICKNESS
 40
0.0
  9
$LIMCHECK
 70
     0
  9
$BLIPMODE
 70
     0
  9
$CHAMFERA
 40
0.0
  9
$CHAMFERB
 40
0.0
  9
$SKPOLY
 70
     0
  9
$TDCREATE
 40
2458060.468368056230247
  9
$TDUPDATE
 40
2459101.460775462910533
  9
$TDINDWG
 40
0.4135950231
  9
$TDUSRTIMER
 40
0.4135950231
  9
$USRTIMER
 70
     1
  9
$ANGBASE
 50
0.0
  9
$ANGDIR
 70
     0
  9
$PDMODE
 70
     0
  9
$PDSIZE
 40
0.3125
  9
$PLINEWID
 40
0.0
  9
$COORDS
 70
     1
  9
$SPLFRAME
 70
     0
  9
$SPLINETYPE
 70
     6
  9
$SPLINESEGS
 70
     8
  9
$ATTDIA
 70
     1
  9
$ATTREQ
 70
     1
  9
$HANDLING
 70
     1
  9
$HANDSEED
  5
75F0
  9
$SURFTAB1
 70
     6
  9
$SURFTAB2
 70
     6
  9
$SURFTYPE
 70
     6
  9
$SURFU
 70
     6
  9
$SURFV
 70
     6
  9
$UCSNAME
  2

  9
$UCSORG
 10
0.0
 20
0.0
 30
0.0
  9
$UCSXDIR
 10
1.0
 20
0.0
 30
0.0
  9
$UCSYDIR
 10
0.0
 20
1.0
 30
0.0
  9
$PUCSNAME
  2

  9
$PUCSORG
 10
0.0
 20
0.0
 30
0.0
  9
$PUCSXDIR
 10
1.0
 20
0.0
 30
0.0
  9
$PUCSYDIR
 10
0.0
 20
1.0
 30
0.0
  9
$USERI1
 70
     0
  9
$USERI2
 70
     0
  9
$USERI3
 70
     0
  9
$USERI4
 70
     0
  9
$USERI5
 70
     0
  9
$USERR1
 40
0.0
  9
$USERR2
 40
0.0
  9
$USERR3
 40
0.0
  9
$USERR4
 40
0.0
  9
$USERR5
 40
0.0
  9
$WORLDVIEW
 70
     1
  9
$SHADEDGE
 70
     3
  9
$SHADEDIF
 70
    70
  9
$TILEMODE
 70
     1
  9
$MAXACTVP
 70
    64
  9
$PLIMCHECK
 70
     0
  9
$PEXTMIN
 10
1.0000000000000000E+20
 20
1.0000000000000000E+20
 30
1.0000000000000000E+20
  9
$PEXTMAX
 10
-1.0000000000000000E+20
 20
-1.0000000000000000E+20
 30
-1.0000000000000000E+20
  9
$PLIMMIN
 10
0.0
 20
0.0
  9
$PLIMMAX
 10
12.0
 20
9.0
  9
$UNITMODE
 70
     0
  9
$VISRETAIN
 70
     1
  9
$PLINEGEN
 70
     0
  9
$PSLTSCALE
 70
     1
  0
ENDSEC
  0
SECTION
  2
TABLES
  0
TABLE
  2
VPORT
 70
     1
  0
VPORT
  2
*ACTIVE
 70
     0
 10
0.0
 20
0.0
 11
1.0
 21
1.0
 12
156.1165214743699892
 22
-63.0736138705582192
 13
0.0
 23
0.0
 14
1.0
 24
1.0
 15
0.0
 25
0.0
 16
0.0
 26
0.0
 36
5.1040778033513332
 17
3792.35791015625
 27
120.1806564331053977
 37
0.0
 40
28.5142385639345797
 41
2.005224660397074
 42
50.0
 43
0.0
 44
0.0
 50
0.0
 51
0.0
 71
     0
 72
   100
 73
     1
 74
     1
 75
     0
 76
     0
 77
     0
 78
     0
  0
ENDTAB
  0
TABLE
  2
LTYPE
 70
     2
  0
LTYPE
  2
CONTINUOUS
 70
     0
  3
Solid line
 72
    65
 73
     0
 40
0.0
  0
LTYPE
  2
PHANTOM2
 70
     0
  3
___ _ _ ___ _ _ ___ _ _ ___ _ _
 72
    65
 73
     6
 40
1.25
 49
0.625
 49
-0.125
 49
0.125
 49
-0.125
 49
0.125
 49
-0.125
  0
ENDTAB
  0
TABLE
  2
LAYER
 70
     2
  0
LAYER
  2
0
 70
     0
 62
   255
  6
CONTINUOUS
  0
LAYER
  2
DEFPOINTS
 70
     0
 62
     7
  6
CONTINUOUS
  0
ENDTAB
  0
TABLE
  2
STYLE
 70
     1
  0
STYLE
  2
STANDARD
 70
     0
 40
0.0
 41
0.8
 50
0.0
 71
     0
 42
0.2
  3
txt
  4

  0
ENDTAB
  0
TABLE
  2
VIEW
 70
     0
  0
ENDTAB
  0
TABLE
  2
UCS
 70
     0
  0
ENDTAB
  0
TABLE
  2
APPID
 70
     9
  0
APPID
  2
ACAD
 70
     0
  0
APPID
  2
ACAD_MLEADERVER
 70
     0
  0
APPID
  2
ACAD_EXEMPT_FROM_CAD_STANDARDS
 70
     0
  0
APPID
  2
ACAD_NAV_VCDISPLAY
 70
     0
  0
APPID
  2
ACAECLAYERSTANDARD
 70
     0
  0
APPID
  2
ACCMTRANSPARENCY
 70
     0
  0
APPID
  2
ACAD_DSTYLE_DIMJAG
 70
     0
  0
APPID
  2
ACAD_DSTYLE_DIMTALN
 70
     0
  0
APPID
  2
ACDBATTR
 70
     0
  0
ENDTAB
  0
TABLE
  2
DIMSTYLE
 70
     1
  0
DIMSTYLE
  2
STANDARD
 70
     0
  3

  4

  5

  6

  7

 40
1.0
 41
0.1875
 42
0.0625
 43
0.38
 44
0.125
 45
0.0
 46
0.0
 47
0.01
 48
0.01
140
0.15625
141
0.09
142
0.0
143
25.3999999999999986
144
1.0
145
0.0
146
1.0
147
0.09
 71
     1
 72
     0
 73
     1
 74
     1
 75
     0
 76
     0
 77
     0
 78
     4
170
     0
171
     2
172
     0
173
     0
174
     0
175
     0
176
     0
177
     0
178
     0
  0
ENDTAB
  0
ENDSEC
  0
SECTION
  2
BLOCKS
  0
BLOCK
  8
0
  2
$MODEL_SPACE
 70
     0
 10
0.0
 20
0.0
 30
0.0
  3
$MODEL_SPACE
  1

  0
ENDBLK
  5
21
  8
0
  0
BLOCK
 67
     1
  8
0
  2
$PAPER_SPACE
 70
     0
 10
0.0
 20
0.0
 30
0.0
  3
$PAPER_SPACE
  1

  0
ENDBLK
  5
1D
 67
     1
  8
0
  0
BLOCK
  8
0
  2
_FILLED
 70
     0
 10
0.0
 20
0.0
 30
0.0
  3
_FILLED
  1

  0
SOLID
  5
69B4
  8
0
  6
BYBLOCK
 62
     0
 10
0.0
 20
0.0
 30
0.0
 11
-1.0
 21
0.1666666667
 31
0.0
 12
-1.0
 22
-0.1666666667
 32
0.0
 13
-1.0
 23
-0.1666666667
 33
0.0
  0
ENDBLK
  5
69B5
  8
0
  6
BYBLOCK
 62
     0
  0
BLOCK
  8
0
  2
A$CDFAF6206
 70
     0
 10
0.0
 20
0.0
 30
0.0
  3
A$CDFAF6206
  1

  0
LINE
  5
6A0E
  8
0
 10
7.4646650085734834
 20
10.9287685970688493
 30
0.0
 11
7.4646650085734896
 21
10.8905784766688498
 31
0.0
  0
ARC
  5
6A0F
  8
0
 10
7.7269027075262349
 20
10.8926811525838598
 30
0.0
 40
0.2622461286616791
 50
180.4593995232625048
 51
217.0214027758331099
  0
LINE
  5
6A10
  8
0
 10
9.767814609867095
 20
10.9287685970688493
 30
0.0
 11
9.767814609867095
 21
10.8905433757650094
 31
0.0
  0
ARC
  5
6A11
  8
0
 10
9.5068669568548287
 20
10.8922438613003703
 30
0.0
 40
0.2609531936261092
 50
322.8847083717149076
 51
359.6266329125650145
  0
LINE
  5
6A12
  8
0
 10
7.517522606271406
 20
10.7347792678688396
 30
0.0
 11
9.7149570120691777
 21
10.7347792678688396
 31
0.0
  0
LINE
  5
6A13
  8
0
 10
7.4646650085734834
 20
10.9287685970688493
 30
0.0
 11
9.7678146123202936
 21
10.9287685970688493
 31
0.0
  0
ARC
  5
6A14
  8
0
 10
4.0826771419203629
 20
8.527951346868889
 30
0.0
 40
4.0826771653999172
 50
13.3117747050523896
 51
32.7200330051415591
  0
ARC
  5
6A15
  8
0
 10
4.0826771460567306
 20
8.5279513475907933
 30
0.0
 40
4.0826771612084691
 50
359.6656501984817851
 51
13.3117747085593798
  0
ARC
  5
6A16
  8
0
 10
13.1498041284835097
 20
8.5279508235212234
 30
0.0
 40
4.0826788382043553
 50
147.2799733478981068
 51
166.6882233021349862
  0
ARC
  5
6A17
  8
0
 10
13.1498064934207992
 20
8.5279506557033251
 30
0.0
 40
4.0826811782395342
 50
166.688228652086309
 51
180.3343397625230011
  0
LINE
  5
6A18
  8
0
 10
8.1652847935202928
 20
8.504127000268852
 30
0.0
 11
9.0671948248202892
 21
8.5041270002687881
 31
0.0
  0
LINE
  5
6A19
  8
0
 10
8.1652847935202786
 20
8.5041270002667204
 30
0.0
 11
8.1652847935202928
 21
8.3607006934688481
 31
0.0
  0
ARC
  5
6A1A
  8
0
 10
5.6196779630382627
 20
8.3631022096452732
 30
0.0
 40
2.545607963272567
 50
342.0511668832173768
 51
359.945947387132378
  0
LINE
  5
6A1B
  8
0
 10
9.0671948248202892
 20
8.5041270002687881
 30
0.0
 11
9.0671948248202892
 21
8.2885990108688503
 31
0.0
  0
ARC
  5
6A1C
  8
0
 10
9.4521885297801163
 20
7.9614488056228501
 30
0.0
 40
0.5052201595850959
 50
139.6436242991769916
 51
174.6757930071850069
  0
ARC
  5
6A1D
  8
0
 10
9.9238413395551746
 20
8.1492417579399508
 30
0.0
 40
0.9848265662939324
 50
188.2263441834095943
 51
209.5593615864376034
  0
ARC
  5
6A1E
  8
0
 10
8.0788764238271256
 20
7.5665710856463297
 30
0.0
 40
0.0393715937169877
 50
162.1669117288323037
 51
227.2023190037006088
  0
ARC
  5
6A1F
  8
0
 10
8.7223682141740682
 20
8.2079667397440517
 30
0.0
 40
0.947895137885075
 50
225.0018610752970858
 51
261.4598823366255829
  0
ARC
  5
6A20
  8
0
 10
8.6645157662702701
 20
8.1695128573935332
 30
0.0
 40
0.9027466462812931
 50
264.7303071214498118
 51
281.8608311947915013
  0
ARC
  5
6A21
  8
0
 10
8.6645157662698935
 20
8.1695128573999671
 30
0.0
 40
0.9027466462876658
 50
299.1741886792128753
 51
299.1743179154552195
  0
ARC
  5
6A22
  8
0
 10
9.0843330931590316
 20
7.4150554710086141
 30
0.0
 40
0.0393703053609601
 50
251.9700352025496954
 51
252.4698971938937859
  0
ARC
  5
6A23
  8
0
 10
9.0843330931590316
 20
7.4150554710086141
 30
0.0
 40
0.0393703053609601
 50
297.2453716727138726
 51
6.8376113572703074
  0
LINE
  5
6A24
  8
0
 10
9.0671948248202892
 20
7.663402160468852
 30
0.0
 11
9.1234233799329516
 21
7.419742732911689
 31
0.0
  0
ARC
  5
6A25
  8
0
 10
8.8843741880892395
 20
9.8961379890094676
 30
0.0
 40
2.5255097382132701
 50
263.792800240752797
 51
274.9514951129821156
  0
ARC
  5
6A26
  8
0
 10
8.8258167405968848
 20
9.2763025889666508
 30
0.0
 40
1.9029970832759311
 50
246.0108363320686067
 51
263.5276935074397215
  0
ARC
  5
6A27
  8
0
 10
8.607491361665744
 20
8.3225444804829642
 30
0.0
 40
1.064510137163637
 50
283.1717405874071005
 51
297.7022170607311864
  0
LINE
  5
6A28
  8
0
 10
9.0671948248202892
 20
8.2885990108688503
 30
0.0
 11
26.2014378595979593
 21
8.2885990108689942
 31
0.0
  0
LINE
  5
6A29
  8
0
 10
26.2014378595979913
 20
7.6634021604689053
 30
0.0
 11
9.0671948248202892
 21
7.6634021604688618
 31
0.0
  0
LINE
  5
6A2A
  8
0
 10
27.8039676758446994
 20
10.9287685970690802
 30
0.0
 11
27.8039676758446888
 21
10.8905784766690807
 31
0.0
  0
ARC
  5
6A2B
  8
0
 10
27.5417299768919399
 20
10.8926811525840801
 30
0.0
 40
0.2622461286616791
 50
322.9785972241680838
 51
359.5406004767386889
  0
LINE
  5
6A2C
  8
0
 10
25.5008180745510913
 20
10.9287685970690305
 30
0.0
 11
25.5008180745510913
 21
10.8905433757651799
 31
0.0
  0
ARC
  5
6A2D
  8
0
 10
25.7617657275633505
 20
10.8922438613005497
 30
0.0
 40
0.2609531936261092
 50
180.3733670874362929
 51
217.1152916282862861
  0
LINE
  5
6A2E
  8
0
 10
27.7511100781467803
 20
10.7347792678690706
 30
0.0
 11
25.5536756723490015
 21
10.7347792678690208
 31
0.0
  0
LINE
  5
6A2F
  8
0
 10
27.8039676758446888
 20
10.9287685970686006
 30
0.0
 11
25.5008180745510806
 21
10.9287685970686006
 31
0.0
  0
ARC
  5
6A30
  8
0
 10
31.1859555424978616
 20
8.5279513468691981
 30
0.0
 40
4.0826771653999172
 50
147.2799669948597057
 51
166.6882252949490066
  0
ARC
  5
6A31
  8
0
 10
31.185955538361501
 20
8.5279513475911024
 30
0.0
 40
4.0826771612084691
 50
166.6882252914419098
 51
180.3343498015194086
  0
ARC
  5
6A32
  8
0
 10
22.1188285559344706
 20
8.5279508235212251
 30
0.0
 40
4.0826788382046102
 50
13.3117766978667795
 51
32.7200266521023977
  0
ARC
  5
6A33
  8
0
 10
22.1188261909974315
 20
8.5279506557034264
 30
0.0
 40
4.0826811782395342
 50
359.665660237478221
 51
13.31177134791497
  0
LINE
  5
6A34
  8
0
 10
27.1033478908979397
 20
8.5041270002690652
 30
0.0
 11
26.2014378595979416
 21
8.5041270002689835
 31
0.0
  0
LINE
  5
6A35
  8
0
 10
27.1033478908979504
 20
8.5041270002669354
 30
0.0
 11
27.1033478908979397
 21
8.3607006934690649
 31
0.0
  0
ARC
  5
6A36
  8
0
 10
29.6489547213799689
 20
8.3631022096455467
 30
0.0
 40
2.545607963272567
 50
180.0540526128687873
 51
197.9488331167837032
  0
LINE
  5
6A37
  8
0
 10
26.2014378595979416
 20
8.5041270002689835
 30
0.0
 11
26.2014378595979487
 21
8.2885990108690457
 31
0.0
  0
ARC
  5
6A38
  8
0
 10
25.8164441546381305
 20
7.9614488056230366
 30
0.0
 40
0.5052201595850959
 50
5.324206992816312
 51
40.3563757008241879
  0
ARC
  5
6A39
  8
0
 10
25.3447913448601803
 20
8.149241757940846
 30
0.0
 40
0.9848265662968968
 50
330.4406384136033807
 51
351.7736558165743759
  0
ARC
  5
6A3A
  8
0
 10
27.1897562605911212
 20
7.5665710856465473
 30
0.0
 40
0.0393715937169877
 50
312.7976809963004143
 51
17.8330882711689185
  0
ARC
  5
6A3B
  8
0
 10
26.5462644702441715
 20
8.2079667397442542
 30
0.0
 40
0.947895137885075
 50
278.5401176633754972
 51
314.9981389247041079
  0
ARC
  5
6A3C
  8
0
 10
26.6041169181479695
 20
8.1695128573937392
 30
0.0
 40
0.9027466462812931
 50
258.139168805210204
 51
275.2696928785518935
  0
ARC
  5
6A3D
  8
0
 10
26.6041169181483497
 20
8.1695128574001732
 30
0.0
 40
0.9027466462876658
 50
240.8256820845460027
 51
240.8258113207880058
  0
ARC
  5
6A3E
  8
0
 10
26.1842995912592293
 20
7.4150554710088086
 30
0.0
 40
0.0393703053609601
 50
287.5301028061073794
 51
288.0299647974517825
  0
ARC
  5
6A3F
  8
0
 10
26.1842995912592293
 20
7.4150554710088086
 30
0.0
 40
0.0393703053609601
 50
173.1623886427310026
 51
242.7546283272870085
  0
LINE
  5
6A40
  8
0
 10
26.2014378595981192
 20
7.6634021604690448
 30
0.0
 11
26.1452093044853093
 21
7.4197427329118826
 31
0.0
  0
ARC
  5
6A41
  8
0
 10
26.384258496328961
 20
9.8961379890096666
 30
0.0
 40
2.5255097382132701
 50
265.0485048870193054
 51
276.2071997592482262
  0
ARC
  5
6A42
  8
0
 10
26.4428159438213299
 20
9.2763025889668516
 30
0.0
 40
1.9029970832759311
 50
276.4723064925619838
 51
293.9891636679327007
  0
ARC
  5
6A43
  8
0
 10
26.6611413227524885
 20
8.3225444804831703
 30
0.0
 40
1.064510137163637
 50
242.2977829392704052
 51
256.8282594125943774
  0
LINE
  5
6A44
  8
0
 62
     4
 10
17.9031473532159602
 20
10.9287685970686006
 30
0.0
 11
24.6329820359843588
 21
20.0952817181593808
 31
0.0
  0
LINE
  5
6A45
  8
0
 62
     4
 10
17.9031473532159602
 20
-0.0000000300842942
 30
0.0
 11
22.3963351323106608
 21
4.993614497796286
 31
0.0
  0
ENDBLK
  5
6A49
  8
0
  0
ENDSEC
  0
SECTION
  2
ENTITIES
  0
ATTDEF
  5
3930
  8
DEFPOINTS
 10
3947.240394155964168
 20
61.2260054026900775
 30
0.0
 40
0.001
  1
K-76966T-4
  3

  2
MODELNUMBER
 70
     0
1001
ACDBATTR
1070
     0
1070
     1
  0
ATTDEF
  5
3931
  8
DEFPOINTS
 10
3947.240394155964168
 20
61.2243387360234124
 30
0.0
 40
0.001
  1
ARTIFACTS
  3

  2
TRADENAME
 70
     0
1001
ACDBATTR
1070
     0
1070
     1
  0
ATTDEF
  5
3932
  8
DEFPOINTS
 10
3947.240394155964168
 20
61.2226720693567401
 30
0.0
 40
0.001
  1
VALVE TRIM
  3

  2
PRODUCT
 70
     0
1001
ACDBATTR
1070
     0
1070
     1
  0
LINE
  5
7502
  8
0
 10
3943.6960190294271342
 20
61.2224949150248108
 30
0.0
 11
3943.705786806490778
 21
60.9427823760401992
 31
0.0
  0
ARC
  5
7503
  8
0
 10
3943.8238250931258335
 20
60.9469043638247996
 30
0.0
 40
0.1181102361999988
 50
181.9999999931110892
 51
270.0
  0
ARC
  5
7504
  8
0
 10
3943.8700741475267932
 20
60.7303689307248007
 30
0.0
 40
0.098425196900001
 50
5.2159085705008756
 51
90.0
  0
ARC
  5
7505
  8
0
 10
3944.0857129497308051
 20
60.7500539701363991
 30
0.0
 40
0.1181102362115962
 50
185.2159085755899071
 51
269.9999999978114147
  0
LINE
  5
7506
  8
0
 10
3950.7826332026270393
 20
61.2224949150248108
 30
0.0
 11
3950.7728654255620313
 21
60.9427823760401992
 31
0.0
  0
ARC
  5
7507
  8
0
 10
3950.6548271389260663
 20
60.9469043638247996
 30
0.0
 40
0.1181102361999962
 50
270.0
 51
358.0000000068887971
  0
ARC
  5
7508
  8
0
 10
3950.6085780845269255
 20
60.7303689307248007
 30
0.0
 40
0.098425196900001
 50
90.0
 51
174.7840914294991137
  0
ARC
  5
7509
  8
0
 10
3950.3929392823220041
 20
60.7500539701363991
 30
0.0
 40
0.1181102362115962
 50
270.000000002188699
 51
354.7840914244097235
  0
LINE
  5
750A
  8
0
 10
3944.0857129497258029
 20
60.6319437339247997
 30
0.0
 11
3950.3929392823270064
 21
60.6319437339247997
 31
0.0
  0
LINE
  5
750B
  8
0
 10
3943.8238250931258335
 20
60.8287941276248034
 30
0.0
 11
3950.6548271389260663
 21
60.8287941276248034
 31
0.0
  0
LINE
  5
750C
  8
0
 10
3946.2747591869269854
 20
60.6319433453224335
 30
0.0
 11
3946.2747591869269854
 21
59.6004476709083519
 31
0.0
  0
ARC
  5
750D
  8
0
 10
3946.2858954302619168
 20
59.5997728482518028
 30
0.0
 40
0.0111566707060266
 50
176.532289415704895
 51
273.4713080045698916
  0
ARC
  5
750E
  8
0
 10
3946.3141285815299852
 20
59.5840560970836606
 30
0.0
 40
0.0196850391857932
 50
179.9999997883583944
 51
255.0000245857719108
  0
LINE
  5
750F
  8
0
 10
3946.3090337266439747
 20
59.5650418071563692
 30
0.0
 11
3946.3739485291462188
 21
59.5476479382563824
 31
0.0
  0
ARC
  5
7510
  8
0
 10
3946.3536144591789707
 20
59.4716261257761403
 30
0.0
 40
0.0786942842535774
 50
0.6970897630508432
 51
75.0252568092770531
  0
ARC
  5
7511
  8
0
 10
3946.9188907757038578
 20
59.4708790729567767
 30
0.0
 40
0.4865908417866748
 50
179.799299962995093
 51
184.4529974278115105
  0
ARC
  5
7512
  8
0
 10
3947.2393262069531374
 20
59.4827586702006172
 30
0.0
 40
0.8070866145854214
 50
183.5275720597346947
 51
191.605942451790014
  0
ARC
  5
7513
  8
0
 10
3946.3151323627030251
 20
59.4619460716349408
 30
0.0
 40
0.0411858378224999
 50
10.0482829430473295
 51
61.3372801086487627
  0
ARC
  5
7514
  8
0
 10
3946.6014721403857948
 20
59.5194182428093228
 30
0.0
 40
0.2508770623091445
 50
191.56277174810171
 51
232.4980164212553007
  0
ARC
  5
7515
  8
0
 10
3946.9066879264360068
 20
59.9605252094718679
 30
0.0
 40
0.7870764262688007
 50
234.4204377813495057
 51
260.3639477864742275
  0
ARC
  5
7516
  8
0
 10
3947.2229455781921388
 20
61.44561075164561
 30
0.0
 40
2.30501366737177
 50
258.7925790178748002
 51
270.4071770962196979
  0
ARC
  5
7517
  8
0
 10
3946.3148465504000342
 20
59.4591269122583483
 30
0.0
 40
0.0389582000446707
 50
89.9788538938800144
 51
164.1652054991766931
  0
ARC
  5
7518
  8
0
 10
3946.33907026937095
 20
59.4511617332373703
 30
0.0
 40
0.0644447088930189
 50
163.2288620052804902
 51
176.3096693406534996
  0
ARC
  5
7519
  8
0
 10
3946.33907026937095
 20
59.4511617332373703
 30
0.0
 40
0.0644447088930189
 50
183.6903306593447951
 51
189.3736375160968066
  0
ARC
  5
751A
  8
0
 10
3946.5220531624381692
 20
59.4745932242840496
 30
0.0
 40
0.2488903740515008
 50
187.8347223877474903
 51
194.23312960144969
  0
ARC
  5
751B
  8
0
 10
3946.5523249135558217
 20
59.4948544514316424
 30
0.0
 40
0.2834769624057088
 50
196.6990067400182056
 51
242.6372785475606975
  0
ARC
  5
751C
  8
0
 10
3946.8697423140060891
 20
60.0363100682055801
 30
0.0
 40
0.9108430217613738
 50
240.558590210991099
 51
259.3308649558044863
  0
ARC
  5
751D
  8
0
 10
3947.2045386787281132
 20
61.5798790513903711
 30
0.0
 40
2.490086498401531
 50
258.3359624228751841
 51
270.8004715368591064
  0
LINE
  5
751E
  8
0
 10
3946.3148609286699866
 20
59.4980851096497432
 30
0.0
 11
3946.4277246528190517
 21
59.4980851096497432
 31
0.0
  0
LINE
  5
751F
  8
0
 10
3946.2747591869269854
 20
59.4553096458600123
 30
0.0
 11
3946.2747591869269854
 21
58.4075342851247967
 31
0.0
  0
ARC
  5
7520
  8
0
 10
3946.3141282637761833
 20
58.4075332831757592
 30
0.0
 40
0.0393690768618892
 50
179.9985418136203066
 51
270.0006039360226282
  0
ARC
  5
7521
  8
0
 10
3946.4322384999650239
 20
58.3091080863469031
 30
0.0
 40
0.0590561199706149
 50
0.0009720055166815
 51
89.9995973821252875
  0
LINE
  5
7522
  8
0
 10
3946.4912946199269754
 20
58.3091090882160614
 30
0.0
 11
3946.4912946199269754
 21
58.2776130252160485
 31
0.0
  0
ARC
  5
7523
  8
0
 10
3946.5306636990499101
 20
58.2776120244869773
 30
0.0
 40
0.0393690791366918
 50
179.998543589197908
 51
270.0139432719772117
  0
ARC
  5
7524
  8
0
 10
3946.9834200173518184
 20
58.2185579071160575
 30
0.0
 40
0.0196850393999935
 50
89.9999999999739515
 51
180.0000000000100897
  0
LINE
  5
7525
  8
0
 10
3946.9637349779518445
 20
58.2185579071160504
 30
0.0
 11
3946.9637349779518445
 21
58.1866013194160487
 31
0.0
  0
ARC
  5
7526
  8
0
 10
3946.9037349779528085
 20
58.1866013194160487
 30
0.0
 40
0.0600000000000043
 50
296.8082543397919721
 51
0.0000000000016284
  0
ARC
  5
7527
  8
0
 10
3946.944325529138041
 20
58.1062744425201529
 30
0.0
 40
0.0299999999855169
 50
116.8082542016855001
 51
180.0000000078267135
  0
LINE
  5
7528
  8
0
 10
3946.9143255291519381
 20
58.1062744425201529
 30
0.0
 11
3946.9143255291519381
 21
57.8813477934160474
 31
0.0
  0
ARC
  5
7529
  8
0
 10
3946.8649449434838061
 20
57.879284657790393
 30
0.0
 40
0.0494236660879321
 50
306.7525001599498182
 51
2.39244335944616
  0
ARC
  5
752A
  8
0
 10
3946.5278690768850538
 20
57.1143819704386999
 30
0.0
 40
0.3390239253407405
 50
14.8489775052441804
 51
29.7104972924203388
  0
ARC
  5
752B
  8
0
 10
3946.8806347317431573
 20
57.2031223708024328
 30
0.0
 40
0.0251323187871699
 50
184.2397150921916875
 51
269.999991958352723
  0
ARC
  5
752C
  8
0
 10
3946.8748128999691289
 20
57.0879535261504074
 30
0.0
 40
0.090224551392364
 50
36.6912740265289301
 51
86.3003629265352998
  0
ARC
  5
752D
  8
0
 10
3946.9016021549291509
 20
57.1095578884782284
 30
0.0
 40
0.0558500031808846
 50
294.6770371425570261
 51
35.3398951898966374
  0
ARC
  5
752E
  8
0
 10
3946.9332014983460795
 20
57.029974138621931
 30
0.0
 40
0.0300000046987543
 50
106.0251974023737063
 51
154.0533535251068997
  0
ARC
  5
752F
  8
0
 10
3946.9319606049530194
 20
56.9572547575160613
 30
0.0
 40
0.0300000000000048
 50
203.9914337188751858
 51
270.0
  0
ARC
  5
7530
  8
0
 10
3946.9420245170158523
 20
56.9075622211789707
 30
0.0
 40
0.0196937702300191
 50
46.6708613853347671
 51
89.9861041860411603
  0
ARC
  5
7531
  8
0
 10
3947.2393255291522109
 20
57.2226779858160199
 30
0.0
 40
0.4135334645999565
 50
226.6660011734022078
 51
245.7334029303603131
  0
ARC
  5
7532
  8
0
 10
3947.2393255291522109
 20
57.2226779858161123
 30
0.0
 40
0.4135334646000663
 50
245.733402930360711
 51
270.0
  0
LINE
  5
7533
  8
0
 10
3948.2039223835267876
 20
60.6319437339247997
 30
0.0
 11
3948.2039223835267876
 21
59.6004480595108035
 31
0.0
  0
ARC
  5
7534
  8
0
 10
3948.1920617335181305
 20
59.6004973837718097
 30
0.0
 40
0.0118607525696287
 50
270.0944229498310278
 51
359.7617284305916883
  0
ARC
  5
7535
  8
0
 10
3948.164522966641016
 20
59.5840564698248016
 30
0.0
 40
0.0196850391857932
 50
284.9999984974218137
 51
0.0000232948221669
  0
LINE
  5
7536
  8
0
 10
3948.1696178291867909
 20
59.565042181950119
 30
0.0
 11
3948.104703033693113
 21
59.5476482868974131
 31
0.0
  0
ARC
  5
7537
  8
0
 10
3948.1250369924791812
 20
59.4716265018492507
 30
0.0
 40
0.0786942290248877
 50
104.9746701521737009
 51
179.3029468401699944
  0
ARC
  5
7538
  8
0
 10
3947.5607503272121903
 20
59.470822407710159
 30
0.0
 40
0.4856014546075781
 50
355.5446560559209956
 51
0.2078332524225789
  0
ARC
  5
7539
  8
0
 10
3947.2393269308790877
 20
59.4827586702007665
 30
0.0
 40
0.8070866145854214
 50
348.3940806313896132
 51
356.4724510234464105
  0
ARC
  5
753A
  8
0
 10
3948.1635207835138317
 20
59.4619464439720105
 30
0.0
 40
0.0411858378224999
 50
118.6627429745361013
 51
169.9517401401319887
  0
ARC
  5
753B
  8
0
 10
3947.8771809826780554
 20
59.5194184997865321
 30
0.0
 40
0.2508770623091445
 50
307.5020066619192107
 51
348.4372513350775193
  0
ARC
  5
753C
  8
0
 10
3947.5719650189148524
 20
59.9605253434844627
 30
0.0
 40
0.7870764262688007
 50
279.6360752967012786
 51
305.5795853018129264
  0
ARC
  5
753D
  8
0
 10
3947.2557067688508141
 20
61.4456107582449889
 30
0.0
 40
2.30501366737177
 50
269.5928459869704739
 51
281.2074440653024112
  0
ARC
  5
753E
  8
0
 10
3948.1638065969541458
 20
59.4591272847105685
 30
0.0
 40
0.0389582000446707
 50
15.8348175840042806
 51
90.021169189302185
  0
ARC
  5
753F
  8
0
 10
3948.1406661556679865
 20
59.4512321248590681
 30
0.0
 40
0.0633877803317483
 50
350.4044534741395864
 51
356.3048099592916742
  0
ARC
  5
7540
  8
0
 10
3948.1406661556679865
 20
59.4512321248590681
 30
0.0
 40
0.0633877803317483
 50
3.6919814144217651
 51
16.9930931708371311
  0
ARC
  5
7541
  8
0
 10
3947.956599978684153
 20
59.4745935132573607
 30
0.0
 40
0.2488903740515008
 50
345.7668934817284025
 51
352.1653006954322223
  0
ARC
  5
7542
  8
0
 10
3947.9263282194037856
 20
59.4948547282091411
 30
0.0
 40
0.2834769624057088
 50
297.3627445356310091
 51
343.3010163431588921
  0
ARC
  5
7543
  8
0
 10
3947.6089106008130329
 20
60.0363102171027307
 30
0.0
 40
0.9108430217613738
 50
280.6691581273893235
 51
299.4414328721911147
  0
ARC
  5
7544
  8
0
 10
3947.2741136142230971
 20
61.5798790654054571
 30
0.0
 40
2.490086498401531
 50
269.1995515463073048
 51
281.6640606603240258
  0
LINE
  5
7545
  8
0
 10
3948.1637922029881338
 20
59.4980854820961582
 30
0.0
 11
3948.0509268431787859
 21
59.4980854366252316
 31
0.0
  0
LINE
  5
7546
  8
0
 10
3948.2039223835267876
 20
59.4553138319242933
 30
0.0
 11
3948.2039223835267876
 21
58.4075342851247967
 31
0.0
  0
ARC
  5
7547
  8
0
 10
3948.164502540572812
 20
58.407584075130643
 30
0.0
 40
0.0394198743974997
 50
270.030541463918496
 51
359.9276314803449281
  0
ARC
  5
7548
  8
0
 10
3948.0464132176230123
 20
58.3091086008312871
 30
0.0
 40
0.0590556055012253
 50
89.9999034967933227
 51
179.9992347542693096
  0
LINE
  5
7549
  8
0
 10
3947.9873576121258338
 20
58.3091093895813728
 30
0.0
 11
3947.9873576121258338
 21
58.2776133265813669
 31
0.0
  0
ARC
  5
754A
  8
0
 10
3947.9479885955479403
 20
58.2776122475442691
 30
0.0
 40
0.0393690165935995
 50
269.9993700246367894
 51
0.0015703788691419
  0
ARC
  5
754B
  8
0
 10
3947.4952322749632003
 20
58.2185580102148776
 30
0.0
 40
0.0196850393999935
 50
0.0000230831704509
 51
90.0000230832066848
  0
LINE
  5
754C
  8
0
 10
3947.5149173143631742
 20
58.2185580181455435
 30
0.0
 11
3947.5149173272379812
 21
58.1866014304455419
 31
0.0
  0
ARC
  5
754D
  8
0
 10
3947.5749173272370172
 20
58.1866014546181916
 30
0.0
 40
0.0600000000000043
 50
180.000023083179002
 51
243.1917687434041966
  0
ARC
  5
754E
  8
0
 10
3947.5343268084138799
 20
58.1062745613692684
 30
0.0
 40
0.0299999999855169
 50
0.0000230753539197
 51
63.1917688814875618
  0
LINE
  5
754F
  8
0
 10
3947.5643268083990733
 20
58.1062745734556003
 30
0.0
 11
3947.564325529152029
 21
57.881347924351239
 31
0.0
  0
ARC
  5
7550
  8
0
 10
3947.6092024506160669
 20
57.8784123241268489
 30
0.0
 40
0.0449728343417432
 50
176.2573589477945859
 51
236.1213624821650114
  0
ARC
  5
7551
  8
0
 10
3947.9508167630588105
 20
57.1143711396700624
 30
0.0
 40
0.3390587717294971
 50
150.2905664997236954
 51
165.1506631951122017
  0
ARC
  5
7552
  8
0
 10
3947.5980179696689447
 20
57.2031225153112075
 30
0.0
 40
0.0251323187871699
 50
270.000031124827899
 51
355.7603079909877124
  0
ARC
  5
7553
  8
0
 10
3947.6038398478422096
 20
57.0879536730046979
 30
0.0
 40
0.090224551392364
 50
93.6996601566525982
 51
143.308749056653113
  0
ARC
  5
7554
  8
0
 10
3947.5770505841769591
 20
57.109558024539723
 30
0.0
 40
0.0558500031808846
 50
144.6601278932895127
 51
245.3229859406380911
  0
ARC
  5
7555
  8
0
 10
3947.5454512728219925
 20
57.0299742619527734
 30
0.0
 40
0.0300000046987543
 50
25.946669558076831
 51
73.9748256808099143
  0
ARC
  5
7556
  8
0
 10
3947.5466921955139696
 20
56.9572548813468202
 30
0.0
 40
0.0299999999999969
 50
274.0640095453163099
 51
336.0085893643138206
  0
ARC
  5
7557
  8
0
 10
3947.5369170326398489
 20
56.9071091360666088
 30
0.0
 40
0.0202218168587764
 50
90.8316600708053983
 51
133.0431163504277094
  0
ARC
  5
7558
  8
0
 10
3947.239327164380029
 20
57.2226779858163468
 30
0.0
 40
0.4135334645999565
 50
294.2666201528388115
 51
313.3340219097776753
  0
ARC
  5
7559
  8
0
 10
3947.239327164380029
 20
57.2226779858164534
 30
0.0
 40
0.4135334646000663
 50
270.0000230831806221
 51
294.2666201528148235
  0
LINE
  5
755A
  8
0
 10
3946.2865709521270219
 20
59.5886366473083413
 30
0.0
 11
3948.1920812799271516
 21
59.5886366473083413
 31
0.0
  0
LINE
  5
755B
  8
0
 10
3946.3141286787531499
 20
58.3681642063160595
 30
0.0
 11
3948.1645235533010236
 21
58.3681642063335531
 31
0.0
  0
LINE
  5
755C
  8
0
 10
3946.5306732797521363
 20
58.2382429465160527
 30
0.0
 11
3947.9479881626798488
 21
58.2382432309530529
 31
0.0
  0
LINE
  5
755D
  8
0
 10
3946.9307959323000432
 20
58.1330500682629108
 30
0.0
 11
3947.5478569813581089
 21
58.133050192439967
 31
0.0
  0
LINE
  5
755E
  8
0
 10
3946.8945180667519708
 20
57.8396850473164292
 30
0.0
 11
3947.5841329915519964
 21
57.8410749694939028
 31
0.0
  0
LINE
  5
755F
  8
0
 10
3946.924919694934033
 20
57.0588083546533511
 30
0.0
 11
3947.5537330646179726
 21
57.0588084813207317
 31
0.0
  0
LINE
  5
7560
  8
0
 10
3946.9319606049530194
 20
56.927254757516053
 30
0.0
 11
3947.5488183220909377
 21
56.9273303164247224
 31
0.0
  0
LINE
  5
7561
  8
0
 10
3943.6960190294271342
 20
61.2224949150247895
 30
0.0
 11
3950.7826332026270393
 21
61.2224949150248108
 31
0.0
  0
LINE
  5
7562
  8
0
 10
3946.8806347282161369
 20
57.1779900520152466
 30
0.0
 11
3947.5980179833209149
 21
57.1779901965240427
 31
0.0
  0
ARC
  5
7563
  8
0
 10
3947.1224271212618078
 20
57.4683927829673991
 30
0.0
 40
0.5933500845323331
 50
4.0078880383687263
 51
38.9099583884520968
  0
ARC
  5
7564
  8
0
 10
3947.0943299471618957
 20
57.5468352248497013
 30
0.0
 40
0.6210975113403751
 50
334.802494691300808
 51
356.5874408807943041
  0
ARC
  5
7565
  8
0
 10
3947.3469391382309368
 20
57.4704925137776428
 30
0.0
 40
0.5839417374521951
 50
140.7842671265011916
 51
176.1340574802995036
  0
ARC
  5
7566
  8
0
 10
3947.3843127695758994
 20
57.5468322876981802
 30
0.0
 40
0.6210878635781548
 50
183.4124430828312029
 51
205.1977237250719099
  0
ARC
  5
7567
  8
0
 10
3947.0322333279491431
 20
56.9969297518728908
 30
0.0
 40
0.1378159014185143
 50
182.1961547683941092
 51
202.1104598013245948
  0
ARC
  5
7568
  8
0
 10
3947.0421185436671294
 20
56.9851227768891917
 30
0.0
 40
0.1477440799888224
 50
156.8949837859532863
 51
177.468456429970189
  0
ARC
  5
7569
  8
0
 10
3947.4518096162260008
 20
56.9957674782960595
 30
0.0
 40
0.1323880530683082
 50
337.4775723242490244
 51
358.2170924301303216
  0
ARC
  5
756A
  8
0
 10
3947.4510923773991635
 20
56.9884367163198675
 30
0.0
 40
0.1330799647045039
 50
1.382943109008945
 51
24.2524216134211983
  0
LINE
  5
756B
  8
0
 10
3946.2944442262260054
 20
59.5840564699248034
 30
0.0
 11
3946.2944442262260054
 21
59.5886366473083413
 31
0.0
  0
LINE
  5
756C
  8
0
 10
3948.1842080058268039
 20
59.5840564698248016
 30
0.0
 11
3948.1842080058268039
 21
59.5886366473083413
 31
0.0
  0
ENDSEC
  0
EOF
