  0
SECTION
  2
HEADER
  9
$ACADVER
  1
AC1009
  9
$INSBASE
 10
3943.5670010146650384
 20
63.1555957183595709
 30
0.0
  9
$EXTMIN
 10
3940.023693928063949
 20
59.6122886317595686
 30
0.0
  9
$EXTMAX
 10
3947.110308101263854
 20
66.6989028049595731
 30
0.0
  9
$LIMMIN
 10
0.0
 20
0.0
  9
$LIMMAX
 10
11.6929133858000007
 20
8.2677165353999982
  9
$ORTHOMODE
 70
     0
  9
$REGENMODE
 70
     1
  9
$FILLMODE
 70
     1
  9
$QTEXTMODE
 70
     0
  9
$MIRRTEXT
 70
     0
  9
$DRAGMODE
 70
     2
  9
$LTSCALE
 40
0.6431102362
  9
$OSMODE
 70
  4095
  9
$ATTMODE
 70
     1
  9
$TEXTSIZE
 40
0.2
  9
$TRACEWID
 40
0.05
  9
$TEXTSTYLE
  7
STANDARD
  9
$CLAYER
  8
0
  9
$CELTYPE
  6
BYLAYER
  9
$CECOLOR
 62
   256
  9
$DIMSCALE
 40
1.0
  9
$DIMASZ
 40
0.1875
  9
$DIMEXO
 40
0.0625
  9
$DIMDLI
 40
0.4443307087
  9
$DIMRND
 40
0.0
  9
$DIMDLE
 40
0.0
  9
$DIMEXE
 40
0.125
  9
$DIMTP
 40
0.01
  9
$DIMTM
 40
0.01
  9
$DIMTXT
 40
2.0
  9
$DIMCEN
 40
0.1052362205
  9
$DIMTSZ
 40
0.0
  9
$DIMTOL
 70
     1
  9
$DIMLIM
 70
     0
  9
$DIMTIH
 70
     1
  9
$DIMTOH
 70
     1
  9
$DIMSE1
 70
     0
  9
$DIMSE2
 70
     0
  9
$DIMTAD
 70
     0
  9
$DIMZIN
 70
     0
  9
$DIMBLK
  1

  9
$DIMASO
 70
     1
  9
$DIMSHO
 70
     1
  9
$DIMPOST
  1
\X
  9
$DIMAPOST
  1

  9
$DIMALT
 70
     1
  9
$DIMALTD
 70
     2
  9
$DIMALTF
 40
25.3999999999999986
  9
$DIMLFAC
 40
1.0
  9
$DIMTOFL
 70
     0
  9
$DIMTVP
 40
0.0
  9
$DIMTIX
 70
     0
  9
$DIMSOXD
 70
     0
  9
$DIMSAH
 70
     0
  9
$DIMBLK1
  1

  9
$DIMBLK2
  1

  9
$DIMSTYLE
  2
STANDARD
  9
$DIMCLRD
 70
     0
  9
$DIMCLRE
 70
     0
  9
$DIMCLRT
 70
     0
  9
$DIMTFAC
 40
1.0
  9
$DIMGAP
 40
0.09
  9
$LUNITS
 70
     2
  9
$LUPREC
 70
     4
  9
$SKETCHINC
 40
0.1
  9
$FILLETRAD
 40
0.0
  9
$AUNITS
 70
     0
  9
$AUPREC
 70
     0
  9
$MENU
  1
.
  9
$ELEVATION
 40
0.0
  9
$PELEVATION
 40
0.0
  9
$THICKNESS
 40
0.0
  9
$LIMCHECK
 70
     0
  9
$BLIPMODE
 70
     0
  9
$CHAMFERA
 40
0.0
  9
$CHAMFERB
 40
0.0
  9
$SKPOLY
 70
     0
  9
$TDCREATE
 40
2458060.468368056230247
  9
$TDUPDATE
 40
2459101.4649884258396924
  9
$TDINDWG
 40
0.4136760417
  9
$TDUSRTIMER
 40
0.4136760417
  9
$USRTIMER
 70
     1
  9
$ANGBASE
 50
0.0
  9
$ANGDIR
 70
     0
  9
$PDMODE
 70
     0
  9
$PDSIZE
 40
0.3125
  9
$PLINEWID
 40
0.0
  9
$COORDS
 70
     1
  9
$SPLFRAME
 70
     0
  9
$SPLINETYPE
 70
     6
  9
$SPLINESEGS
 70
     8
  9
$ATTDIA
 70
     1
  9
$ATTREQ
 70
     1
  9
$HANDLING
 70
     1
  9
$HANDSEED
  5
7569
  9
$SURFTAB1
 70
     6
  9
$SURFTAB2
 70
     6
  9
$SURFTYPE
 70
     6
  9
$SURFU
 70
     6
  9
$SURFV
 70
     6
  9
$UCSNAME
  2

  9
$UCSORG
 10
0.0
 20
0.0
 30
0.0
  9
$UCSXDIR
 10
1.0
 20
0.0
 30
0.0
  9
$UCSYDIR
 10
0.0
 20
1.0
 30
0.0
  9
$PUCSNAME
  2

  9
$PUCSORG
 10
0.0
 20
0.0
 30
0.0
  9
$PUCSXDIR
 10
1.0
 20
0.0
 30
0.0
  9
$PUCSYDIR
 10
0.0
 20
1.0
 30
0.0
  9
$USERI1
 70
     0
  9
$USERI2
 70
     0
  9
$USERI3
 70
     0
  9
$USERI4
 70
     0
  9
$USERI5
 70
     0
  9
$USERR1
 40
0.0
  9
$USERR2
 40
0.0
  9
$USERR3
 40
0.0
  9
$USERR4
 40
0.0
  9
$USERR5
 40
0.0
  9
$WORLDVIEW
 70
     1
  9
$SHADEDGE
 70
     3
  9
$SHADEDIF
 70
    70
  9
$TILEMODE
 70
     1
  9
$MAXACTVP
 70
    64
  9
$PLIMCHECK
 70
     0
  9
$PEXTMIN
 10
1.0000000000000000E+20
 20
1.0000000000000000E+20
 30
1.0000000000000000E+20
  9
$PEXTMAX
 10
-1.0000000000000000E+20
 20
-1.0000000000000000E+20
 30
-1.0000000000000000E+20
  9
$PLIMMIN
 10
0.0
 20
0.0
  9
$PLIMMAX
 10
12.0
 20
9.0
  9
$UNITMODE
 70
     0
  9
$VISRETAIN
 70
     1
  9
$PLINEGEN
 70
     0
  9
$PSLTSCALE
 70
     1
  0
ENDSEC
  0
SECTION
  2
TABLES
  0
TABLE
  2
VPORT
 70
     1
  0
VPORT
  2
*ACTIVE
 70
     0
 10
0.0
 20
0.0
 11
1.0
 21
1.0
 12
155.6503388293656087
 22
-58.0253987630705126
 13
0.0
 23
0.0
 14
1.0
 24
1.0
 15
0.0
 25
0.0
 16
0.0
 26
0.0
 36
5.1040778033513332
 17
3792.35791015625
 27
120.1806564331053977
 37
0.0
 40
11.1252316948119603
 41
2.005224660397074
 42
50.0
 43
0.0
 44
0.0
 50
0.0
 51
0.0
 71
     0
 72
   100
 73
     1
 74
     1
 75
     0
 76
     0
 77
     0
 78
     0
  0
ENDTAB
  0
TABLE
  2
LTYPE
 70
     2
  0
LTYPE
  2
CONTINUOUS
 70
     0
  3
Solid line
 72
    65
 73
     0
 40
0.0
  0
LTYPE
  2
PHANTOM2
 70
     0
  3
___ _ _ ___ _ _ ___ _ _ ___ _ _
 72
    65
 73
     6
 40
1.25
 49
0.625
 49
-0.125
 49
0.125
 49
-0.125
 49
0.125
 49
-0.125
  0
ENDTAB
  0
TABLE
  2
LAYER
 70
     2
  0
LAYER
  2
0
 70
     0
 62
   255
  6
CONTINUOUS
  0
LAYER
  2
DEFPOINTS
 70
     0
 62
     7
  6
CONTINUOUS
  0
ENDTAB
  0
TABLE
  2
STYLE
 70
     1
  0
STYLE
  2
STANDARD
 70
     0
 40
0.0
 41
0.8
 50
0.0
 71
     0
 42
0.2
  3
txt
  4

  0
ENDTAB
  0
TABLE
  2
VIEW
 70
     0
  0
ENDTAB
  0
TABLE
  2
UCS
 70
     0
  0
ENDTAB
  0
TABLE
  2
APPID
 70
     9
  0
APPID
  2
ACAD
 70
     0
  0
APPID
  2
ACAD_MLEADERVER
 70
     0
  0
APPID
  2
ACAD_EXEMPT_FROM_CAD_STANDARDS
 70
     0
  0
APPID
  2
ACAD_NAV_VCDISPLAY
 70
     0
  0
APPID
  2
ACAECLAYERSTANDARD
 70
     0
  0
APPID
  2
ACCMTRANSPARENCY
 70
     0
  0
APPID
  2
ACAD_DSTYLE_DIMJAG
 70
     0
  0
APPID
  2
ACAD_DSTYLE_DIMTALN
 70
     0
  0
APPID
  2
ACDBATTR
 70
     0
  0
ENDTAB
  0
TABLE
  2
DIMSTYLE
 70
     1
  0
DIMSTYLE
  2
STANDARD
 70
     0
  3

  4

  5

  6

  7

 40
1.0
 41
0.1875
 42
0.0625
 43
0.38
 44
0.125
 45
0.0
 46
0.0
 47
0.01
 48
0.01
140
0.15625
141
0.09
142
0.0
143
25.3999999999999986
144
1.0
145
0.0
146
1.0
147
0.09
 71
     1
 72
     0
 73
     1
 74
     1
 75
     0
 76
     0
 77
     0
 78
     4
170
     0
171
     2
172
     0
173
     0
174
     0
175
     0
176
     0
177
     0
178
     0
  0
ENDTAB
  0
ENDSEC
  0
SECTION
  2
BLOCKS
  0
BLOCK
  8
0
  2
$MODEL_SPACE
 70
     0
 10
0.0
 20
0.0
 30
0.0
  3
$MODEL_SPACE
  1

  0
ENDBLK
  5
21
  8
0
  0
BLOCK
 67
     1
  8
0
  2
$PAPER_SPACE
 70
     0
 10
0.0
 20
0.0
 30
0.0
  3
$PAPER_SPACE
  1

  0
ENDBLK
  5
1D
 67
     1
  8
0
  0
BLOCK
  8
0
  2
_FILLED
 70
     0
 10
0.0
 20
0.0
 30
0.0
  3
_FILLED
  1

  0
SOLID
  5
69B4
  8
0
  6
BYBLOCK
 62
     0
 10
0.0
 20
0.0
 30
0.0
 11
-1.0
 21
0.1666666667
 31
0.0
 12
-1.0
 22
-0.1666666667
 32
0.0
 13
-1.0
 23
-0.1666666667
 33
0.0
  0
ENDBLK
  5
69B5
  8
0
  6
BYBLOCK
 62
     0
  0
BLOCK
  8
0
  2
A$CDFAF6206
 70
     0
 10
0.0
 20
0.0
 30
0.0
  3
A$CDFAF6206
  1

  0
LINE
  5
6A0E
  8
0
 10
7.4646650085734834
 20
10.9287685970688493
 30
0.0
 11
7.4646650085734896
 21
10.8905784766688498
 31
0.0
  0
ARC
  5
6A0F
  8
0
 10
7.7269027075262349
 20
10.8926811525838598
 30
0.0
 40
0.2622461286616791
 50
180.4593995232625048
 51
217.0214027758331099
  0
LINE
  5
6A10
  8
0
 10
9.767814609867095
 20
10.9287685970688493
 30
0.0
 11
9.767814609867095
 21
10.8905433757650094
 31
0.0
  0
ARC
  5
6A11
  8
0
 10
9.5068669568548287
 20
10.8922438613003703
 30
0.0
 40
0.2609531936261092
 50
322.8847083717149076
 51
359.6266329125650145
  0
LINE
  5
6A12
  8
0
 10
7.517522606271406
 20
10.7347792678688396
 30
0.0
 11
9.7149570120691777
 21
10.7347792678688396
 31
0.0
  0
LINE
  5
6A13
  8
0
 10
7.4646650085734834
 20
10.9287685970688493
 30
0.0
 11
9.7678146123202936
 21
10.9287685970688493
 31
0.0
  0
ARC
  5
6A14
  8
0
 10
4.0826771419203629
 20
8.527951346868889
 30
0.0
 40
4.0826771653999172
 50
13.3117747050523896
 51
32.7200330051415591
  0
ARC
  5
6A15
  8
0
 10
4.0826771460567306
 20
8.5279513475907933
 30
0.0
 40
4.0826771612084691
 50
359.6656501984817851
 51
13.3117747085593798
  0
ARC
  5
6A16
  8
0
 10
13.1498041284835097
 20
8.5279508235212234
 30
0.0
 40
4.0826788382043553
 50
147.2799733478981068
 51
166.6882233021349862
  0
ARC
  5
6A17
  8
0
 10
13.1498064934207992
 20
8.5279506557033251
 30
0.0
 40
4.0826811782395342
 50
166.688228652086309
 51
180.3343397625230011
  0
LINE
  5
6A18
  8
0
 10
8.1652847935202928
 20
8.504127000268852
 30
0.0
 11
9.0671948248202892
 21
8.5041270002687881
 31
0.0
  0
LINE
  5
6A19
  8
0
 10
8.1652847935202786
 20
8.5041270002667204
 30
0.0
 11
8.1652847935202928
 21
8.3607006934688481
 31
0.0
  0
ARC
  5
6A1A
  8
0
 10
5.6196779630382627
 20
8.3631022096452732
 30
0.0
 40
2.545607963272567
 50
342.0511668832173768
 51
359.945947387132378
  0
LINE
  5
6A1B
  8
0
 10
9.0671948248202892
 20
8.5041270002687881
 30
0.0
 11
9.0671948248202892
 21
8.2885990108688503
 31
0.0
  0
ARC
  5
6A1C
  8
0
 10
9.4521885297801163
 20
7.9614488056228501
 30
0.0
 40
0.5052201595850959
 50
139.6436242991769916
 51
174.6757930071850069
  0
ARC
  5
6A1D
  8
0
 10
9.9238413395551746
 20
8.1492417579399508
 30
0.0
 40
0.9848265662939324
 50
188.2263441834095943
 51
209.5593615864376034
  0
ARC
  5
6A1E
  8
0
 10
8.0788764238271256
 20
7.5665710856463297
 30
0.0
 40
0.0393715937169877
 50
162.1669117288323037
 51
227.2023190037006088
  0
ARC
  5
6A1F
  8
0
 10
8.7223682141740682
 20
8.2079667397440517
 30
0.0
 40
0.947895137885075
 50
225.0018610752970858
 51
261.4598823366255829
  0
ARC
  5
6A20
  8
0
 10
8.6645157662702701
 20
8.1695128573935332
 30
0.0
 40
0.9027466462812931
 50
264.7303071214498118
 51
281.8608311947915013
  0
ARC
  5
6A21
  8
0
 10
8.6645157662698935
 20
8.1695128573999671
 30
0.0
 40
0.9027466462876658
 50
299.1741886792128753
 51
299.1743179154552195
  0
ARC
  5
6A22
  8
0
 10
9.0843330931590316
 20
7.4150554710086141
 30
0.0
 40
0.0393703053609601
 50
251.9700352025496954
 51
252.4698971938937859
  0
ARC
  5
6A23
  8
0
 10
9.0843330931590316
 20
7.4150554710086141
 30
0.0
 40
0.0393703053609601
 50
297.2453716727138726
 51
6.8376113572703074
  0
LINE
  5
6A24
  8
0
 10
9.0671948248202892
 20
7.663402160468852
 30
0.0
 11
9.1234233799329516
 21
7.419742732911689
 31
0.0
  0
ARC
  5
6A25
  8
0
 10
8.8843741880892395
 20
9.8961379890094676
 30
0.0
 40
2.5255097382132701
 50
263.792800240752797
 51
274.9514951129821156
  0
ARC
  5
6A26
  8
0
 10
8.8258167405968848
 20
9.2763025889666508
 30
0.0
 40
1.9029970832759311
 50
246.0108363320686067
 51
263.5276935074397215
  0
ARC
  5
6A27
  8
0
 10
8.607491361665744
 20
8.3225444804829642
 30
0.0
 40
1.064510137163637
 50
283.1717405874071005
 51
297.7022170607311864
  0
LINE
  5
6A28
  8
0
 10
9.0671948248202892
 20
8.2885990108688503
 30
0.0
 11
26.2014378595979593
 21
8.2885990108689942
 31
0.0
  0
LINE
  5
6A29
  8
0
 10
26.2014378595979913
 20
7.6634021604689053
 30
0.0
 11
9.0671948248202892
 21
7.6634021604688618
 31
0.0
  0
LINE
  5
6A2A
  8
0
 10
27.8039676758446994
 20
10.9287685970690802
 30
0.0
 11
27.8039676758446888
 21
10.8905784766690807
 31
0.0
  0
ARC
  5
6A2B
  8
0
 10
27.5417299768919399
 20
10.8926811525840801
 30
0.0
 40
0.2622461286616791
 50
322.9785972241680838
 51
359.5406004767386889
  0
LINE
  5
6A2C
  8
0
 10
25.5008180745510913
 20
10.9287685970690305
 30
0.0
 11
25.5008180745510913
 21
10.8905433757651799
 31
0.0
  0
ARC
  5
6A2D
  8
0
 10
25.7617657275633505
 20
10.8922438613005497
 30
0.0
 40
0.2609531936261092
 50
180.3733670874362929
 51
217.1152916282862861
  0
LINE
  5
6A2E
  8
0
 10
27.7511100781467803
 20
10.7347792678690706
 30
0.0
 11
25.5536756723490015
 21
10.7347792678690208
 31
0.0
  0
LINE
  5
6A2F
  8
0
 10
27.8039676758446888
 20
10.9287685970686006
 30
0.0
 11
25.5008180745510806
 21
10.9287685970686006
 31
0.0
  0
ARC
  5
6A30
  8
0
 10
31.1859555424978616
 20
8.5279513468691981
 30
0.0
 40
4.0826771653999172
 50
147.2799669948597057
 51
166.6882252949490066
  0
ARC
  5
6A31
  8
0
 10
31.185955538361501
 20
8.5279513475911024
 30
0.0
 40
4.0826771612084691
 50
166.6882252914419098
 51
180.3343498015194086
  0
ARC
  5
6A32
  8
0
 10
22.1188285559344706
 20
8.5279508235212251
 30
0.0
 40
4.0826788382046102
 50
13.3117766978667795
 51
32.7200266521023977
  0
ARC
  5
6A33
  8
0
 10
22.1188261909974315
 20
8.5279506557034264
 30
0.0
 40
4.0826811782395342
 50
359.665660237478221
 51
13.31177134791497
  0
LINE
  5
6A34
  8
0
 10
27.1033478908979397
 20
8.5041270002690652
 30
0.0
 11
26.2014378595979416
 21
8.5041270002689835
 31
0.0
  0
LINE
  5
6A35
  8
0
 10
27.1033478908979504
 20
8.5041270002669354
 30
0.0
 11
27.1033478908979397
 21
8.3607006934690649
 31
0.0
  0
ARC
  5
6A36
  8
0
 10
29.6489547213799689
 20
8.3631022096455467
 30
0.0
 40
2.545607963272567
 50
180.0540526128687873
 51
197.9488331167837032
  0
LINE
  5
6A37
  8
0
 10
26.2014378595979416
 20
8.5041270002689835
 30
0.0
 11
26.2014378595979487
 21
8.2885990108690457
 31
0.0
  0
ARC
  5
6A38
  8
0
 10
25.8164441546381305
 20
7.9614488056230366
 30
0.0
 40
0.5052201595850959
 50
5.324206992816312
 51
40.3563757008241879
  0
ARC
  5
6A39
  8
0
 10
25.3447913448601803
 20
8.149241757940846
 30
0.0
 40
0.9848265662968968
 50
330.4406384136033807
 51
351.7736558165743759
  0
ARC
  5
6A3A
  8
0
 10
27.1897562605911212
 20
7.5665710856465473
 30
0.0
 40
0.0393715937169877
 50
312.7976809963004143
 51
17.8330882711689185
  0
ARC
  5
6A3B
  8
0
 10
26.5462644702441715
 20
8.2079667397442542
 30
0.0
 40
0.947895137885075
 50
278.5401176633754972
 51
314.9981389247041079
  0
ARC
  5
6A3C
  8
0
 10
26.6041169181479695
 20
8.1695128573937392
 30
0.0
 40
0.9027466462812931
 50
258.139168805210204
 51
275.2696928785518935
  0
ARC
  5
6A3D
  8
0
 10
26.6041169181483497
 20
8.1695128574001732
 30
0.0
 40
0.9027466462876658
 50
240.8256820845460027
 51
240.8258113207880058
  0
ARC
  5
6A3E
  8
0
 10
26.1842995912592293
 20
7.4150554710088086
 30
0.0
 40
0.0393703053609601
 50
287.5301028061073794
 51
288.0299647974517825
  0
ARC
  5
6A3F
  8
0
 10
26.1842995912592293
 20
7.4150554710088086
 30
0.0
 40
0.0393703053609601
 50
173.1623886427310026
 51
242.7546283272870085
  0
LINE
  5
6A40
  8
0
 10
26.2014378595981192
 20
7.6634021604690448
 30
0.0
 11
26.1452093044853093
 21
7.4197427329118826
 31
0.0
  0
ARC
  5
6A41
  8
0
 10
26.384258496328961
 20
9.8961379890096666
 30
0.0
 40
2.5255097382132701
 50
265.0485048870193054
 51
276.2071997592482262
  0
ARC
  5
6A42
  8
0
 10
26.4428159438213299
 20
9.2763025889668516
 30
0.0
 40
1.9029970832759311
 50
276.4723064925619838
 51
293.9891636679327007
  0
ARC
  5
6A43
  8
0
 10
26.6611413227524885
 20
8.3225444804831703
 30
0.0
 40
1.064510137163637
 50
242.2977829392704052
 51
256.8282594125943774
  0
LINE
  5
6A44
  8
0
 62
     4
 10
17.9031473532159602
 20
10.9287685970686006
 30
0.0
 11
24.6329820359843588
 21
20.0952817181593808
 31
0.0
  0
LINE
  5
6A45
  8
0
 62
     4
 10
17.9031473532159602
 20
-0.0000000300842942
 30
0.0
 11
22.3963351323106608
 21
4.993614497796286
 31
0.0
  0
ENDBLK
  5
6A49
  8
0
  0
ENDSEC
  0
SECTION
  2
ENTITIES
  0
ATTDEF
  5
3930
  8
DEFPOINTS
 10
3943.5671826772831992
 20
63.1574472857718305
 30
0.0
 40
0.001
  1
K-76967T-4
  3

  2
MODELNUMBER
 70
     0
1001
ACDBATTR
1070
     0
1070
     1
  0
ATTDEF
  5
3931
  8
DEFPOINTS
 10
3943.5671826772831992
 20
63.1557806191051725
 30
0.0
 40
0.001
  1
ARTIFACTS
  3

  2
TRADENAME
 70
     0
1001
ACDBATTR
1070
     0
1070
     1
  0
ATTDEF
  5
3932
  8
DEFPOINTS
 10
3943.5671826772831992
 20
63.1541139524385002
 30
0.0
 40
0.001
  1
VALVE TRIM
  3

  2
PRODUCT
 70
     0
1001
ACDBATTR
1070
     0
1070
     1
  0
ARC
  5
73CA
  8
0
 10
3943.5670010146650384
 20
63.1555957183596206
 30
0.0
 40
3.543307086600044
 50
266.3448937554023814
 51
273.6551062443364799
  0
ARC
  5
73CB
  8
0
 10
3943.5670010146650384
 20
63.1555957183595709
 30
0.0
 40
3.5433070865999992
 50
279.1182077352489728
 51
260.8817922647510272
  0
CIRCLE
  5
73CC
  8
0
 10
3943.5670010146650384
 20
63.1555957183595709
 30
0.0
 40
3.2712343312000001
  0
CIRCLE
  5
73CD
  8
0
 10
3943.5670010146650384
 20
64.1989028049595731
 30
0.0
 40
0.3073649241999998
  0
CIRCLE
  5
73CE
  8
0
 10
3943.5670010146650384
 20
64.1989028049595731
 30
0.0
 40
0.3448074624000004
  0
ARC
  5
73CF
  8
0
 10
3943.5670010348981123
 20
64.1989028102748591
 30
0.0
 40
0.4749999946847093
 50
299.4368335872991906
 51
240.5634510255017915
  0
ARC
  5
73D0
  8
0
 10
3943.5670010146650384
 20
64.1989028049595731
 30
0.0
 40
0.7480314960999999
 50
293.3286044138625925
 51
246.671395500842209
  0
ARC
  5
73D1
  8
0
 10
3943.567015683864156
 20
64.1989028057595732
 30
0.0
 40
0.9645815982999996
 50
287.5372715859257937
 51
252.4614273889957019
  0
ARC
  5
73D2
  8
0
 10
3943.5670010146650384
 20
64.1989028049595731
 30
0.0
 40
0.9940944882
 50
288.0518118473779055
 51
251.9481881526222082
  0
ARC
  5
73D3
  8
0
 10
3943.2942386238019026
 20
63.7155544026836225
 30
0.0
 40
0.0799999998664457
 50
353.0399941931722765
 51
60.5631638231329674
  0
ARC
  5
73D4
  8
0
 10
3943.1010338833539208
 20
63.7253595246978932
 30
0.0
 40
0.2733116861722826
 50
317.6483159852760991
 51
355.9087948914011008
  0
ARC
  5
73D5
  8
0
 10
3943.1070027598188972
 20
63.7251772050825878
 30
0.0
 40
0.2688058159051236
 50
292.0665582495590797
 51
316.8199097982903254
  0
ARC
  5
73D6
  8
0
 10
3943.2180171112058815
 20
63.4528726978121398
 30
0.0
 40
0.025264814788451
 50
113.386649725323295
 51
195.264651991273098
  0
ARC
  5
73D7
  8
0
 10
3943.3701542518319911
 20
63.4549605030382509
 30
0.0
 40
0.1767268374065336
 50
182.8345397705726043
 51
249.0624947128171129
  0
LINE
  5
73D8
  8
0
 10
3943.3070010146648201
 20
63.2899028049595813
 30
0.0
 11
3943.8270010146638924
 21
63.2899028049595813
 31
0.0
  0
ARC
  5
73D9
  8
0
 10
3943.3075749125769107
 20
63.2391402883004972
 30
0.0
 40
0.050765760669732
 50
90.6477324139045351
 51
163.2851796894917982
  0
ARC
  5
73DA
  8
0
 10
3943.3070010145811466
 20
63.2399028049199217
 30
0.0
 40
0.049999999930329
 50
163.932912033118896
 51
246.646094216618593
  0
ARC
  5
73DB
  8
0
 10
3943.2752980198019941
 20
63.1664628375626833
 30
0.0
 40
0.0299906792520514
 50
355.9873804530334951
 51
66.6587143999557981
  0
LINE
  5
73DC
  8
0
 10
3943.305215181764197
 20
63.1643642041479794
 30
0.0
 11
3943.1985897557719909
 21
61.6395495723472493
 31
0.0
  0
ARC
  5
73DD
  8
0
 10
3943.1686628342640688
 20
61.6416422665595718
 30
0.0
 40
0.0299999999999995
 50
290.7460921055028962
 51
355.9999999999993747
  0
ARC
  5
73DE
  8
0
 10
3943.1970010146837922
 20
61.5668295167502535
 30
0.0
 40
0.0500000000223012
 50
110.7460920529833999
 51
209.9999999729093929
  0
ARC
  5
73DF
  8
0
 10
3943.1277189823831577
 20
61.5268295167463322
 30
0.0
 40
0.0299999999790321
 50
302.2042274868060758
 51
30.0000000523153503
  0
ARC
  5
73E0
  8
0
 10
3943.1970010146628738
 20
61.4168295167587033
 30
0.0
 40
0.0999999999984283
 50
122.2042274981975964
 51
237.7957724799958896
  0
ARC
  5
73E1
  8
0
 10
3943.1277189823667868
 20
61.3068295167591728
 30
0.0
 40
0.0299999999973723
 50
329.9999999980789767
 51
57.7957725023830875
  0
ARC
  5
73E2
  8
0
 10
3943.1970010146969798
 20
61.2668295167545267
 30
0.0
 40
0.0500000000283545
 50
150.0000000120352865
 51
253.7994138245265958
  0
ARC
  5
73E3
  8
0
 10
3943.1746809406549801
 20
61.1900062504577775
 30
0.0
 40
0.0299999996575528
 50
21.1377618844008914
 51
73.7994144406244885
  0
ARC
  5
73E4
  8
0
 10
3943.4169869569600451
 20
61.2770142742217416
 30
0.0
 40
0.2274640032375722
 50
199.5696599514481022
 51
242.0231188388814019
  0
ARC
  5
73E5
  8
0
 10
3943.2970010135550183
 20
61.049231379342821
 30
0.0
 40
0.0300000011096458
 50
0.000000604967352
 51
63.7277486934812885
  0
LINE
  5
73E6
  8
0
 10
3943.3270010146638924
 20
61.049231379342821
 30
0.0
 11
3943.3270010146638924
 21
61.0273494825595719
 31
0.0
  0
ARC
  5
73E7
  8
0
 10
3943.3570010146640925
 20
61.0273494825595719
 30
0.0
 40
0.0299999999999967
 50
179.9999999999951115
 51
260.2987883867152163
  0
ARC
  5
73E8
  8
0
 10
3943.3369392197328125
 20
60.8959763138279371
 30
0.0
 40
0.1029022683029016
 50
14.0164544779249294
 51
81.6145134578642626
  0
ARC
  5
73E9
  8
0
 10
3943.4653947720330507
 20
60.9299028059395127
 30
0.0
 40
0.0300000015998556
 50
197.4646239404439996
 51
270.0116477179396952
  0
ARC
  5
73EA
  8
0
 10
3943.8397634035081865
 20
63.7155544028791994
 30
0.0
 40
0.0799999998664457
 50
119.4368362179453982
 51
186.9600058479101108
  0
ARC
  5
73EB
  8
0
 10
3944.0329681439488922
 20
63.7253595250319975
 30
0.0
 40
0.2733116861722826
 50
184.0912051496812012
 51
222.3516840558025081
  0
ARC
  5
73EC
  8
0
 10
3944.0269992674839159
 20
63.7251772054124288
 30
0.0
 40
0.2688058159051236
 50
223.1800902427928861
 51
247.9334417915171969
  0
ARC
  5
73ED
  8
0
 10
3943.9159849162911087
 20
63.4528726980623716
 30
0.0
 40
0.025264814788451
 50
344.7353480498088061
 51
66.6133503157540048
  0
ARC
  5
73EE
  8
0
 10
3943.7638477756649991
 20
63.4549605031794002
 30
0.0
 40
0.1767268374065336
 50
290.9375053282498129
 51
357.165460270510323
  0
ARC
  5
73EF
  8
0
 10
3943.8264271150728746
 20
63.2391402884865172
 30
0.0
 40
0.050765760669732
 50
16.7148203515950584
 51
89.3522676271609413
  0
ARC
  5
73F0
  8
0
 10
3943.827001013070003
 20
63.2399028051063468
 30
0.0
 40
0.049999999930329
 50
293.353905824474225
 51
16.0670880079681915
  0
ARC
  5
73F1
  8
0
 10
3943.8587040079009967
 20
63.1664628377718529
 30
0.0
 40
0.0299906792520514
 50
113.3412856411336946
 51
184.0126195880488069
  0
LINE
  5
73F2
  8
0
 10
3943.8287868459410674
 20
63.1643642043356905
 30
0.0
 11
3943.9354122730260315
 21
61.6395495726114078
 31
0.0
  0
ARC
  5
73F3
  8
0
 10
3943.9653391945321346
 20
61.6416422668451887
 30
0.0
 40
0.0299999999999995
 50
184.0000000410832968
 51
249.2539079355915135
  0
ARC
  5
73F4
  8
0
 10
3943.9370010141660714
 20
61.5668295170155488
 30
0.0
 40
0.0500000000223012
 50
330.0000000681682764
 51
69.2539079881110382
  0
ARC
  5
73F5
  8
0
 10
3944.0062830464958097
 20
61.5268295170613229
 30
0.0
 40
0.0299999999790321
 50
149.9999999887627098
 51
237.7957725542725029
  0
ARC
  5
73F6
  8
0
 10
3943.9370010142952196
 20
61.4168295170239986
 30
0.0
 40
0.0999999999984283
 50
302.2042275611046875
 51
57.7957725428811599
  0
ARC
  5
73F7
  8
0
 10
3944.0062830466699779
 20
61.3068295170741635
 30
0.0
 40
0.0299999999973723
 50
122.2042275387177028
 51
210.0000000429986926
  0
ARC
  5
73F8
  8
0
 10
3943.9370010143688887
 20
61.2668295170198292
 30
0.0
 40
0.0500000000283545
 50
286.2005862165523808
 51
30.0000000290557409
  0
ARC
  5
73F9
  8
0
 10
3943.9593210884650034
 20
61.1900062507390814
 30
0.0
 40
0.0299999996575528
 50
106.2005856004545024
 51
158.8622381566761987
  0
ARC
  5
73FA
  8
0
 10
3943.7170150720990023
 20
61.2770142743293107
 30
0.0
 40
0.2274640032375722
 50
297.9768812022128941
 51
340.4303400896334892
  0
ARC
  5
73FB
  8
0
 10
3943.8370010156668286
 20
61.0492313795364012
 30
0.0
 40
0.0300000011096458
 50
116.2722513476040973
 51
179.9999994361153881
  0
LINE
  5
73FC
  8
0
 10
3943.807001014557045
 20
61.0492313795149002
 30
0.0
 11
3943.8070010145729611
 21
61.0273494827316583
 31
0.0
  0
ARC
  5
73FD
  8
0
 10
3943.7770010145732158
 20
61.027349482710143
 30
0.0
 40
0.0299999999999967
 50
279.7012116543619982
 51
0.0000000410876776
  0
ARC
  5
73FE
  8
0
 10
3943.7970628095968095
 20
60.8959763139928967
 30
0.0
 40
0.1029022683029016
 50
98.38548658322091
 51
165.9835455631587138
  0
ARC
  5
73FF
  8
0
 10
3943.6686072584820977
 20
60.9299028051473996
 30
0.0
 40
0.0300000001878267
 50
270.0000003480441251
 51
342.535376983993217
  0
LINE
  5
7400
  8
0
 10
3943.287180543219165
 20
63.1939991132595722
 30
0.0
 11
3943.8468214861941306
 21
63.1939991132962788
 31
0.0
  0
LINE
  5
7401
  8
0
 10
3943.1792896520050817
 20
61.6135874853595666
 30
0.0
 11
3943.9547123777088018
 21
61.6135874853595666
 31
0.0
  0
LINE
  5
7402
  8
0
 10
3943.1437071436698716
 20
61.5014449013781288
 30
0.0
 11
3943.9902948857388765
 21
61.5014449013595694
 31
0.0
  0
LINE
  5
7403
  8
0
 10
3943.1437071436648694
 20
61.3322141321421697
 30
0.0
 11
3943.9902948848989581
 21
61.3322141321595709
 31
0.0
  0
LINE
  5
7404
  8
0
 10
3943.1830509682417869
 20
61.2188149751109592
 30
0.0
 11
3943.9509510614220744
 21
61.2188149751595674
 31
0.0
  0
LINE
  5
7405
  8
0
 10
3943.465400870763915
 20
60.8999028049595665
 30
0.0
 11
3943.6686072586639966
 21
60.8999028049595665
 31
0.0
  0
LINE
  5
7406
  8
0
 10
3943.3519457182837868
 20
60.9977784838595696
 30
0.0
 11
3943.7820563213122114
 21
60.9977784855376726
 31
0.0
  0
LINE
  5
7407
  8
0
 10
3943.3102760037618282
 20
61.0761344405358528
 30
0.0
 11
3943.8237219062048098
 21
61.0761324077409995
 31
0.0
  0
ARC
  5
7408
  8
0
 10
3943.5670010870749138
 20
63.1555949373843788
 30
0.0
 40
3.5391818020053591
 50
273.8270147721992771
 51
275.8007950659002177
  0
ARC
  5
7409
  8
0
 10
3943.5670010556791567
 20
63.1555953606490732
 30
0.0
 40
3.5391822262758308
 50
275.8007948790138926
 51
278.9595331304556112
  0
LINE
  5
740A
  8
0
 10
3944.1181821169147952
 20
59.6595961803685171
 30
0.0
 11
3944.1285154242718818
 21
59.6570636436527622
 31
0.0
  0
LINE
  5
740B
  8
0
 10
3943.803221487106839
 20
59.6243051231850103
 30
0.0
 11
3943.7928881803891272
 21
59.6194961583484897
 31
0.0
  0
ARC
  5
740C
  8
0
 10
3943.5670009422528892
 20
63.1555949373843788
 30
0.0
 40
3.5391818020053591
 50
264.1992049340997823
 51
266.1729852278007229
  0
ARC
  5
740D
  8
0
 10
3943.5670009736491011
 20
63.1555953606490732
 30
0.0
 40
3.5391822262758308
 50
261.0404668695442751
 51
264.1992051209859937
  0
LINE
  5
740E
  8
0
 10
3943.0158199124139173
 20
59.6595961803685384
 30
0.0
 11
3943.0054866050559212
 21
59.6570636436527622
 31
0.0
  0
LINE
  5
740F
  8
0
 10
3943.3307805422218735
 20
59.6243051231850174
 30
0.0
 11
3943.3411138489391305
 21
59.6194961583484897
 31
0.0
  0
LINE
  5
7410
  8
0
 10
3943.2117599154880736
 20
63.4776241703595687
 30
0.0
 11
3943.9222421125941764
 21
63.4776241703595687
 31
0.0
  0
ENDSEC
  0
EOF
