  0
SECTION
  2
HEADER
  9
$ACADVER
  1
AC1009
  9
$INSBASE
 10
3948.4917351738131401
 20
63.2026408809327407
 30
0.0
  9
$EXTMIN
 10
3944.0783978889708123
 20
59.6593337943327384
 30
0.0
  9
$EXTMAX
 10
3948.5070028949608059
 20
66.745947967532743
 30
0.0
  9
$LIMMIN
 10
0.0
 20
0.0
  9
$LIMMAX
 10
11.6929133858000007
 20
8.2677165353999982
  9
$ORTHOMODE
 70
     0
  9
$REGENMODE
 70
     1
  9
$FILLMODE
 70
     1
  9
$QTEXTMODE
 70
     0
  9
$MIRRTEXT
 70
     0
  9
$DRAGMODE
 70
     2
  9
$LTSCALE
 40
0.6431102362
  9
$OSMODE
 70
  4095
  9
$ATTMODE
 70
     1
  9
$TEXTSIZE
 40
0.2
  9
$TRACEWID
 40
0.05
  9
$TEXTSTYLE
  7
STANDARD
  9
$CLAYER
  8
0
  9
$CELTYPE
  6
BYLAYER
  9
$CECOLOR
 62
   256
  9
$DIMSCALE
 40
1.0
  9
$DIMASZ
 40
0.1875
  9
$DIMEXO
 40
0.0625
  9
$DIMDLI
 40
0.4443307087
  9
$DIMRND
 40
0.0
  9
$DIMDLE
 40
0.0
  9
$DIMEXE
 40
0.125
  9
$DIMTP
 40
0.01
  9
$DIMTM
 40
0.01
  9
$DIMTXT
 40
2.0
  9
$DIMCEN
 40
0.1052362205
  9
$DIMTSZ
 40
0.0
  9
$DIMTOL
 70
     1
  9
$DIMLIM
 70
     0
  9
$DIMTIH
 70
     1
  9
$DIMTOH
 70
     1
  9
$DIMSE1
 70
     0
  9
$DIMSE2
 70
     0
  9
$DIMTAD
 70
     0
  9
$DIMZIN
 70
     0
  9
$DIMBLK
  1

  9
$DIMASO
 70
     1
  9
$DIMSHO
 70
     1
  9
$DIMPOST
  1
\X
  9
$DIMAPOST
  1

  9
$DIMALT
 70
     1
  9
$DIMALTD
 70
     2
  9
$DIMALTF
 40
25.3999999999999986
  9
$DIMLFAC
 40
1.0
  9
$DIMTOFL
 70
     0
  9
$DIMTVP
 40
0.0
  9
$DIMTIX
 70
     0
  9
$DIMSOXD
 70
     0
  9
$DIMSAH
 70
     0
  9
$DIMBLK1
  1

  9
$DIMBLK2
  1

  9
$DIMSTYLE
  2
STANDARD
  9
$DIMCLRD
 70
     0
  9
$DIMCLRE
 70
     0
  9
$DIMCLRT
 70
     0
  9
$DIMTFAC
 40
1.0
  9
$DIMGAP
 40
0.09
  9
$LUNITS
 70
     2
  9
$LUPREC
 70
     4
  9
$SKETCHINC
 40
0.1
  9
$FILLETRAD
 40
0.0
  9
$AUNITS
 70
     0
  9
$AUPREC
 70
     0
  9
$MENU
  1
.
  9
$ELEVATION
 40
0.0
  9
$PELEVATION
 40
0.0
  9
$THICKNESS
 40
0.0
  9
$LIMCHECK
 70
     0
  9
$BLIPMODE
 70
     0
  9
$CHAMFERA
 40
0.0
  9
$CHAMFERB
 40
0.0
  9
$SKPOLY
 70
     0
  9
$TDCREATE
 40
2458060.468368056230247
  9
$TDUPDATE
 40
2459101.4644328709691763
  9
$TDINDWG
 40
0.4160371528
  9
$TDUSRTIMER
 40
0.4160371528
  9
$USRTIMER
 70
     1
  9
$ANGBASE
 50
0.0
  9
$ANGDIR
 70
     0
  9
$PDMODE
 70
     0
  9
$PDSIZE
 40
0.3125
  9
$PLINEWID
 40
0.0
  9
$COORDS
 70
     1
  9
$SPLFRAME
 70
     0
  9
$SPLINETYPE
 70
     6
  9
$SPLINESEGS
 70
     8
  9
$ATTDIA
 70
     1
  9
$ATTREQ
 70
     1
  9
$HANDLING
 70
     1
  9
$HANDSEED
  5
7779
  9
$SURFTAB1
 70
     6
  9
$SURFTAB2
 70
     6
  9
$SURFTYPE
 70
     6
  9
$SURFU
 70
     6
  9
$SURFV
 70
     6
  9
$UCSNAME
  2

  9
$UCSORG
 10
0.0
 20
0.0
 30
0.0
  9
$UCSXDIR
 10
1.0
 20
0.0
 30
0.0
  9
$UCSYDIR
 10
0.0
 20
1.0
 30
0.0
  9
$PUCSNAME
  2

  9
$PUCSORG
 10
0.0
 20
0.0
 30
0.0
  9
$PUCSXDIR
 10
1.0
 20
0.0
 30
0.0
  9
$PUCSYDIR
 10
0.0
 20
1.0
 30
0.0
  9
$USERI1
 70
     0
  9
$USERI2
 70
     0
  9
$USERI3
 70
     0
  9
$USERI4
 70
     0
  9
$USERI5
 70
     0
  9
$USERR1
 40
0.0
  9
$USERR2
 40
0.0
  9
$USERR3
 40
0.0
  9
$USERR4
 40
0.0
  9
$USERR5
 40
0.0
  9
$WORLDVIEW
 70
     1
  9
$SHADEDGE
 70
     3
  9
$SHADEDIF
 70
    70
  9
$TILEMODE
 70
     1
  9
$MAXACTVP
 70
    64
  9
$PLIMCHECK
 70
     0
  9
$PEXTMIN
 10
1.0000000000000000E+20
 20
1.0000000000000000E+20
 30
1.0000000000000000E+20
  9
$PEXTMAX
 10
-1.0000000000000000E+20
 20
-1.0000000000000000E+20
 30
-1.0000000000000000E+20
  9
$PLIMMIN
 10
0.0
 20
0.0
  9
$PLIMMAX
 10
12.0
 20
9.0
  9
$UNITMODE
 70
     0
  9
$VISRETAIN
 70
     1
  9
$PLINEGEN
 70
     0
  9
$PSLTSCALE
 70
     1
  0
ENDSEC
  0
SECTION
  2
TABLES
  0
TABLE
  2
VPORT
 70
     1
  0
VPORT
  2
*ACTIVE
 70
     0
 10
0.0
 20
0.0
 11
1.0
 21
1.0
 12
168.8486713250482865
 22
-63.6705927520284121
 13
0.0
 23
0.0
 14
1.0
 24
1.0
 15
0.0
 25
0.0
 16
0.0
 26
0.0
 36
5.1040778033513332
 17
3792.35791015625
 27
120.1806564331053977
 37
0.0
 40
46.8928763403697175
 41
2.005224660397074
 42
50.0
 43
0.0
 44
0.0
 50
0.0
 51
0.0
 71
     0
 72
   100
 73
     1
 74
     1
 75
     0
 76
     0
 77
     0
 78
     0
  0
ENDTAB
  0
TABLE
  2
LTYPE
 70
     2
  0
LTYPE
  2
CONTINUOUS
 70
     0
  3
Solid line
 72
    65
 73
     0
 40
0.0
  0
LTYPE
  2
PHANTOM2
 70
     0
  3
___ _ _ ___ _ _ ___ _ _ ___ _ _
 72
    65
 73
     6
 40
1.25
 49
0.625
 49
-0.125
 49
0.125
 49
-0.125
 49
0.125
 49
-0.125
  0
ENDTAB
  0
TABLE
  2
LAYER
 70
     2
  0
LAYER
  2
0
 70
     0
 62
   255
  6
CONTINUOUS
  0
LAYER
  2
DEFPOINTS
 70
     0
 62
     7
  6
CONTINUOUS
  0
ENDTAB
  0
TABLE
  2
STYLE
 70
     1
  0
STYLE
  2
STANDARD
 70
     0
 40
0.0
 41
0.8
 50
0.0
 71
     0
 42
0.2
  3
txt
  4

  0
ENDTAB
  0
TABLE
  2
VIEW
 70
     0
  0
ENDTAB
  0
TABLE
  2
UCS
 70
     0
  0
ENDTAB
  0
TABLE
  2
APPID
 70
     9
  0
APPID
  2
ACAD
 70
     0
  0
APPID
  2
ACAD_MLEADERVER
 70
     0
  0
APPID
  2
ACAD_EXEMPT_FROM_CAD_STANDARDS
 70
     0
  0
APPID
  2
ACAD_NAV_VCDISPLAY
 70
     0
  0
APPID
  2
ACAECLAYERSTANDARD
 70
     0
  0
APPID
  2
ACCMTRANSPARENCY
 70
     0
  0
APPID
  2
ACAD_DSTYLE_DIMJAG
 70
     0
  0
APPID
  2
ACAD_DSTYLE_DIMTALN
 70
     0
  0
APPID
  2
ACDBATTR
 70
     0
  0
ENDTAB
  0
TABLE
  2
DIMSTYLE
 70
     1
  0
DIMSTYLE
  2
STANDARD
 70
     0
  3

  4

  5

  6

  7

 40
1.0
 41
0.1875
 42
0.0625
 43
0.38
 44
0.125
 45
0.0
 46
0.0
 47
0.01
 48
0.01
140
0.15625
141
0.09
142
0.0
143
25.3999999999999986
144
1.0
145
0.0
146
1.0
147
0.09
 71
     1
 72
     0
 73
     1
 74
     1
 75
     0
 76
     0
 77
     0
 78
     4
170
     0
171
     2
172
     0
173
     0
174
     0
175
     0
176
     0
177
     0
178
     0
  0
ENDTAB
  0
ENDSEC
  0
SECTION
  2
BLOCKS
  0
BLOCK
  8
0
  2
$MODEL_SPACE
 70
     0
 10
0.0
 20
0.0
 30
0.0
  3
$MODEL_SPACE
  1

  0
ENDBLK
  5
21
  8
0
  0
BLOCK
 67
     1
  8
0
  2
$PAPER_SPACE
 70
     0
 10
0.0
 20
0.0
 30
0.0
  3
$PAPER_SPACE
  1

  0
ENDBLK
  5
1D
 67
     1
  8
0
  0
BLOCK
  8
0
  2
_FILLED
 70
     0
 10
0.0
 20
0.0
 30
0.0
  3
_FILLED
  1

  0
SOLID
  5
69B4
  8
0
  6
BYBLOCK
 62
     0
 10
0.0
 20
0.0
 30
0.0
 11
-1.0
 21
0.1666666667
 31
0.0
 12
-1.0
 22
-0.1666666667
 32
0.0
 13
-1.0
 23
-0.1666666667
 33
0.0
  0
ENDBLK
  5
69B5
  8
0
  6
BYBLOCK
 62
     0
  0
BLOCK
  8
0
  2
A$CDFAF6206
 70
     0
 10
0.0
 20
0.0
 30
0.0
  3
A$CDFAF6206
  1

  0
LINE
  5
6A0E
  8
0
 10
7.4646650085734834
 20
10.9287685970688493
 30
0.0
 11
7.4646650085734896
 21
10.8905784766688498
 31
0.0
  0
ARC
  5
6A0F
  8
0
 10
7.7269027075262349
 20
10.8926811525838598
 30
0.0
 40
0.2622461286616791
 50
180.4593995232625048
 51
217.0214027758331099
  0
LINE
  5
6A10
  8
0
 10
9.767814609867095
 20
10.9287685970688493
 30
0.0
 11
9.767814609867095
 21
10.8905433757650094
 31
0.0
  0
ARC
  5
6A11
  8
0
 10
9.5068669568548287
 20
10.8922438613003703
 30
0.0
 40
0.2609531936261092
 50
322.8847083717149076
 51
359.6266329125650145
  0
LINE
  5
6A12
  8
0
 10
7.517522606271406
 20
10.7347792678688396
 30
0.0
 11
9.7149570120691777
 21
10.7347792678688396
 31
0.0
  0
LINE
  5
6A13
  8
0
 10
7.4646650085734834
 20
10.9287685970688493
 30
0.0
 11
9.7678146123202936
 21
10.9287685970688493
 31
0.0
  0
ARC
  5
6A14
  8
0
 10
4.0826771419203629
 20
8.527951346868889
 30
0.0
 40
4.0826771653999172
 50
13.3117747050523896
 51
32.7200330051415591
  0
ARC
  5
6A15
  8
0
 10
4.0826771460567306
 20
8.5279513475907933
 30
0.0
 40
4.0826771612084691
 50
359.6656501984817851
 51
13.3117747085593798
  0
ARC
  5
6A16
  8
0
 10
13.1498041284835097
 20
8.5279508235212234
 30
0.0
 40
4.0826788382043553
 50
147.2799733478981068
 51
166.6882233021349862
  0
ARC
  5
6A17
  8
0
 10
13.1498064934207992
 20
8.5279506557033251
 30
0.0
 40
4.0826811782395342
 50
166.688228652086309
 51
180.3343397625230011
  0
LINE
  5
6A18
  8
0
 10
8.1652847935202928
 20
8.504127000268852
 30
0.0
 11
9.0671948248202892
 21
8.5041270002687881
 31
0.0
  0
LINE
  5
6A19
  8
0
 10
8.1652847935202786
 20
8.5041270002667204
 30
0.0
 11
8.1652847935202928
 21
8.3607006934688481
 31
0.0
  0
ARC
  5
6A1A
  8
0
 10
5.6196779630382627
 20
8.3631022096452732
 30
0.0
 40
2.545607963272567
 50
342.0511668832173768
 51
359.945947387132378
  0
LINE
  5
6A1B
  8
0
 10
9.0671948248202892
 20
8.5041270002687881
 30
0.0
 11
9.0671948248202892
 21
8.2885990108688503
 31
0.0
  0
ARC
  5
6A1C
  8
0
 10
9.4521885297801163
 20
7.9614488056228501
 30
0.0
 40
0.5052201595850959
 50
139.6436242991769916
 51
174.6757930071850069
  0
ARC
  5
6A1D
  8
0
 10
9.9238413395551746
 20
8.1492417579399508
 30
0.0
 40
0.9848265662939324
 50
188.2263441834095943
 51
209.5593615864376034
  0
ARC
  5
6A1E
  8
0
 10
8.0788764238271256
 20
7.5665710856463297
 30
0.0
 40
0.0393715937169877
 50
162.1669117288323037
 51
227.2023190037006088
  0
ARC
  5
6A1F
  8
0
 10
8.7223682141740682
 20
8.2079667397440517
 30
0.0
 40
0.947895137885075
 50
225.0018610752970858
 51
261.4598823366255829
  0
ARC
  5
6A20
  8
0
 10
8.6645157662702701
 20
8.1695128573935332
 30
0.0
 40
0.9027466462812931
 50
264.7303071214498118
 51
281.8608311947915013
  0
ARC
  5
6A21
  8
0
 10
8.6645157662698935
 20
8.1695128573999671
 30
0.0
 40
0.9027466462876658
 50
299.1741886792128753
 51
299.1743179154552195
  0
ARC
  5
6A22
  8
0
 10
9.0843330931590316
 20
7.4150554710086141
 30
0.0
 40
0.0393703053609601
 50
251.9700352025496954
 51
252.4698971938937859
  0
ARC
  5
6A23
  8
0
 10
9.0843330931590316
 20
7.4150554710086141
 30
0.0
 40
0.0393703053609601
 50
297.2453716727138726
 51
6.8376113572703074
  0
LINE
  5
6A24
  8
0
 10
9.0671948248202892
 20
7.663402160468852
 30
0.0
 11
9.1234233799329516
 21
7.419742732911689
 31
0.0
  0
ARC
  5
6A25
  8
0
 10
8.8843741880892395
 20
9.8961379890094676
 30
0.0
 40
2.5255097382132701
 50
263.792800240752797
 51
274.9514951129821156
  0
ARC
  5
6A26
  8
0
 10
8.8258167405968848
 20
9.2763025889666508
 30
0.0
 40
1.9029970832759311
 50
246.0108363320686067
 51
263.5276935074397215
  0
ARC
  5
6A27
  8
0
 10
8.607491361665744
 20
8.3225444804829642
 30
0.0
 40
1.064510137163637
 50
283.1717405874071005
 51
297.7022170607311864
  0
LINE
  5
6A28
  8
0
 10
9.0671948248202892
 20
8.2885990108688503
 30
0.0
 11
26.2014378595979593
 21
8.2885990108689942
 31
0.0
  0
LINE
  5
6A29
  8
0
 10
26.2014378595979913
 20
7.6634021604689053
 30
0.0
 11
9.0671948248202892
 21
7.6634021604688618
 31
0.0
  0
LINE
  5
6A2A
  8
0
 10
27.8039676758446994
 20
10.9287685970690802
 30
0.0
 11
27.8039676758446888
 21
10.8905784766690807
 31
0.0
  0
ARC
  5
6A2B
  8
0
 10
27.5417299768919399
 20
10.8926811525840801
 30
0.0
 40
0.2622461286616791
 50
322.9785972241680838
 51
359.5406004767386889
  0
LINE
  5
6A2C
  8
0
 10
25.5008180745510913
 20
10.9287685970690305
 30
0.0
 11
25.5008180745510913
 21
10.8905433757651799
 31
0.0
  0
ARC
  5
6A2D
  8
0
 10
25.7617657275633505
 20
10.8922438613005497
 30
0.0
 40
0.2609531936261092
 50
180.3733670874362929
 51
217.1152916282862861
  0
LINE
  5
6A2E
  8
0
 10
27.7511100781467803
 20
10.7347792678690706
 30
0.0
 11
25.5536756723490015
 21
10.7347792678690208
 31
0.0
  0
LINE
  5
6A2F
  8
0
 10
27.8039676758446888
 20
10.9287685970686006
 30
0.0
 11
25.5008180745510806
 21
10.9287685970686006
 31
0.0
  0
ARC
  5
6A30
  8
0
 10
31.1859555424978616
 20
8.5279513468691981
 30
0.0
 40
4.0826771653999172
 50
147.2799669948597057
 51
166.6882252949490066
  0
ARC
  5
6A31
  8
0
 10
31.185955538361501
 20
8.5279513475911024
 30
0.0
 40
4.0826771612084691
 50
166.6882252914419098
 51
180.3343498015194086
  0
ARC
  5
6A32
  8
0
 10
22.1188285559344706
 20
8.5279508235212251
 30
0.0
 40
4.0826788382046102
 50
13.3117766978667795
 51
32.7200266521023977
  0
ARC
  5
6A33
  8
0
 10
22.1188261909974315
 20
8.5279506557034264
 30
0.0
 40
4.0826811782395342
 50
359.665660237478221
 51
13.31177134791497
  0
LINE
  5
6A34
  8
0
 10
27.1033478908979397
 20
8.5041270002690652
 30
0.0
 11
26.2014378595979416
 21
8.5041270002689835
 31
0.0
  0
LINE
  5
6A35
  8
0
 10
27.1033478908979504
 20
8.5041270002669354
 30
0.0
 11
27.1033478908979397
 21
8.3607006934690649
 31
0.0
  0
ARC
  5
6A36
  8
0
 10
29.6489547213799689
 20
8.3631022096455467
 30
0.0
 40
2.545607963272567
 50
180.0540526128687873
 51
197.9488331167837032
  0
LINE
  5
6A37
  8
0
 10
26.2014378595979416
 20
8.5041270002689835
 30
0.0
 11
26.2014378595979487
 21
8.2885990108690457
 31
0.0
  0
ARC
  5
6A38
  8
0
 10
25.8164441546381305
 20
7.9614488056230366
 30
0.0
 40
0.5052201595850959
 50
5.324206992816312
 51
40.3563757008241879
  0
ARC
  5
6A39
  8
0
 10
25.3447913448601803
 20
8.149241757940846
 30
0.0
 40
0.9848265662968968
 50
330.4406384136033807
 51
351.7736558165743759
  0
ARC
  5
6A3A
  8
0
 10
27.1897562605911212
 20
7.5665710856465473
 30
0.0
 40
0.0393715937169877
 50
312.7976809963004143
 51
17.8330882711689185
  0
ARC
  5
6A3B
  8
0
 10
26.5462644702441715
 20
8.2079667397442542
 30
0.0
 40
0.947895137885075
 50
278.5401176633754972
 51
314.9981389247041079
  0
ARC
  5
6A3C
  8
0
 10
26.6041169181479695
 20
8.1695128573937392
 30
0.0
 40
0.9027466462812931
 50
258.139168805210204
 51
275.2696928785518935
  0
ARC
  5
6A3D
  8
0
 10
26.6041169181483497
 20
8.1695128574001732
 30
0.0
 40
0.9027466462876658
 50
240.8256820845460027
 51
240.8258113207880058
  0
ARC
  5
6A3E
  8
0
 10
26.1842995912592293
 20
7.4150554710088086
 30
0.0
 40
0.0393703053609601
 50
287.5301028061073794
 51
288.0299647974517825
  0
ARC
  5
6A3F
  8
0
 10
26.1842995912592293
 20
7.4150554710088086
 30
0.0
 40
0.0393703053609601
 50
173.1623886427310026
 51
242.7546283272870085
  0
LINE
  5
6A40
  8
0
 10
26.2014378595981192
 20
7.6634021604690448
 30
0.0
 11
26.1452093044853093
 21
7.4197427329118826
 31
0.0
  0
ARC
  5
6A41
  8
0
 10
26.384258496328961
 20
9.8961379890096666
 30
0.0
 40
2.5255097382132701
 50
265.0485048870193054
 51
276.2071997592482262
  0
ARC
  5
6A42
  8
0
 10
26.4428159438213299
 20
9.2763025889668516
 30
0.0
 40
1.9029970832759311
 50
276.4723064925619838
 51
293.9891636679327007
  0
ARC
  5
6A43
  8
0
 10
26.6611413227524885
 20
8.3225444804831703
 30
0.0
 40
1.064510137163637
 50
242.2977829392704052
 51
256.8282594125943774
  0
LINE
  5
6A44
  8
0
 62
     4
 10
17.9031473532159602
 20
10.9287685970686006
 30
0.0
 11
24.6329820359843588
 21
20.0952817181593808
 31
0.0
  0
LINE
  5
6A45
  8
0
 62
     4
 10
17.9031473532159602
 20
-0.0000000300842942
 30
0.0
 11
22.3963351323106608
 21
4.993614497796286
 31
0.0
  0
ENDBLK
  5
6A49
  8
0
  0
ENDSEC
  0
SECTION
  2
ENTITIES
  0
ATTDEF
  5
3930
  8
DEFPOINTS
 10
3948.4963362282919661
 20
63.2072470421232495
 30
0.0
 40
0.001
  1
K-76967T-4
  3

  2
MODELNUMBER
 70
     0
1001
ACDBATTR
1070
     0
1070
     1
  0
ATTDEF
  5
3931
  8
DEFPOINTS
 10
3948.4963362282919661
 20
63.2055803754565915
 30
0.0
 40
0.001
  1
ARTIFACTS
  3

  2
TRADENAME
 70
     0
1001
ACDBATTR
1070
     0
1070
     1
  0
ATTDEF
  5
3932
  8
DEFPOINTS
 10
3948.4963362282919661
 20
63.2039137087899192
 30
0.0
 40
0.001
  1
VALVE TRIM
  3

  2
PRODUCT
 70
     0
1001
ACDBATTR
1070
     0
1070
     1
  0
ARC
  5
75C6
  8
0
 10
3944.3131505197911792
 20
63.7724046872710701
 30
0.0
 40
0.2733116861722826
 50
317.6483159852760991
 51
355.9087948914011008
  0
ARC
  5
75C7
  8
0
 10
3944.3191193962561556
 20
63.7722223676557718
 30
0.0
 40
0.2688058159051236
 50
292.0665582495590797
 51
316.8199097982903254
  0
ARC
  5
75C8
  8
0
 10
3944.4301337476431399
 20
63.4999178603853167
 30
0.0
 40
0.025264814788451
 50
113.386649725323295
 51
195.264651991273098
  0
ARC
  5
75C9
  8
0
 10
3944.5822708882669758
 20
63.5020056656114207
 30
0.0
 40
0.1767268374065289
 50
182.8345397705714106
 51
249.0624945436773885
  0
LINE
  5
75CA
  8
0
 10
3944.5191176506141346
 20
63.3369479677191833
 30
0.0
 11
3945.0391176493858438
 21
63.3369479677191833
 31
0.0
  0
ARC
  5
75CB
  8
0
 10
3944.5196915494398127
 20
63.2861854505764327
 30
0.0
 40
0.0507657611637117
 50
90.6477334389778235
 51
163.2851795066221996
  0
ARC
  5
75CC
  8
0
 10
3944.5191176510170408
 20
63.2869479674930915
 30
0.0
 40
0.049999999930329
 50
163.932912033118896
 51
246.646094216618593
  0
ARC
  5
75CD
  8
0
 10
3944.4874146562387978
 20
63.2135080001358602
 30
0.0
 40
0.0299906792520514
 50
355.9873804530334951
 51
66.6587143999557981
  0
LINE
  5
75CE
  8
0
 10
3944.5173318182000912
 20
63.2114093667211492
 30
0.0
 11
3944.410706392226075
 21
61.6865947351725623
 31
0.0
  0
ARC
  5
75CF
  8
0
 10
3944.3807794707008725
 20
61.6886874291327203
 30
0.0
 40
0.029999999999978
 50
290.7460921055018161
 51
356.0000004827542739
  0
ARC
  5
75D0
  8
0
 10
3944.4091176511210506
 20
61.6138746793234304
 30
0.0
 40
0.0500000000223012
 50
110.7460920529833999
 51
209.9999999729093929
  0
ARC
  5
75D1
  8
0
 10
3944.3398356188190519
 20
61.573874679319502
 30
0.0
 40
0.0299999999790316
 50
302.2042274327031919
 51
30.0000000523146504
  0
ARC
  5
75D2
  8
0
 10
3944.4091176510992227
 20
61.4638746793318802
 30
0.0
 40
0.0999999999984299
 50
122.2042275181517965
 51
237.7957724799734081
  0
ARC
  5
75D3
  8
0
 10
3944.3398356188040452
 20
61.3538746793323426
 30
0.0
 40
0.0299999999973688
 50
329.999999998076305
 51
57.7957725647409788
  0
ARC
  5
75D4
  8
0
 10
3944.409117651132874
 20
61.3138746793277107
 30
0.0
 40
0.0500000000283545
 50
150.0000000120352865
 51
253.7994138245265958
  0
ARC
  5
75D5
  8
0
 10
3944.3867975770908743
 20
61.2370514130309473
 30
0.0
 40
0.0299999996575475
 50
21.1377624193386104
 51
73.7994144406251706
  0
ARC
  5
75D6
  8
0
 10
3944.6291035934309548
 20
61.3240594368398391
 30
0.0
 40
0.2274640032940703
 50
199.569659888564388
 51
242.0231188362004104
  0
ARC
  5
75D7
  8
0
 10
3944.5091176499909125
 20
61.0962765419159766
 30
0.0
 40
0.0300000011096472
 50
0.0000088552113904
 51
63.7277486934807484
  0
LINE
  5
75D8
  8
0
 10
3944.5391176510997866
 20
61.0962765462357993
 30
0.0
 11
3944.5391176510997866
 21
61.0743946451327488
 31
0.0
  0
ARC
  5
75D9
  8
0
 10
3944.5691176511008962
 20
61.0743946451327488
 30
0.0
 40
0.0299999999999994
 50
180.0000000000007958
 51
260.298786640385913
  0
ARC
  5
75DA
  8
0
 10
3944.549055856114137
 20
60.9430214763677682
 30
0.0
 40
0.1029022683650171
 50
14.0164544884279891
 51
81.6145139388771099
  0
ARC
  5
75DB
  8
0
 10
3944.6775114084698544
 20
60.9769479685126967
 30
0.0
 40
0.0300000015998556
 50
197.4646239404439996
 51
270.0116477179396952
  0
ARC
  5
75DC
  8
0
 10
3945.0518800363961418
 20
63.7625995660729501
 30
0.0
 40
0.0799999964196507
 50
119.4368343345171013
 51
186.9600065970190883
  0
ARC
  5
75DD
  8
0
 10
3945.2450847803847864
 20
63.7724046876051816
 30
0.0
 40
0.2733116861722826
 50
184.0912051496812012
 51
222.3516840558025081
  0
ARC
  5
75DE
  8
0
 10
3945.2391159039198101
 20
63.7722223679855986
 30
0.0
 40
0.2688058159051236
 50
223.1800902427928861
 51
247.9334417915171969
  0
ARC
  5
75DF
  8
0
 10
3945.1281015527270029
 20
63.4999178606355414
 30
0.0
 40
0.025264814788451
 50
344.7353480498084082
 51
66.6133503157540048
  0
ARC
  5
75E0
  8
0
 10
3944.9759644121008932
 20
63.50200566575257
 30
0.0
 40
0.1767268374065336
 50
290.9375053282498129
 51
357.165460270510323
  0
ARC
  5
75E1
  8
0
 10
3945.038543751510133
 20
63.2861854510596871
 30
0.0
 40
0.050765760669732
 50
16.7148203515950584
 51
89.3522676271609413
  0
ARC
  5
75E2
  8
0
 10
3945.0391176495068066
 20
63.2869479676795166
 30
0.0
 40
0.049999999930329
 50
293.353905824474225
 51
16.0670880079681915
  0
ARC
  5
75E3
  8
0
 10
3945.0708206443378003
 20
63.2135080003450227
 30
0.0
 40
0.0299906792520514
 50
113.3412856411336946
 51
184.012619588048409
  0
LINE
  5
75E4
  8
0
 10
3945.0409034823778711
 20
63.2114093669088675
 30
0.0
 11
3945.1475289094619257
 21
61.6865947351845918
 31
0.0
  0
ARC
  5
75E5
  8
0
 10
3945.1774558309689382
 20
61.6886874294183727
 30
0.0
 40
0.0299999999999995
 50
184.0000000410832968
 51
249.2539079355915135
  0
ARC
  5
75E6
  8
0
 10
3945.1491176506019656
 20
61.6138746795887329
 30
0.0
 40
0.0500000000223012
 50
330.0000000681682764
 51
69.2539079881110382
  0
ARC
  5
75E7
  8
0
 10
3945.2183996829321586
 20
61.5738746796344927
 30
0.0
 40
0.0299999999790315
 50
149.9999999887619992
 51
237.7957737084898895
  0
ARC
  5
75E8
  8
0
 10
3945.1491176507311138
 20
61.4638746795971826
 30
0.0
 40
0.0999999999984312
 50
302.2042272347982248
 51
57.7957721966197724
  0
ARC
  5
75E9
  8
0
 10
3945.2183996831058721
 20
61.3538746796473333
 30
0.0
 40
0.0299999999973734
 50
122.2042285682318976
 51
210.0000000429965041
  0
ARC
  5
75EA
  8
0
 10
3945.1491176508047829
 20
61.3138746795930132
 30
0.0
 40
0.0500000000283545
 50
286.2005862165523808
 51
30.0000000290557409
  0
ARC
  5
75EB
  8
0
 10
3945.1714377249018071
 20
61.2370514133122583
 30
0.0
 40
0.0299999996575528
 50
106.2005856004545024
 51
158.8622381566761987
  0
ARC
  5
75EC
  8
0
 10
3944.9291317085348965
 20
61.3240594369024805
 30
0.0
 40
0.2274640032375722
 50
297.9768812022128941
 51
340.4303400896334892
  0
ARC
  5
75ED
  8
0
 10
3945.0491176521031775
 20
61.0962765421095781
 30
0.0
 40
0.0300000011096463
 50
116.2722513476035999
 51
179.9999902933037106
  0
LINE
  5
75EE
  8
0
 10
3945.0191176509929392
 20
61.096276546875238
 30
0.0
 11
3945.0191176510088553
 21
61.0743946453048281
 31
0.0
  0
ARC
  5
75EF
  8
0
 10
3944.98911765100911
 20
61.07439464528332
 30
0.0
 40
0.0299999999999967
 50
279.7012116543619982
 51
0.0000000410876776
  0
ARC
  5
75F0
  8
0
 10
3945.009179446034068
 20
60.9430214765660807
 30
0.0
 40
0.1029022683029016
 50
98.38548658322091
 51
165.9835455631587138
  0
ARC
  5
75F1
  8
0
 10
3944.8807238949179919
 20
60.9769479677205695
 30
0.0
 40
0.0300000001878302
 50
270.0000003480441251
 51
342.5353769839878169
  0
LINE
  5
75F2
  8
0
 10
3944.4992971796550592
 20
63.2410442758327491
 30
0.0
 11
3945.058938121132087
 21
63.2410442761333798
 31
0.0
  0
LINE
  5
75F3
  8
0
 10
3944.3913931771121497
 20
61.6606326479327507
 30
0.0
 11
3945.1668290133338814
 21
61.6606326482400675
 31
0.0
  0
LINE
  5
75F4
  8
0
 10
3944.3558237800771167
 20
61.5484900639327392
 30
0.0
 11
3945.2024115221752254
 21
61.5484900639327392
 31
0.0
  0
LINE
  5
75F5
  8
0
 10
3944.3558237800739334
 20
61.3792592947327478
 30
0.0
 11
3945.2024115213348523
 21
61.3792592947327478
 31
0.0
  0
LINE
  5
75F6
  8
0
 10
3944.3951676045999193
 20
61.2658601377327372
 30
0.0
 11
3945.1630676973718437
 21
61.2658601380080512
 31
0.0
  0
LINE
  5
75F7
  8
0
 10
3944.6775175072011734
 20
60.9469479675327506
 30
0.0
 11
3944.8807238951008003
 21
60.9469479675327506
 31
0.0
  0
LINE
  5
75F8
  8
0
 10
3944.5640623434837835
 20
61.0448236481103095
 30
0.0
 11
3944.994172957749015
 21
61.0448236481108495
 31
0.0
  0
LINE
  5
75F9
  8
0
 10
3944.5223967687470576
 20
61.1231775655327496
 30
0.0
 11
3945.0360117799441468
 21
61.1232696883989135
 31
0.0
  0
ARC
  5
75FA
  8
0
 10
3944.5067680403572012
 20
63.7626717395173799
 30
0.0
 40
0.0795991003320355
 50
352.9524215718910227
 51
60.7946034411276983
  0
LINE
  5
75FB
  8
0
 10
3944.4057901453497834
 20
63.4926824451917398
 30
0.0
 11
3945.1524451538789435
 21
63.4926824237526475
 31
0.0
  0
ARC
  5
75FC
  8
0
 10
3944.4919313550790321
 20
64.2459479673759262
 30
0.0
 40
0.4135334638282235
 50
180.0000023931096109
 51
223.3339988841277091
  0
ARC
  5
75FD
  8
0
 10
3944.1768230887528262
 20
63.9486517319479617
 30
0.0
 40
0.019685038797943
 50
359.9999996646586169
 51
43.3339997881215382
  0
ARC
  5
75FE
  8
0
 10
3944.2244101950609547
 20
63.9379615222224373
 30
0.0
 40
0.0279089888739188
 50
178.7239420798073013
 51
248.7834994669044875
  0
ARC
  5
75FF
  8
0
 10
3944.2623998329099777
 20
64.0135135861204247
 30
0.0
 40
0.1123786324147416
 50
244.6640070972995034
 51
296.3921478103562208
  0
ARC
  5
7600
  8
0
 10
3944.299227511537083
 20
63.9398239332863696
 30
0.0
 40
0.0300000003442258
 50
295.9466444027078182
 51
343.7617441152328865
  0
ARC
  5
7601
  8
0
 10
3944.3702492631500718
 20
63.9181390517602992
 30
0.0
 40
0.0442626941199548
 50
104.0863619569073961
 51
162.5191827292588016
  0
ARC
  5
7602
  8
0
 10
3944.3773473652909161
 20
63.9013557792142706
 30
0.0
 40
0.0623317743976414
 50
66.8484328980187854
 51
106.6608960454900057
  0
ARC
  5
7603
  8
0
 10
3944.3747735356478188
 20
63.8966438681158095
 30
0.0
 40
0.0676781170472937
 50
31.7823323828841708
 51
66.4132832730438736
  0
ARC
  5
7604
  8
0
 10
3944.3404900771101893
 20
63.8766777247323319
 30
0.0
 40
0.107342468417349
 50
5.9807179470881771
 51
31.2034217686304913
  0
ARC
  5
7605
  8
0
 10
3944.4723263717301052
 20
63.8872138841752175
 30
0.0
 40
0.0250864666401738
 50
178.5192614041268939
 51
265.8797338903700052
  0
ARC
  5
7606
  8
0
 10
3944.3895996697829105
 20
63.5510738200918368
 30
0.0
 40
0.3214707019320337
 50
60.9682021455691796
 51
75.4200155571926274
  0
ARC
  5
7607
  8
0
 10
3944.4919313527998384
 20
64.245991384389086
 30
0.0
 40
0.4135334638282235
 50
136.6720165750014075
 51
180.0060130660135087
  0
ARC
  5
7608
  8
0
 10
3944.1767918752070727
 20
64.5432545350979296
 30
0.0
 40
0.019685038797943
 50
316.6720156710139236
 51
0.0060157944645482
  0
ARC
  5
7609
  8
0
 10
3944.2251062062209712
 20
64.5537901630667363
 30
0.0
 40
0.0286020609662015
 50
112.2523764127328008
 51
180.9561164960771009
  0
ARC
  5
760A
  8
0
 10
3944.299195370489997
 20
64.5520951848982634
 30
0.0
 40
0.0300000003442258
 50
16.2442713438890891
 51
64.0593710564144487
  0
ARC
  5
760B
  8
0
 10
3944.3702148450252025
 20
64.5737875228478231
 30
0.0
 40
0.0442626941199548
 50
197.4868327298663075
 51
255.9196535022065859
  0
ARC
  5
760C
  8
0
 10
3944.3773111850578061
 20
64.5905715405280318
 30
0.0
 40
0.0623317743976414
 50
253.345119413636013
 51
293.1575825611096775
  0
ARC
  5
760D
  8
0
 10
3944.3747368607278077
 20
64.595283181375251
 30
0.0
 40
0.0676781170472937
 50
293.592732186077285
 51
328.2236830762338968
  0
ARC
  5
760E
  8
0
 10
3944.3404513061432226
 20
64.6152457252431986
 30
0.0
 40
0.107342468417338
 50
328.8025936905004869
 51
354.0839147531020785
  0
ARC
  5
760F
  8
0
 10
3944.4722767826829113
 20
64.6047479617608644
 30
0.0
 40
0.0250611199091147
 50
94.1031315026563959
 51
181.2946178970890969
  0
ARC
  5
7610
  8
0
 10
3944.3850683476339327
 20
64.9544158159814771
 30
0.0
 40
0.3357186401063251
 50
284.7395248173608024
 51
299.7509206634385919
  0
LINE
  5
7611
  8
0
 10
3944.1965081275498051
 20
64.5533128917327446
 30
0.0
 11
3944.1965081275498051
 21
63.9385830434327431
 31
0.0
  0
LINE
  5
7612
  8
0
 10
3944.3282786006880087
 20
64.5596263964218338
 30
0.0
 11
3944.3279866225511796
 21
63.9312849898899316
 31
0.0
  0
LINE
  5
7613
  8
0
 10
3944.4472220599741377
 20
64.6041817452970832
 30
0.0
 11
3944.4472482822511665
 21
63.8878621407277407
 31
0.0
  0
ARC
  5
7614
  8
0
 10
3944.7778344022540296
 20
64.2509804155341584
 30
0.0
 40
0.4699693039540167
 50
89.8435539707081858
 51
118.7670057330941944
  0
ARC
  5
7615
  8
0
 10
3944.7797802586687794
 20
64.2475889529523272
 30
0.0
 40
0.4733594783390473
 50
45.9434222679005728
 51
90.08020253982653
  0
ARC
  5
7616
  8
0
 10
3945.1506011634510287
 20
64.630947967532876
 30
0.0
 40
0.0600000000001284
 50
226.0236665168459069
 51
269.9999999999739089
  0
ARC
  5
7617
  8
0
 10
3945.3755278125549921
 20
64.5409479675472255
 30
0.0
 40
0.0299999999855244
 50
26.8082538789381992
 51
90.0000000078165243
  0
ARC
  5
7618
  8
0
 10
3945.4558546894509163
 20
64.5815385187327422
 30
0.0
 40
0.0599999999999991
 50
206.8082543397815982
 51
270.0
  0
LINE
  5
7619
  8
0
 10
3945.4558546894509163
 20
64.5215385187327399
 30
0.0
 11
3945.4878112771498309
 21
64.5215385187327399
 31
0.0
  0
ARC
  5
761A
  8
0
 10
3945.4878112773221801
 20
64.5018534795034526
 30
0.0
 40
0.01968503922929
 50
359.9999997941907282
 51
90.0000004968708254
  0
ARC
  5
761B
  8
0
 10
3945.5468663952501629
 20
64.9546093849327519
 30
0.0
 40
0.0393700786999958
 50
90.0
 51
180.0
  0
LINE
  5
761C
  8
0
 10
3945.5468663952501629
 20
64.9939794636327406
 30
0.0
 11
3945.5783624582509219
 21
64.9939794636327406
 31
0.0
  0
ARC
  5
761D
  8
0
 10
3945.5783624582509219
 20
65.0530345817327458
 30
0.0
 40
0.0590551181000079
 50
270.0
 51
359.9999999999964189
  0
ARC
  5
761E
  8
0
 10
3945.6768127095738237
 20
65.1711344400092258
 30
0.0
 40
0.0393951345906084
 50
90.0364389809857784
 51
179.9849064806925867
  0
ARC
  5
761F
  8
0
 10
3946.7520123963931837
 20
64.2459479683975729
 30
0.0
 40
0.8070866133014482
 50
90.7223628832393274
 51
111.8811301880004976
  0
ARC
  5
7620
  8
0
 10
3946.7408445333499003
 20
65.1317043382327512
 30
0.0
 40
0.0787401574999987
 50
270.7223627570966187
 51
344.9999884862301087
  0
LINE
  5
7621
  8
0
 10
3946.8169016809501954
 20
65.1113248705734406
 30
0.0
 11
3946.8342955498501397
 21
65.1762304809327446
 31
0.0
  0
ARC
  5
7622
  8
0
 10
3946.8697130040700358
 20
65.1986934906810092
 30
0.0
 40
0.0118361025113357
 50
90.1213791437608052
 51
179.9497453511150979
  0
ARC
  5
7623
  8
0
 10
3948.0192942287330879
 20
66.3562540474021034
 30
0.0
 40
0.1181102360211437
 50
95.2159084912525771
 51
180.0000000336468986
  0
ARC
  5
7624
  8
0
 10
3947.9996091895118298
 20
66.5718928494327429
 30
0.0
 40
0.0984251969000002
 50
275.2159085864090002
 51
0.0000000000004071
  0
ARC
  5
7625
  8
0
 10
3948.2161446226118642
 20
66.6181419038327505
 30
0.0
 40
0.1181102361999979
 50
92.0000000005772307
 51
180.0000000000007958
  0
LINE
  5
7626
  8
0
 10
3948.2120226348120013
 20
66.7361801904680476
 30
0.0
 11
3948.4917351738131401
 21
66.745947967532743
 31
0.0
  0
LINE
  5
7627
  8
0
 10
3945.6767876550497931
 20
65.2105295666327436
 30
0.0
 11
3946.3592892893511817
 21
65.2105295666327436
 31
0.0
  0
ARC
  5
7628
  8
0
 10
3946.3592570768159931
 20
65.1804921016836687
 30
0.0
 40
0.0300374822216261
 50
17.0701934324144418
 51
89.9385553497801737
  0
LINE
  5
7629
  8
0
 10
3946.3879712833490885
 20
65.1893093961357835
 30
0.0
 11
3946.4512255910890417
 21
64.9948912901017479
 31
0.0
  0
ARC
  5
762A
  8
0
 10
3952.1243700852191978
 20
66.9482092859846318
 30
0.0
 40
6.0000000030544394
 50
198.9990754753453075
 51
205.5192193773021074
  0
ARC
  5
762B
  8
0
 10
3946.1767876259232253
 20
64.1089086317442138
 30
0.0
 40
0.5905512119318976
 50
16.8962098636436089
 51
25.5204237265460492
  0
ARC
  5
762C
  8
0
 10
3946.1775931381980627
 20
64.1089636506028455
 30
0.0
 40
0.589745700619175
 50
359.9946547413035773
 51
16.9078197287999608
  0
LINE
  5
762D
  8
0
 10
3946.7673388362509286
 20
64.1089086318319517
 30
0.0
 11
3946.7673388362509286
 21
63.3113810301656201
 31
0.0
  0
ARC
  5
762E
  8
0
 10
3946.737338836249819
 20
63.3113810384327422
 30
0.0
 40
0.0299999999999987
 50
270.0
 51
359.9999842109588144
  0
LINE
  5
762F
  8
0
 10
3946.737338836249819
 20
63.2813810384327482
 30
0.0
 11
3946.3047404110511707
 21
63.2813810384327482
 31
0.0
  0
LINE
  5
7630
  8
0
 10
3945.6767876550497931
 20
63.2813810384327482
 30
0.0
 11
3945.9464726944502218
 21
63.2813810384327482
 31
0.0
  0
ARC
  5
7631
  8
0
 10
3946.1256065527509236
 20
62.3335419420283827
 30
0.0
 40
0.9646180030779358
 50
79.2977937141056657
 51
100.7022062858943059
  0
ARC
  5
7632
  8
0
 10
3945.1506135781792182
 20
63.8608840640580269
 30
0.0
 40
0.060063904757733
 50
90.0118425797411277
 51
133.9361618886321139
  0
LINE
  5
7633
  8
0
 10
3945.1506011634510287
 20
63.9209479675327472
 30
0.0
 11
3945.3755278125508994
 21
63.9209479675327472
 31
0.0
  0
ARC
  5
7634
  8
0
 10
3945.3755278125549921
 20
63.9509479675182675
 30
0.0
 40
0.0299999999855244
 50
269.9999999921835183
 51
333.1917461210613851
  0
ARC
  5
7635
  8
0
 10
3945.4558546894509163
 20
63.9103574163327508
 30
0.0
 40
0.0599999999999991
 50
90.0
 51
153.191745660218686
  0
LINE
  5
7636
  8
0
 10
3945.4558546894509163
 20
63.9703574163327389
 30
0.0
 11
3945.4878112771498309
 21
63.9703574163327389
 31
0.0
  0
ARC
  5
7637
  8
0
 10
3945.4878112773221801
 20
63.9900424555620404
 30
0.0
 40
0.01968503922929
 50
269.9999995031291746
 51
0.0000002058092661
  0
ARC
  5
7638
  8
0
 10
3944.7794329318599011
 20
64.2454638052110454
 30
0.0
 40
0.4744233963359493
 50
299.4324123509451283
 51
313.9903865241743119
  0
ARC
  5
7639
  8
0
 10
3945.5468663952501629
 20
63.5372865502327429
 30
0.0
 40
0.0393700786999958
 50
180.0
 51
270.0
  0
LINE
  5
763A
  8
0
 10
3945.5468663952501629
 20
63.4979164715327471
 30
0.0
 11
3945.5783624582509219
 21
63.4979164715327471
 31
0.0
  0
ARC
  5
763B
  8
0
 10
3945.5783624582509219
 20
63.4388613534327419
 30
0.0
 40
0.0590551181000079
 50
0.0000000000032569
 51
90.0
  0
ARC
  5
763C
  8
0
 10
3945.6767876550497931
 20
63.3207511172327386
 30
0.0
 40
0.0393700786999993
 50
180.0000000000011937
 51
270.0
  0
ARC
  5
763D
  8
0
 10
3946.7408448383221184
 20
63.3601868017272309
 30
0.0
 40
0.0787401574999987
 50
15.0000115137699801
 51
70.3375820468578041
  0
LINE
  5
763E
  8
0
 10
3946.8169019859219588
 20
63.3805662693865273
 30
0.0
 11
3946.834295854821903
 21
63.3156606590272304
 31
0.0
  0
ARC
  5
763F
  8
0
 10
3946.8696879297121995
 20
63.2931920619327499
 30
0.0
 40
0.0118110236000018
 50
179.9999961191741136
 51
270.0
  0
LINE
  5
7640
  8
0
 10
3945.5074963165498048
 20
64.9546093849327519
 30
0.0
 11
3945.5074963165498048
 21
63.5372865502327429
 31
0.0
  0
LINE
  5
7641
  8
0
 10
3945.6374175763507992
 20
65.1711448179327419
 30
0.0
 11
3945.6374175763507992
 21
63.3207511172327386
 31
0.0
  0
LINE
  5
7642
  8
0
 10
3946.8578769061118692
 20
65.1987038722327554
 30
0.0
 11
3946.8578769061118692
 21
63.2931920619327499
 31
0.0
  0
ARC
  5
7643
  8
0
 10
3948.0192942281992146
 20
60.0490277145433922
 30
0.0
 40
0.1181102360211437
 50
179.9999999566508109
 51
264.7840914990406986
  0
ARC
  5
7644
  8
0
 10
3947.9996091889420313
 20
59.8333889125160923
 30
0.0
 40
0.098425196900001
 50
359.9999999902960894
 51
84.784091403910395
  0
ARC
  5
7645
  8
0
 10
3948.2161446220338803
 20
59.7871398580794065
 30
0.0
 40
0.1181102361999979
 50
179.9999999902969137
 51
267.9999999897244152
  0
LINE
  5
7646
  8
0
 10
3948.2120226342140086
 20
59.6691015714448127
 30
0.0
 11
3948.4917351738131401
 21
59.6593337943327384
 31
0.0
  0
LINE
  5
7647
  8
0
 10
3948.0980343864130191
 20
59.7871398581327469
 30
0.0
 11
3948.0980343864130191
 21
66.6181419038327505
 31
0.0
  0
LINE
  5
7648
  8
0
 10
3947.9011839927120491
 20
66.3562540473327545
 30
0.0
 11
3947.9011839927120491
 21
60.04902771463275
 31
0.0
  0
LINE
  5
7649
  8
0
 10
3948.4917351738131401
 20
66.745947967532743
 30
0.0
 11
3948.4917351738131401
 21
59.6593337943327384
 31
0.0
  0
ARC
  5
764A
  8
0
 10
3944.2620494156280984
 20
64.4768519361899308
 30
0.0
 40
0.1139124872100767
 50
63.8133901976376023
 51
114.7964585057416969
  0
LINE
  5
764B
  8
0
 10
3945.1506011634510287
 20
64.5709479675327458
 30
0.0
 11
3945.3755278125549921
 21
64.5709479675327458
 31
0.0
  0
LINE
  5
764C
  8
0
 10
3946.8696879297121995
 20
65.2105295666327436
 30
0.0
 11
3947.9011839927120491
 21
65.2105295666327436
 31
0.0
  0
LINE
  5
764D
  8
0
 10
3946.8696879297121995
 20
63.2813810383327535
 30
0.0
 11
3947.9011839927120491
 21
63.2813810383327535
 31
0.0
  0
ARC
  5
764E
  8
0
 10
3946.8532851671079698
 20
63.3207170577442611
 30
0.0
 40
0.0196509834125717
 50
194.9105193270395091
 51
270.0337095320463732
  0
LINE
  5
764F
  8
0
 10
3946.8532967287119391
 20
63.3010660777327487
 30
0.0
 11
3946.8578769061118692
 21
63.3010660777327487
 31
0.0
  0
LINE
  5
7650
  8
0
 10
3946.8532967287119391
 20
65.1908298572327425
 30
0.0
 11
3946.8578769061118692
 21
65.1908298572327425
 31
0.0
  0
ARC
  5
7651
  8
0
 10
3946.8532843986581611
 20
65.1711811406173638
 30
0.0
 40
0.0196487204840217
 50
89.9640457822146544
 51
165.1090222251534954
  0
ARC
  5
7652
  8
0
 10
3945.9755934416771197
 20
63.292769620387773
 30
0.0
 40
0.0200000000830181
 50
207.7171959039920068
 51
257.8033618672299099
  0
ARC
  5
7653
  8
0
 10
3946.125595194575908
 20
63.9867272757914591
 30
0.0
 40
0.7299835925608247
 50
257.8032151679789763
 51
282.19678483202091
  0
ARC
  5
7654
  8
0
 10
3946.275593441611818
 20
63.2927696203327486
 30
0.0
 40
0.0199999999999978
 50
282.1988962187963921
 51
332.2965133994355256
  0
LINE
  5
7655
  8
0
 10
3945.97136809274798
 20
63.273221054462141
 30
0.0
 11
3946.2798187882781349
 21
63.2732210539869584
 31
0.0
  0
LINE
  5
7656
  8
0
 10
3948.4917351738131401
 20
59.6672165784327504
 30
0.0
 11
3948.3736249376120213
 21
59.6713502857327498
 31
0.0
  0
LINE
  5
7657
  8
0
 10
3948.3736249376120213
 20
59.6713502857327498
 30
0.0
 11
3948.3736249376120213
 21
59.70664134263275
 31
0.0
  0
LINE
  5
7658
  8
0
 10
3948.3736249376120213
 20
59.70664134263275
 30
0.0
 11
3948.4917351738131401
 21
59.7024659563327376
 31
0.0
  0
LINE
  5
7671
  8
0
 10
3945.1089394611508396
 20
64.5877703974127542
 30
0.0
 11
3945.1083227632229864
 21
63.9035441687210195
 31
0.0
  0
LINE
  5
7672
  8
0
 10
3945.4023034382498736
 20
64.5544781511277961
 30
0.0
 11
3945.4023034382498736
 21
63.9374177839376898
 31
0.0
  0
ENDSEC
  0
EOF
