  0
SECTION
  2
HEADER
  9
$ACADVER
  1
AC1009
  9
$INSBASE
 10
699.2967260966287313
 20
116.9984696755904992
 30
0.0
  9
$EXTMIN
 10
689.1368060694811675
 20
116.8972956073614
 30
-0.000000000000013
  9
$EXTMAX
 10
709.4306342757386119
 20
149.0009800511899982
 30
0.0000000000000023
  9
$LIMMIN
 10
0.0
 20
0.0
  9
$LIMMAX
 10
11.6929133858000007
 20
8.2677165353999982
  9
$ORTHOMODE
 70
     0
  9
$REGENMODE
 70
     1
  9
$FILLMODE
 70
     1
  9
$QTEXTMODE
 70
     0
  9
$MIRRTEXT
 70
     0
  9
$DRAGMODE
 70
     2
  9
$LTSCALE
 40
0.6431102362
  9
$OSMODE
 70
  4095
  9
$ATTMODE
 70
     1
  9
$TEXTSIZE
 40
0.2
  9
$TRACEWID
 40
0.05
  9
$TEXTSTYLE
  7
STANDARD
  9
$CLAYER
  8
0
  9
$CELTYPE
  6
BYLAYER
  9
$CECOLOR
 62
   256
  9
$DIMSCALE
 40
1.0
  9
$DIMASZ
 40
0.1875
  9
$DIMEXO
 40
0.0625
  9
$DIMDLI
 40
0.4443307087
  9
$DIMRND
 40
0.0
  9
$DIMDLE
 40
0.0
  9
$DIMEXE
 40
0.125
  9
$DIMTP
 40
0.01
  9
$DIMTM
 40
0.01
  9
$DIMTXT
 40
1.0
  9
$DIMCEN
 40
0.1052362205
  9
$DIMTSZ
 40
0.0
  9
$DIMTOL
 70
     1
  9
$DIMLIM
 70
     0
  9
$DIMTIH
 70
     0
  9
$DIMTOH
 70
     1
  9
$DIMSE1
 70
     0
  9
$DIMSE2
 70
     0
  9
$DIMTAD
 70
     0
  9
$DIMZIN
 70
     0
  9
$DIMBLK
  1

  9
$DIMASO
 70
     1
  9
$DIMSHO
 70
     1
  9
$DIMPOST
  1
\X
  9
$DIMAPOST
  1

  9
$DIMALT
 70
     1
  9
$DIMALTD
 70
     2
  9
$DIMALTF
 40
25.3999999999999986
  9
$DIMLFAC
 40
1.0
  9
$DIMTOFL
 70
     0
  9
$DIMTVP
 40
0.0
  9
$DIMTIX
 70
     0
  9
$DIMSOXD
 70
     0
  9
$DIMSAH
 70
     0
  9
$DIMBLK1
  1

  9
$DIMBLK2
  1

  9
$DIMSTYLE
  2
STANDARD
  9
$DIMCLRD
 70
     0
  9
$DIMCLRE
 70
     0
  9
$DIMCLRT
 70
     0
  9
$DIMTFAC
 40
1.0
  9
$DIMGAP
 40
0.09
  9
$LUNITS
 70
     2
  9
$LUPREC
 70
     4
  9
$SKETCHINC
 40
0.1
  9
$FILLETRAD
 40
0.0
  9
$AUNITS
 70
     0
  9
$AUPREC
 70
     0
  9
$MENU
  1
.
  9
$ELEVATION
 40
0.0
  9
$PELEVATION
 40
0.0
  9
$THICKNESS
 40
0.0
  9
$LIMCHECK
 70
     0
  9
$BLIPMODE
 70
     0
  9
$CHAMFERA
 40
0.0
  9
$CHAMFERB
 40
0.0
  9
$SKPOLY
 70
     0
  9
$TDCREATE
 40
2458172.5207638889551163
  9
$TDUPDATE
 40
2459114.765775463078171
  9
$TDINDWG
 40
0.3816442361
  9
$TDUSRTIMER
 40
0.3816442361
  9
$USRTIMER
 70
     1
  9
$ANGBASE
 50
0.0
  9
$ANGDIR
 70
     0
  9
$PDMODE
 70
     0
  9
$PDSIZE
 40
0.3125
  9
$PLINEWID
 40
0.0
  9
$COORDS
 70
     1
  9
$SPLFRAME
 70
     0
  9
$SPLINETYPE
 70
     6
  9
$SPLINESEGS
 70
     8
  9
$ATTDIA
 70
     1
  9
$ATTREQ
 70
     1
  9
$HANDLING
 70
     1
  9
$HANDSEED
  5
AD1C
  9
$SURFTAB1
 70
     6
  9
$SURFTAB2
 70
     6
  9
$SURFTYPE
 70
     6
  9
$SURFU
 70
     6
  9
$SURFV
 70
     6
  9
$UCSNAME
  2

  9
$UCSORG
 10
0.0
 20
0.0
 30
0.0
  9
$UCSXDIR
 10
1.0
 20
0.0
 30
0.0
  9
$UCSYDIR
 10
0.0
 20
1.0
 30
0.0
  9
$PUCSNAME
  2

  9
$PUCSORG
 10
0.0
 20
0.0
 30
0.0
  9
$PUCSXDIR
 10
1.0
 20
0.0
 30
0.0
  9
$PUCSYDIR
 10
0.0
 20
1.0
 30
0.0
  9
$USERI1
 70
     0
  9
$USERI2
 70
     0
  9
$USERI3
 70
     0
  9
$USERI4
 70
     0
  9
$USERI5
 70
     0
  9
$USERR1
 40
0.0
  9
$USERR2
 40
0.0
  9
$USERR3
 40
0.0
  9
$USERR4
 40
0.0
  9
$USERR5
 40
0.0
  9
$WORLDVIEW
 70
     1
  9
$SHADEDGE
 70
     3
  9
$SHADEDIF
 70
    70
  9
$TILEMODE
 70
     1
  9
$MAXACTVP
 70
    64
  9
$PLIMCHECK
 70
     0
  9
$PEXTMIN
 10
1.0000000000000000E+20
 20
1.0000000000000000E+20
 30
1.0000000000000000E+20
  9
$PEXTMAX
 10
-1.0000000000000000E+20
 20
-1.0000000000000000E+20
 30
-1.0000000000000000E+20
  9
$PLIMMIN
 10
0.0
 20
0.0
  9
$PLIMMAX
 10
12.0
 20
9.0
  9
$UNITMODE
 70
     0
  9
$VISRETAIN
 70
     1
  9
$PLINEGEN
 70
     0
  9
$PSLTSCALE
 70
     1
  0
ENDSEC
  0
SECTION
  2
TABLES
  0
TABLE
  2
VPORT
 70
     1
  0
VPORT
  2
*ACTIVE
 70
     0
 10
0.0
 20
0.0
 11
1.0
 21
1.0
 12
232.5415184647798981
 22
43.8159907093459466
 13
0.0
 23
0.0
 14
1.0
 24
1.0
 15
0.0
 25
0.0
 16
0.0
 26
0.0
 36
24.1179433675886514
 17
466.74220170783002
 27
89.133147119929788
 37
0.0
 40
32.3086537692094282
 41
2.005224660397074
 42
50.0
 43
0.0
 44
0.0
 50
0.0
 51
0.0
 71
     0
 72
   100
 73
     1
 74
     1
 75
     0
 76
     0
 77
     0
 78
     0
  0
ENDTAB
  0
TABLE
  2
LTYPE
 70
     2
  0
LTYPE
  2
CONTINUOUS
 70
     0
  3
Solid line
 72
    65
 73
     0
 40
0.0
  0
LTYPE
  2
PHANTOM2
 70
     0
  3
___ _ _ ___ _ _ ___ _ _ ___ _ _
 72
    65
 73
     6
 40
1.25
 49
0.625
 49
-0.125
 49
0.125
 49
-0.125
 49
0.125
 49
-0.125
  0
ENDTAB
  0
TABLE
  2
LAYER
 70
     2
  0
LAYER
  2
0
 70
     0
 62
   255
  6
CONTINUOUS
  0
LAYER
  2
DEFPOINTS
 70
     0
 62
     7
  6
CONTINUOUS
  0
ENDTAB
  0
TABLE
  2
STYLE
 70
     1
  0
STYLE
  2
STANDARD
 70
     0
 40
0.0
 41
0.8
 50
0.0
 71
     0
 42
0.2
  3
txt
  4

  0
ENDTAB
  0
TABLE
  2
VIEW
 70
     0
  0
ENDTAB
  0
TABLE
  2
UCS
 70
     0
  0
ENDTAB
  0
TABLE
  2
APPID
 70
    11
  0
APPID
  2
ACAD
 70
     0
  0
APPID
  2
ACAD_MLEADERVER
 70
     0
  0
APPID
  2
ACAD_EXEMPT_FROM_CAD_STANDARDS
 70
     0
  0
APPID
  2
ACAD_DSTYLE_DIMJAG
 70
     0
  0
APPID
  2
ACAD_DSTYLE_DIMTALN
 70
     0
  0
APPID
  2
ACAD_NAV_VCDISPLAY
 70
     0
  0
APPID
  2
ACAECLAYERSTANDARD
 70
     0
  0
APPID
  2
ACCMTRANSPARENCY
 70
     0
  0
APPID
  2
DCO15
 70
     0
  0
APPID
  2
ACDBATTR
 70
     0
  0
APPID
  2
ACADANNOTATIVE
 70
     0
  0
ENDTAB
  0
TABLE
  2
DIMSTYLE
 70
     1
  0
DIMSTYLE
  2
STANDARD
 70
     0
  3

  4

  5

  6

  7

 40
1.0
 41
0.1875
 42
0.0625
 43
0.38
 44
0.125
 45
0.0
 46
0.0
 47
0.01
 48
0.01
140
0.15625
141
0.09
142
0.0
143
25.3999999999999986
144
1.0
145
0.0
146
1.0
147
0.09
 71
     1
 72
     0
 73
     1
 74
     1
 75
     0
 76
     0
 77
     0
 78
     4
170
     0
171
     2
172
     0
173
     0
174
     0
175
     0
176
     0
177
     0
178
     0
  0
ENDTAB
  0
ENDSEC
  0
SECTION
  2
BLOCKS
  0
BLOCK
  8
0
  2
$MODEL_SPACE
 70
     0
 10
0.0
 20
0.0
 30
0.0
  3
$MODEL_SPACE
  1

  0
ENDBLK
  5
21
  8
0
  0
BLOCK
 67
     1
  8
0
  2
$PAPER_SPACE
 70
     0
 10
0.0
 20
0.0
 30
0.0
  3
$PAPER_SPACE
  1

  0
ENDBLK
  5
1D
 67
     1
  8
0
  0
ENDSEC
  0
SECTION
  2
ENTITIES
  0
ATTDEF
  5
829
  8
DEFPOINTS
 10
699.2929120368735312
 20
117.0029668661855027
 30
0.0
 40
0.001
  1
K-77029IN-P
  3

  2
MODELNUMBER
 70
     0
1001
ACDBATTR
1070
     0
1070
     1
  0
ATTDEF
  5
82A
  8
DEFPOINTS
 10
699.2929120368735312
 20
117.0013001995187949
 30
0.0
 40
0.001
  1
INSTAFIT
  3

  2
TRADENAME
 70
     0
1001
ACDBATTR
1070
     0
1070
     1
  0
ATTDEF
  5
82B
  8
DEFPOINTS
 10
699.2929120368735312
 20
116.9996335328522008
 30
0.0
 40
0.001
  1
IN-WALL TANK AND CARRIER SYSTEM
  3

  2
PRODUCT
 70
     0
1001
ACDBATTR
1070
     0
1070
     1
  0
LINE
  5
AA44
  8
0
 10
703.3853061116127492
 20
141.2760213087190095
 30
0.0
 11
703.3853061116127492
 21
146.7366512300189925
 31
0.0
  0
LINE
  5
AA45
  8
0
 10
708.3518415446127392
 20
147.7464976867190103
 30
0.0
 11
708.3518415446127392
 21
147.2346866631189926
 31
0.0
  0
ARC
  5
AA46
  8
0
 10
708.2140462690625782
 20
147.2346866631189926
 30
0.0
 40
0.1377952755499976
 50
180.0
 51
0.0
  0
LINE
  5
AA47
  8
0
 10
708.0762509935127582
 20
147.2346866631189926
 30
0.0
 11
708.0762509935127582
 21
147.7464976867190103
 31
0.0
  0
ARC
  5
AA48
  8
0
 10
708.2140462690625782
 20
147.7464976867190103
 30
0.0
 40
0.1377952755500011
 50
0.0
 51
180.0
  0
ARC
  5
AA49
  8
0
 10
704.1323639614491867
 20
148.0199380803036036
 30
0.0
 40
0.2135728172145131
 50
111.2877140400347997
 51
182.2516424173896894
  0
ARC
  5
AA4A
  8
0
 10
713.516167684583138
 20
147.637725898127087
 30
0.0
 40
9.6044892439166851
 50
177.7693982527511025
 51
180.4709364667318994
  0
LINE
  5
AA4B
  8
0
 10
703.9120028708197196
 20
147.5587837257899082
 30
0.0
 11
703.9120028711124633
 21
140.2268087103099106
 31
0.0
  0
ARC
  5
AA4C
  8
0
 10
704.1392431194125265
 20
140.2268087103190055
 30
0.0
 40
0.2272402482999993
 50
179.9999999999984084
 51
269.999999999687418
  0
LINE
  5
AA4D
  8
0
 10
704.139243119411617
 20
139.9995684620189991
 30
0.0
 11
707.8301880013126492
 21
139.9995684619997007
 31
0.0
  0
ARC
  5
AA4E
  8
0
 10
702.9384557179836293
 20
147.648068552989713
 30
0.0
 40
0.492125984129288
 50
359.9999999801248123
 51
90.000000008233414
  0
LINE
  5
AA4F
  8
0
 10
703.4305817021125904
 20
147.6480685528190122
 30
0.0
 11
703.4305816995860141
 21
140.3646039861189934
 31
0.0
  0
ARC
  5
AA50
  8
0
 10
702.9407041582223883
 20
140.36235932607309
 30
0.0
 40
0.4898826839469432
 50
270.1349833321290248
 51
0.2625322374442109
  0
LINE
  5
AA51
  8
0
 10
703.3853061116127492
 20
146.7366512300189925
 30
0.0
 11
703.3065659541127843
 21
146.8153913875190142
 31
0.0
  0
LINE
  5
AA52
  8
0
 10
703.0886017218125517
 20
146.8153913875190142
 30
0.0
 11
703.0886017218125517
 21
147.6013641622189994
 31
0.0
  0
ARC
  5
AA53
  8
0
 10
702.8917513281129459
 20
147.6013641622189994
 30
0.0
 40
0.1968503937000001
 50
0.0
 51
179.9999995343025034
  0
LINE
  5
AA54
  8
0
 10
702.6949009344128854
 20
147.6013641638189995
 30
0.0
 11
702.6949009280245946
 21
146.8153913875190142
 31
0.0
  0
LINE
  5
AA55
  8
0
 10
709.3360883928552312
 20
146.4400498892632072
 30
0.0
 11
707.7811924864103048
 21
146.4400498896276872
 31
0.0
  0
ARC
  5
AA56
  8
0
 10
707.7811924864653292
 20
146.6735581152090049
 30
0.0
 40
0.2335082255812928
 50
211.4176295271101083
 51
269.9999999865556219
  0
LINE
  5
AA57
  8
0
 10
707.5819187977612046
 20
146.5518367596285998
 30
0.0
 11
706.5484566956126855
 21
147.8032116482189906
 31
0.0
  0
ARC
  5
AA58
  8
0
 10
705.5944446486063271
 20
146.9260962949697102
 30
0.0
 40
1.2959437984491919
 50
42.5953236122641528
 51
86.0352627091500892
  0
LINE
  5
AA59
  8
0
 10
709.3360883928552312
 20
146.817170653027091
 30
0.0
 11
707.5676196228125718
 21
146.8171706523189926
 31
0.0
  0
ARC
  5
AA5A
  8
0
 10
707.567619622680354
 20
147.1479674179799133
 30
0.0
 40
0.3307967656608746
 50
231.653097455417992
 51
270.0000000229284751
  0
LINE
  5
AA5B
  8
0
 10
707.3623862814851009
 20
146.888533850696092
 30
0.0
 11
706.5484566956126855
 21
147.8032116482189906
 31
0.0
  0
ARC
  5
AA5C
  8
0
 10
708.7251173075594579
 20
147.6079570288509046
 30
0.0
 40
0.6113606107887966
 50
2.0454078003696901
 51
87.9823978014195944
  0
LINE
  5
AA5D
  8
0
 10
703.3853061116127492
 20
141.2760213087190095
 30
0.0
 11
703.3065659541127843
 21
141.1972811512189878
 31
0.0
  0
LINE
  5
AA5E
  8
0
 10
703.0886017218125517
 20
141.1972811512189878
 30
0.0
 11
703.0886017218125517
 21
140.4113083757189884
 31
0.0
  0
ARC
  5
AA5F
  8
0
 10
702.8917513281129459
 20
140.4113083757189884
 30
0.0
 40
0.1968503937000001
 50
179.9999997671503991
 51
0.0
  0
LINE
  5
AA60
  8
0
 10
702.6949009344128854
 20
140.4113083765190026
 30
0.0
 11
702.6949009376070308
 21
141.1972811512189878
 31
0.0
  0
LINE
  5
AA61
  8
0
 10
709.3360883928552312
 20
147.6297774174028916
 30
0.0
 11
709.3360883928552312
 21
141.4079150096189892
 31
0.0
  0
LINE
  5
AA62
  8
0
 10
707.8301880013126492
 20
128.8488659658189874
 30
0.0
 11
705.4756979362322227
 21
128.8488659658189874
 31
0.0
  0
ARC
  5
AA63
  8
0
 10
705.4756979362322227
 20
129.4393805165676952
 30
0.0
 40
0.5905145507486873
 50
179.9612531647157141
 51
270.0
  0
LINE
  5
AA64
  8
0
 10
704.885183520512669
 20
129.4397798578189906
 30
0.0
 11
704.8852858051449175
 21
129.5910303221818936
 31
0.0
  0
ARC
  5
AA65
  8
0
 10
704.7733983909159861
 20
129.5787226444820135
 30
0.0
 40
0.1125623044947161
 50
6.2773299274407757
 51
104.4433373065981954
  0
ARC
  5
AA66
  8
0
 10
13209.8553341564202128
 20
-78836.7398890534095699
 30
0.0
 40
79950.4500731475272914
 50
98.9986244043199832
 51
99.000441798030252
  0
ARC
  5
AA67
  8
0
 10
701.5953880290174993
 20
133.4269662028588925
 30
0.0
 40
4.1859517013720247
 50
268.4425862441963773
 51
278.8661268586506026
  0
LINE
  5
AA68
  8
0
 10
706.3824337483126783
 20
128.8488659658189874
 30
0.0
 11
706.3824337483126783
 21
129.7842671044190013
 31
0.0
  0
ARC
  5
AA69
  8
0
 10
706.833235154008662
 20
129.547098144351196
 30
0.0
 40
0.5093829826341147
 50
94.3752980579974974
 51
152.2509091397377006
  0
ARC
  5
AA6A
  8
0
 10
713.5704086895356113
 20
90.0853989733014231
 30
0.0
 40
40.5398985489375008
 50
98.1401150704520262
 51
99.6218539950998263
  0
LINE
  5
AA6B
  8
0
 10
702.0686665143128948
 20
136.7101236103189876
 30
0.0
 11
702.7357862804127535
 21
136.710123620118992
 31
0.0
  0
ARC
  5
AA6C
  8
0
 10
702.7832769494018521
 20
136.2701197458756042
 30
0.0
 40
0.4425593440322747
 50
263.8397830779674109
 51
96.1602232114965716
  0
LINE
  5
AA6D
  8
0
 10
702.7357863287128339
 20
135.8301158664189927
 30
0.0
 11
702.0658139404566782
 21
135.8301158027169038
 31
0.0
  0
ARC
  5
AA6E
  8
0
 10
702.0642900813044207
 20
136.2701292695122106
 30
0.0
 40
0.4400161055097114
 50
89.430122506971145
 51
270.1984265381053092
  0
LINE
  5
AA6F
  8
0
 10
702.1277920875124892
 20
136.3621875175190041
 30
0.0
 11
702.3514701004127119
 21
136.3621875286189891
 31
0.0
  0
ARC
  5
AA70
  8
0
 10
702.3442105566058444
 20
136.2701197338244015
 30
0.0
 40
0.09235355875455
 50
274.5084445441602838
 51
85.4915569494321943
  0
LINE
  5
AA71
  8
0
 10
702.3514701028127547
 20
136.1780519392189888
 30
0.0
 11
702.1277920875124892
 21
136.1780519444882032
 31
0.0
  0
ARC
  5
AA72
  8
0
 10
702.1277920896817477
 20
136.2701197310036036
 30
0.0
 40
0.0920677865153916
 50
90.0000013497325284
 51
269.9999986502675142
  0
LINE
  5
AA73
  8
0
 10
702.0686665143128948
 20
133.5558160500090992
 30
0.0
 11
702.7357862804127535
 21
133.5558160598091035
 31
0.0
  0
ARC
  5
AA74
  8
0
 10
702.7832769494018521
 20
133.115812185565602
 30
0.0
 40
0.4425593440322747
 50
263.8397830779674109
 51
96.1602232114965716
  0
LINE
  5
AA75
  8
0
 10
702.7357863287128339
 20
132.6758083061089906
 30
0.0
 11
702.0658139404566782
 21
132.6758082424069016
 31
0.0
  0
ARC
  5
AA76
  8
0
 10
702.0642900813044207
 20
133.1158217092022085
 30
0.0
 40
0.4400161055097114
 50
89.430122506971145
 51
270.1984265381053092
  0
LINE
  5
AA77
  8
0
 10
702.1277920875124892
 20
133.2078799572090873
 30
0.0
 11
702.3514701004127119
 21
133.2078799683091006
 31
0.0
  0
ARC
  5
AA78
  8
0
 10
702.3442105566058444
 20
133.115812173514513
 30
0.0
 40
0.09235355875455
 50
274.5084445441602838
 51
85.4915569494321943
  0
LINE
  5
AA79
  8
0
 10
702.3514701028127547
 20
133.0237443789091003
 30
0.0
 11
702.1277920875124892
 21
133.0237443841782863
 31
0.0
  0
ARC
  5
AA7A
  8
0
 10
702.1277920896817477
 20
133.1158121706936868
 30
0.0
 40
0.0920677865153916
 50
90.0000013497325284
 51
269.9999986502675142
  0
CIRCLE
  5
AA7B
  8
0
 10
699.2967234344126837
 20
119.1638205213189963
 30
0.0
 40
0.8858267716999996
  0
CIRCLE
  5
AA7C
  8
0
 10
699.2967234344126837
 20
119.1638205213189963
 30
0.0
 40
0.9842519685000006
  0
ARC
  5
AA7D
  8
0
 10
699.2967234344126837
 20
119.1638205213189963
 30
0.0
 40
1.1515748030999999
 50
296.0602626558155066
 51
243.9397373441844934
  0
ARC
  5
AA7E
  8
0
 10
699.2967234344126837
 20
119.1638205213189963
 30
0.0
 40
1.1909448818999999
 50
330.2730117348266958
 51
209.7269882651733042
  0
LINE
  5
AA7F
  8
0
 10
699.8196168311753809
 20
119.8788530835721957
 30
0.0
 11
699.7722943927635697
 21
119.8224573738467029
 31
0.0
  0
ARC
  5
AA80
  8
0
 10
699.7897864719574272
 20
119.8077795225640045
 30
0.0
 40
0.0228344510070734
 50
139.9995116162033924
 51
230.0004884957411093
  0
LINE
  5
AA81
  8
0
 10
699.7751089189126787
 20
119.7902871931189992
 30
0.0
 11
699.8306022991998816
 21
119.7437235244343015
 31
0.0
  0
ARC
  5
AA82
  8
0
 10
699.8453049524326843
 20
119.7609320724558017
 30
0.0
 40
0.0226340923626518
 50
229.4900584584063097
 51
320.5083916790978833
  0
LINE
  5
AA83
  8
0
 10
699.8627720829625787
 20
119.7465375773922034
 30
0.0
 11
699.9100932562416801
 21
119.8029343852977036
 31
0.0
  0
LINE
  5
AA84
  8
0
 10
699.3557785525124473
 20
118.2799644456559065
 30
0.0
 11
699.3557785525124473
 21
118.4177167877190016
 31
0.0
  0
ARC
  5
AA85
  8
0
 10
699.3164084738125439
 20
118.4177167877190016
 30
0.0
 40
0.0393700786999993
 50
0.0000000000016284
 51
90.0
  0
LINE
  5
AA86
  8
0
 10
699.3164084738125439
 20
118.4570868664190044
 30
0.0
 11
699.2770383950125961
 21
118.4570868664190044
 31
0.0
  0
ARC
  5
AA87
  8
0
 10
699.2770383950125961
 20
118.4177167877190016
 30
0.0
 40
0.0393700786999993
 50
90.0
 51
180.0000000000015916
  0
LINE
  5
AA88
  8
0
 10
699.2376683163126927
 20
118.4177167877190016
 30
0.0
 11
699.2376683163126927
 21
118.2799644456559065
 31
0.0
  0
LINE
  5
AA89
  8
0
 10
700.0336934933392286
 20
118.672328708868406
 30
0.0
 11
699.9698577055539772
 21
118.7090013342241974
 31
0.0
  0
ARC
  5
AA8A
  8
0
 10
699.9812323379521786
 20
118.7288010789346941
 30
0.0
 40
0.0228344510070734
 50
150.1223538461680107
 51
240.1233307256985938
  0
LINE
  5
AA8B
  8
0
 10
699.961432787179433
 20
118.740176048912204
 30
0.0
 11
699.9975192064700877
 21
118.8029889523627958
 31
0.0
  0
ARC
  5
AA8C
  8
0
 10
700.0172446947689195
 20
118.7918890763069015
 30
0.0
 40
0.0226340923626518
 50
59.6144506627954698
 51
150.6327838834768045
  0
LINE
  5
AA8D
  8
0
 10
700.0286933856308451
 20
118.8114141784738962
 30
0.0
 11
700.0925283633222307
 21
118.774740086725501
 31
0.0
  0
LINE
  5
AA8E
  8
0
 10
698.7738300376498728
 20
119.8788530835721957
 30
0.0
 11
698.8211524760615703
 21
119.8224573738467029
 31
0.0
  0
ARC
  5
AA8F
  8
0
 10
698.8036603968679401
 20
119.8077795225640045
 30
0.0
 40
0.0228344510070734
 50
309.9995115042588054
 51
40.0004883837965224
  0
LINE
  5
AA90
  8
0
 10
698.8183379499125749
 20
119.7902871931189992
 30
0.0
 11
698.7628445696253721
 21
119.7437235244343015
 31
0.0
  0
ARC
  5
AA91
  8
0
 10
698.748141916392683
 20
119.7609320724558017
 30
0.0
 40
0.0226340923626518
 50
219.4916083209014062
 51
310.5099415415937187
  0
LINE
  5
AA92
  8
0
 10
698.7306747858632434
 20
119.7465375773922034
 30
0.0
 11
698.6833536125835735
 21
119.8029343852977036
 31
0.0
  0
LINE
  5
AA93
  8
0
 10
698.5597533754861388
 20
118.672328708868406
 30
0.0
 11
698.6235891632712764
 21
118.7090013342241974
 31
0.0
  0
ARC
  5
AA94
  8
0
 10
698.6122145308730751
 20
118.7288010789346941
 30
0.0
 40
0.0228344510070734
 50
299.8766692743013778
 51
29.8776461538306108
  0
LINE
  5
AA95
  8
0
 10
698.6320140816459343
 20
118.740176048912204
 30
0.0
 11
698.5959276623550522
 21
118.8029889523627958
 31
0.0
  0
ARC
  5
AA96
  8
0
 10
698.5762021740564478
 20
118.7918890763069015
 30
0.0
 40
0.0226340923626518
 50
29.3672161165231493
 51
120.3855493372042957
  0
LINE
  5
AA97
  8
0
 10
698.5647534831948633
 20
118.8114141784738962
 30
0.0
 11
698.5009185055031367
 21
118.774740086725501
 31
0.0
  0
LINE
  5
AA98
  8
0
 10
700.3195880845477177
 20
118.5732693403190012
 30
0.0
 11
707.8301880013126492
 21
118.5732693403190012
 31
0.0
  0
LINE
  5
AA99
  8
0
 10
699.8026289462126215
 20
118.1293234743124998
 30
0.0
 11
699.8026289462126215
 21
118.0965518564968022
 31
0.0
  0
LINE
  5
AA9A
  8
0
 10
701.0093218596128963
 20
128.5732693402190137
 30
0.0
 11
697.5841250092129258
 21
128.5732693402190137
 31
0.0
  0
LINE
  5
AA9B
  8
0
 10
700.8321565053128097
 20
128.4551591040190033
 30
0.0
 11
697.7612903635124439
 21
128.4551591040190033
 31
0.0
  0
LINE
  5
AA9C
  8
0
 10
700.8321565053128097
 20
127.5496472930190066
 30
0.0
 11
697.7612903635124439
 21
127.5496472930190066
 31
0.0
  0
LINE
  5
AA9D
  8
0
 10
700.7534163478128448
 20
127.3527968993190029
 30
0.0
 11
697.8400305210127499
 21
127.3527968993190029
 31
0.0
  0
LINE
  5
AA9E
  8
0
 10
700.5959360328128014
 20
127.0181512300190008
 30
0.0
 11
700.2745467179170191
 21
127.0181512300190008
 31
0.0
  0
LINE
  5
AA9F
  8
0
 10
698.3189001509081208
 20
127.0181512300190008
 30
0.0
 11
697.9975108360124523
 21
127.0181512300190008
 31
0.0
  0
LINE
  5
AAA0
  8
0
 10
701.0093218596128963
 20
128.769471350918991
 30
0.0
 11
701.0093218596128963
 21
128.5732693402190137
 31
0.0
  0
LINE
  5
AAA1
  8
0
 10
701.0093218596128963
 20
128.5732693402190137
 30
0.0
 11
700.8321565053128097
 21
128.4551591040190033
 31
0.0
  0
LINE
  5
AAA2
  8
0
 10
700.8321565053128097
 20
128.4551591040190033
 30
0.0
 11
700.8321565053128097
 21
127.5496472930539937
 31
0.0
  0
ARC
  5
AAA3
  8
0
 10
701.0388494187126298
 20
127.3527968993190029
 30
0.0
 40
0.2854330708999821
 50
136.3971810242709068
 51
180.0
  0
LINE
  5
AAA4
  8
0
 10
700.4108966627126165
 20
126.9787811513189979
 30
0.0
 11
700.4108966627126165
 21
126.9030862801189983
 31
0.0
  0
ARC
  5
AAA5
  8
0
 10
700.3704453407402752
 20
126.903416090050797
 30
0.0
 40
0.0404526664622798
 50
293.5463735586591838
 51
359.5328632661119741
  0
ARC
  5
AAA6
  8
0
 10
700.3898740408969843
 20
126.8606709151689955
 30
0.0
 40
0.0065364332842835
 50
120.0000004265868938
 51
239.9999996535613889
  0
ARC
  5
AAA7
  8
0
 10
700.3704453407434585
 20
126.8179257402883024
 30
0.0
 40
0.0404526664588907
 50
0.4671367323670239
 51
66.4536264322456987
  0
LINE
  5
AAA8
  8
0
 10
700.4108966627126165
 20
126.818255550219007
 30
0.0
 11
700.4108966625351513
 21
126.7062358864189946
 31
0.0
  0
ARC
  5
AAA9
  8
0
 10
700.5959360328128014
 20
127.0968913875189941
 30
0.0
 40
0.0787401574999951
 50
270.0
 51
0.0000000000016284
  0
LINE
  5
AAAA
  8
0
 10
700.6746761903126526
 20
127.0968913875189941
 30
0.0
 11
700.6746761903126526
 21
127.3527968993190029
 31
0.0
  0
LINE
  5
AAAB
  8
0
 10
700.386605824213234
 20
126.8663316324192039
 30
0.0
 11
698.2068410446124744
 21
126.8663316324192039
 31
0.0
  0
LINE
  5
AAAC
  8
0
 10
700.3866058242205099
 20
126.855010197914396
 30
0.0
 11
698.2068410446047437
 21
126.855010197914396
 31
0.0
  0
ARC
  5
AAAD
  8
0
 10
700.3704453405629238
 20
126.7065656963507934
 30
0.0
 40
0.0404526664622798
 50
293.5463735586591838
 51
359.5328632661119741
  0
ARC
  5
AAAE
  8
0
 10
700.3898740407197465
 20
126.6638205214690061
 30
0.0
 40
0.0065364332842835
 50
120.0000004265868938
 51
239.9999996535613889
  0
ARC
  5
AAAF
  8
0
 10
700.370445340566107
 20
126.6210753465882988
 30
0.0
 40
0.0404526664588907
 50
0.4671367323670239
 51
66.4536264322456987
  0
LINE
  5
AAB0
  8
0
 10
700.4108966625351513
 20
126.6214051565190033
 30
0.0
 11
700.4108966623577999
 21
126.5093854927190051
 31
0.0
  0
LINE
  5
AAB1
  8
0
 10
700.3866058240354278
 20
126.6694812387191007
 30
0.0
 11
698.2068410447899396
 21
126.6694812387191007
 31
0.0
  0
LINE
  5
AAB2
  8
0
 10
700.3866058240430448
 20
126.6581598042144066
 30
0.0
 11
698.2068410447822089
 21
126.6581598042144066
 31
0.0
  0
ARC
  5
AAB3
  8
0
 10
700.3704453403854586
 20
126.5097153026508039
 30
0.0
 40
0.0404526664622798
 50
293.5463735586591838
 51
359.5328632661119741
  0
ARC
  5
AAB4
  8
0
 10
700.3898740405423951
 20
126.4669701277690024
 30
0.0
 40
0.0065364332842835
 50
120.0000004265868938
 51
239.9999996535613889
  0
ARC
  5
AAB5
  8
0
 10
700.3704453403887555
 20
126.4242249528882951
 30
0.0
 40
0.0404526664588907
 50
0.4671367323670239
 51
66.4536264322456987
  0
LINE
  5
AAB6
  8
0
 10
700.4108966623577999
 20
126.4245547628189996
 30
0.0
 11
700.4108966621805621
 21
126.3125350990190014
 31
0.0
  0
LINE
  5
AAB7
  8
0
 10
700.3866058238579626
 20
126.472630845019097
 30
0.0
 11
698.2068410449672911
 21
126.472630845019097
 31
0.0
  0
LINE
  5
AAB8
  8
0
 10
700.3866058238656933
 20
126.4613094105144029
 30
0.0
 11
698.2068410449595603
 21
126.4613094105144029
 31
0.0
  0
ARC
  5
AAB9
  8
0
 10
700.3704453402082208
 20
126.3128649089508002
 30
0.0
 40
0.0404526664622798
 50
293.5463735586591838
 51
359.5328632661119741
  0
ARC
  5
AABA
  8
0
 10
700.3898740403645888
 20
126.2701197340689987
 30
0.0
 40
0.0065364332842835
 50
120.0000004265868938
 51
239.9999996535613889
  0
ARC
  5
AABB
  8
0
 10
700.3704453402114041
 20
126.2273745591882061
 30
0.0
 40
0.0404526664588907
 50
0.4671367323670239
 51
66.4536264322456987
  0
LINE
  5
AABC
  8
0
 10
700.4108966621805621
 20
126.2277043691189959
 30
0.0
 11
700.4108966620032106
 21
126.1156847053188983
 31
0.0
  0
LINE
  5
AABD
  8
0
 10
700.3866058236807248
 20
126.2757804513190933
 30
0.0
 11
698.2068410451446425
 21
126.2757804513190933
 31
0.0
  0
LINE
  5
AABE
  8
0
 10
700.3866058236884555
 20
126.2644590168143992
 30
0.0
 11
698.2068410451367981
 21
126.2644590168143992
 31
0.0
  0
ARC
  5
AABF
  8
0
 10
700.3704453400303009
 20
126.1160145152507965
 30
0.0
 40
0.0404526664622798
 50
293.5463735586591838
 51
359.5328632661119741
  0
ARC
  5
AAC0
  8
0
 10
700.3898740401872374
 20
126.0732693403688955
 30
0.0
 40
0.0065364332842835
 50
120.0000004265868938
 51
239.9999996535613889
  0
ARC
  5
AAC1
  8
0
 10
700.3704453400340526
 20
126.0305241654882025
 30
0.0
 40
0.0404526664588907
 50
0.4671367323670239
 51
66.4536264322456987
  0
LINE
  5
AAC2
  8
0
 10
700.4108966620032106
 20
126.030853975418907
 30
0.0
 11
700.4108966618257455
 21
125.9188343116189941
 31
0.0
  0
LINE
  5
AAC3
  8
0
 10
700.3866058235033734
 20
126.0789300576191039
 30
0.0
 11
698.2068410453218803
 21
126.0789300576191039
 31
0.0
  0
LINE
  5
AAC4
  8
0
 10
700.3866058235111041
 20
126.0676086231143955
 30
0.0
 11
698.2068410453146043
 21
126.0676086231143955
 31
0.0
  0
ARC
  5
AAC5
  8
0
 10
700.3704453398530632
 20
125.9191641215506934
 30
0.0
 40
0.0404526664622798
 50
293.5463735586591838
 51
359.5328632661119741
  0
ARC
  5
AAC6
  8
0
 10
700.3898740400097722
 20
125.8764189466689061
 30
0.0
 40
0.0065364332842835
 50
120.0000004265868938
 51
239.9999996535613889
  0
ARC
  5
AAC7
  8
0
 10
700.3704453398567011
 20
125.8336737717881988
 30
0.0
 40
0.0404526664588907
 50
0.4671367323670239
 51
66.4536264322456987
  0
LINE
  5
AAC8
  8
0
 10
700.4108966618257455
 20
125.8340035817189033
 30
0.0
 11
700.4108966616480529
 21
125.7219839179189051
 31
0.0
  0
LINE
  5
AAC9
  8
0
 10
700.3866058233260219
 20
125.8820796639190007
 30
0.0
 11
698.2068410454993455
 21
125.8820796639190007
 31
0.0
  0
LINE
  5
AACA
  8
0
 10
700.3866058233337526
 20
125.8707582294144061
 30
0.0
 11
698.2068410454919558
 21
125.8707582294144061
 31
0.0
  0
ARC
  5
AACB
  8
0
 10
700.3704453396757117
 20
125.7223137278507039
 30
0.0
 40
0.0404526664622798
 50
293.5463735586591838
 51
359.5328632661119741
  0
ARC
  5
AACC
  8
0
 10
700.3898740398325344
 20
125.6795685529689024
 30
0.0
 40
0.0065364332842835
 50
120.0000004265868938
 51
239.9999996535613889
  0
ARC
  5
AACD
  8
0
 10
700.3704453396793497
 20
125.6368233780881951
 30
0.0
 40
0.0404526664588907
 50
0.4671367323670239
 51
66.4536264322456987
  0
LINE
  5
AACE
  8
0
 10
700.4108966616480529
 20
125.6371531880188996
 30
0.0
 11
700.4108966614705878
 21
125.5251335242189015
 31
0.0
  0
LINE
  5
AACF
  8
0
 10
700.3866058231485567
 20
125.685229270218997
 30
0.0
 11
698.2068410456771517
 21
125.685229270218997
 31
0.0
  0
LINE
  5
AAD0
  8
0
 10
700.3866058231559464
 20
125.6739078357143029
 30
0.0
 11
698.206841045669421
 21
125.6739078357143029
 31
0.0
  0
ARC
  5
AAD1
  8
0
 10
700.3704453394982465
 20
125.5254633341507002
 30
0.0
 40
0.0404526664622798
 50
293.5463735586591838
 51
359.5328632661119741
  0
ARC
  5
AAD2
  8
0
 10
700.3898740396550693
 20
125.4827181592688987
 30
0.0
 40
0.0065364332842835
 50
120.0000004265868938
 51
239.9999996535613889
  0
ARC
  5
AAD3
  8
0
 10
700.3704453395019982
 20
125.4399729843882056
 30
0.0
 40
0.0404526664588907
 50
0.4671367323670239
 51
66.4536264322456987
  0
LINE
  5
AAD4
  8
0
 10
700.4108966614705878
 20
125.440302794318896
 30
0.0
 11
700.41089666129335
 21
125.3282831305188978
 31
0.0
  0
LINE
  5
AAD5
  8
0
 10
700.3866058229712053
 20
125.4883788765189934
 30
0.0
 11
698.2068410458545031
 21
125.4883788765189934
 31
0.0
  0
LINE
  5
AAD6
  8
0
 10
700.3866058229784812
 20
125.4770574420142992
 30
0.0
 11
698.2068410458467724
 21
125.4770574420142992
 31
0.0
  0
ARC
  5
AAD7
  8
0
 10
700.3704453393210088
 20
125.3286129404506966
 30
0.0
 40
0.0404526664622798
 50
293.5463735586591838
 51
359.5328632661119741
  0
ARC
  5
AAD8
  8
0
 10
700.3898740394778315
 20
125.2858677655687956
 30
0.0
 40
0.0065364332842835
 50
120.0000004265868938
 51
239.9999996535613889
  0
ARC
  5
AAD9
  8
0
 10
700.3704453393240783
 20
125.2431225906881025
 30
0.0
 40
0.0404526664588907
 50
0.4671367323670239
 51
66.4536264322456987
  0
LINE
  5
AADA
  8
0
 10
700.41089666129335
 20
125.243452400618807
 30
0.0
 11
700.4108966611159985
 21
125.1314327368188941
 31
0.0
  0
LINE
  5
AADB
  8
0
 10
700.3866058227933991
 20
125.2915284828190039
 30
0.0
 11
698.2068410460318546
 21
125.2915284828190039
 31
0.0
  0
LINE
  5
AADC
  8
0
 10
700.3866058228012434
 20
125.2802070483142955
 30
0.0
 11
698.2068410460241239
 21
125.2802070483142955
 31
0.0
  0
ARC
  5
AADD
  8
0
 10
700.3704453391435436
 20
125.1317625467507071
 30
0.0
 40
0.0404526664622798
 50
293.5463735586591838
 51
359.5328632661119741
  0
ARC
  5
AADE
  8
0
 10
700.38987403930048
 20
125.0890173718688061
 30
0.0
 40
0.0065364332842835
 50
120.0000004265868938
 51
239.9999996535613889
  0
ARC
  5
AADF
  8
0
 10
700.3704453391468405
 20
125.0462721969880988
 30
0.0
 40
0.0404526664588907
 50
0.4671367323670239
 51
66.4536264322456987
  0
LINE
  5
AAE0
  8
0
 10
700.4108966611159985
 20
125.0466020069188033
 30
0.0
 11
700.4108966609386471
 21
124.9345823431188052
 31
0.0
  0
LINE
  5
AAE1
  8
0
 10
700.3866058226161613
 20
125.0946780891190002
 30
0.0
 11
698.2068410462090924
 21
125.0946780891190002
 31
0.0
  0
LINE
  5
AAE2
  8
0
 10
700.386605822623892
 20
125.0833566546142066
 30
0.0
 11
698.2068410462013617
 21
125.0833566546142066
 31
0.0
  0
ARC
  5
AAE3
  8
0
 10
700.3704453389663058
 20
124.9349121530506039
 30
0.0
 40
0.0404526664622798
 50
293.5463735586591838
 51
359.5328632661119741
  0
ARC
  5
AAE4
  8
0
 10
700.3898740391225601
 20
124.8921669781688024
 30
0.0
 40
0.0065364332842835
 50
120.0000004265868938
 51
239.9999996535613889
  0
ARC
  5
AAE5
  8
0
 10
700.3704453389693754
 20
124.8494218032880951
 30
0.0
 40
0.0404526664588907
 50
0.4671367323670239
 51
66.4536264322456987
  0
LINE
  5
AAE6
  8
0
 10
700.4108966609386471
 20
124.8497516132187997
 30
0.0
 11
700.4108966607612956
 21
124.7377319494188015
 31
0.0
  0
LINE
  5
AAE7
  8
0
 10
700.3866058224388098
 20
124.8978276954188971
 30
0.0
 11
698.2068410463864438
 21
124.8978276954188971
 31
0.0
  0
LINE
  5
AAE8
  8
0
 10
700.3866058224465405
 20
124.8865062609142029
 30
0.0
 11
698.2068410463788268
 21
124.8865062609142029
 31
0.0
  0
ARC
  5
AAE9
  8
0
 10
700.3704453387884996
 20
124.7380617593506003
 30
0.0
 40
0.0404526664622798
 50
293.5463735586591838
 51
359.5328632661119741
  0
ARC
  5
AAEA
  8
0
 10
700.3898740389453224
 20
124.6953165844687987
 30
0.0
 40
0.0065364332842835
 50
120.0000004265868938
 51
239.9999996535613889
  0
ARC
  5
AAEB
  8
0
 10
700.3704453387921376
 20
124.6525714095881057
 30
0.0
 40
0.0404526664588907
 50
0.4671367323670239
 51
66.4536264322456987
  0
LINE
  5
AAEC
  8
0
 10
700.4108966607612956
 20
124.652901219518796
 30
0.0
 11
700.4108966605839441
 21
124.5408815557187978
 31
0.0
  0
LINE
  5
AAED
  8
0
 10
700.3866058222613447
 20
124.7009773017188934
 30
0.0
 11
698.206841046563909
 21
124.7009773017188934
 31
0.0
  0
LINE
  5
AAEE
  8
0
 10
700.3866058222690754
 20
124.6896558672141992
 30
0.0
 11
698.206841046556633
 21
124.6896558672141992
 31
0.0
  0
ARC
  5
AAEF
  8
0
 10
700.3704453386111481
 20
124.5412113656505966
 30
0.0
 40
0.0404526664622798
 50
293.5463735586591838
 51
359.5328632661119741
  0
ARC
  5
AAF0
  8
0
 10
700.3898740387678572
 20
124.4984661907687951
 30
0.0
 40
0.0065364332842835
 50
120.0000004265868938
 51
239.9999996535613889
  0
LINE
  5
AAF1
  8
0
 10
700.3866058220839932
 20
124.5041269080189039
 30
0.0
 11
698.2068410467411468
 21
124.5041269080189039
 31
0.0
  0
LINE
  5
AAF2
  8
0
 10
700.3866058220918376
 20
124.4928054735141956
 30
0.0
 11
698.2068410467339845
 21
124.4928054735141956
 31
0.0
  0
LINE
  5
AAF3
  8
0
 10
700.4108966627126165
 20
122.8812427785289003
 30
0.0
 11
700.4108966627126165
 21
122.7692280124814062
 31
0.0
  0
ARC
  5
AAF4
  8
0
 10
700.3704453407402752
 20
122.7695578224132049
 30
0.0
 40
0.0404526664622798
 50
293.5463735586591838
 51
359.5328632661119741
  0
ARC
  5
AAF5
  8
0
 10
700.3898740408969843
 20
122.7268126475314034
 30
0.0
 40
0.0065364332842835
 50
120.0000004265868938
 51
239.9999996535613889
  0
ARC
  5
AAF6
  8
0
 10
700.3704453407434585
 20
122.6840674726506961
 30
0.0
 40
0.0404526664588907
 50
0.4671367323670239
 51
66.4536264322456987
  0
LINE
  5
AAF7
  8
0
 10
700.386605824213234
 20
122.732473364781498
 30
0.0
 11
698.2068410446124744
 21
122.732473364781498
 31
0.0
  0
LINE
  5
AAF8
  8
0
 10
700.3866058242205099
 20
122.7211519302768039
 30
0.0
 11
698.2068410446047437
 21
122.7211519302768039
 31
0.0
  0
LINE
  5
AAF9
  8
0
 10
700.4108966627126165
 20
121.2110646159189997
 30
0.0
 11
698.1825502061127509
 21
121.2110646159189997
 31
0.0
  0
LINE
  5
AAFA
  8
0
 10
700.438455717912575
 20
120.8370488679189947
 30
0.0
 11
698.1549911509126787
 21
120.8370488679189947
 31
0.0
  0
LINE
  5
AAFB
  8
0
 10
700.438455717912575
 20
120.7386236710189991
 30
0.0
 11
698.1549911509126787
 21
120.7386236710189991
 31
0.0
  0
LINE
  5
AAFC
  8
0
 10
700.320345481612776
 20
120.7386236710189991
 30
0.0
 11
700.320345481612776
 21
119.7725467456677961
 31
0.0
  0
LINE
  5
AAFD
  8
0
 10
700.4108966627126165
 20
122.6843972825814006
 30
0.0
 11
700.4108966627126165
 21
121.2110646159189997
 31
0.0
  0
LINE
  5
AAFE
  8
0
 10
700.4108966627126165
 20
121.2110646159189997
 30
0.0
 11
700.3503490594943059
 21
120.8370488679189947
 31
0.0
  0
LINE
  5
AAFF
  8
0
 10
700.438455717912575
 20
120.8370488679189947
 30
0.0
 11
700.438455717912575
 21
120.7386236710189991
 31
0.0
  0
LINE
  5
AB00
  8
0
 10
695.2081407572126182
 20
141.2760213087190095
 30
0.0
 11
695.2081407572126182
 21
146.7366512300189925
 31
0.0
  0
LINE
  5
AB01
  8
0
 10
690.2416053242126281
 20
147.7464976867190103
 30
0.0
 11
690.2416053242126281
 21
147.2346866631189926
 31
0.0
  0
ARC
  5
AB02
  8
0
 10
690.3794005997626755
 20
147.2346866631189926
 30
0.0
 40
0.1377952755499976
 50
180.0
 51
0.0
  0
LINE
  5
AB03
  8
0
 10
690.5171958753129502
 20
147.2346866631189926
 30
0.0
 11
690.5171958753129502
 21
147.7464976867190103
 31
0.0
  0
ARC
  5
AB04
  8
0
 10
690.3794005997626755
 20
147.7464976867190103
 30
0.0
 40
0.1377952755500011
 50
0.0
 51
180.0
  0
ARC
  5
AB05
  8
0
 10
694.4610829073760669
 20
148.0199380803036036
 30
0.0
 40
0.2135728172145131
 50
357.7483575826103106
 51
40.544920818698202
  0
ARC
  5
AB06
  8
0
 10
685.0772791842422293
 20
147.637725898127087
 30
0.0
 40
9.6044892439166851
 50
359.5290635332680154
 51
2.230601747248889
  0
LINE
  5
AB07
  8
0
 10
694.6814439980061024
 20
147.5587837257899082
 30
0.0
 11
694.6814439977127904
 21
140.2268087103099106
 31
0.0
  0
ARC
  5
AB08
  8
0
 10
694.4542037494128408
 20
140.2268087103190055
 30
0.0
 40
0.2272402482999993
 50
270.0000000003126956
 51
0.0
  0
LINE
  5
AB09
  8
0
 10
694.4542037494137503
 20
139.9995684620189991
 30
0.0
 11
690.7632588675127181
 21
139.9995684619997007
 31
0.0
  0
ARC
  5
AB0A
  8
0
 10
695.6549911508421928
 20
147.648068552989713
 30
0.0
 40
0.492125984129288
 50
89.999999991766586
 51
180.0000000198751025
  0
LINE
  5
AB0B
  8
0
 10
695.1628651667126633
 20
147.6480685528190122
 30
0.0
 11
695.1628651692393532
 21
140.3646039861189934
 31
0.0
  0
ARC
  5
AB0C
  8
0
 10
695.6925131770229882
 20
140.4021260091869863
 30
0.0
 40
0.5309754366862816
 50
184.0522531494399914
 51
265.9477465214829977
  0
LINE
  5
AB0D
  8
0
 10
695.2081407572126182
 20
146.7366512300189925
 30
0.0
 11
695.2868809147129241
 21
146.8153913875190142
 31
0.0
  0
LINE
  5
AB0E
  8
0
 10
695.5048451470128157
 20
146.8153913875190142
 30
0.0
 11
695.5048451470128157
 21
147.6013641622189994
 31
0.0
  0
ARC
  5
AB0F
  8
0
 10
695.7016955407127625
 20
147.6013641622189994
 30
0.0
 40
0.1968503937000001
 50
0.0000004656975289
 51
180.0
  0
LINE
  5
AB10
  8
0
 10
695.8985459344129367
 20
147.6013641638189995
 30
0.0
 11
695.8985459408012275
 21
146.8153913875190142
 31
0.0
  0
LINE
  5
AB11
  8
0
 10
689.2573584759701362
 20
146.4400498892632072
 30
0.0
 11
690.8122543824149489
 21
146.4400498896276872
 31
0.0
  0
ARC
  5
AB12
  8
0
 10
690.8122543823604929
 20
146.6735581152090049
 30
0.0
 40
0.2335082255812928
 50
270.0000000134443781
 51
328.5823704728898065
  0
LINE
  5
AB13
  8
0
 10
691.0115280710646175
 20
146.5518367596285998
 30
0.0
 11
692.0449901732124545
 21
147.8032116482189906
 31
0.0
  0
ARC
  5
AB14
  8
0
 10
692.9990022202190403
 20
146.9260962949697102
 30
0.0
 40
1.2959437984491919
 50
93.9647372908499108
 51
137.4046763877358046
  0
LINE
  5
AB15
  8
0
 10
689.2573584759701362
 20
146.817170653027091
 30
0.0
 11
691.0258272460126818
 21
146.8171706523189926
 31
0.0
  0
ARC
  5
AB16
  8
0
 10
691.0258272461450133
 20
147.1479674179799133
 30
0.0
 40
0.3307967656608746
 50
269.9999999770453769
 51
308.346902544582008
  0
LINE
  5
AB17
  8
0
 10
691.2310605873401528
 20
146.888533850696092
 30
0.0
 11
692.0449901732124545
 21
147.8032116482189906
 31
0.0
  0
ARC
  5
AB18
  8
0
 10
689.9165437219634214
 20
147.5597194641754015
 30
0.0
 40
0.6628976582743912
 50
96.0387946313828138
 51
173.9333997668333041
  0
LINE
  5
AB19
  8
0
 10
695.2081407572126182
 20
141.2760213087190095
 30
0.0
 11
695.2868809147129241
 21
141.1972811512189878
 31
0.0
  0
LINE
  5
AB1A
  8
0
 10
695.5048451470128157
 20
141.1972811512189878
 30
0.0
 11
695.5048451470128157
 21
140.4113083757189884
 31
0.0
  0
ARC
  5
AB1B
  8
0
 10
695.7016955407127625
 20
140.4113083757189884
 30
0.0
 40
0.1968503937000001
 50
180.0
 51
0.0000002328495787
  0
LINE
  5
AB1C
  8
0
 10
695.8985459344129367
 20
140.4113083765190026
 30
0.0
 11
695.8985459312183366
 21
141.1972811512189878
 31
0.0
  0
LINE
  5
AB1D
  8
0
 10
689.2573584759701362
 20
147.6297774174028916
 30
0.0
 11
689.2573584759701362
 21
141.4079150096189892
 31
0.0
  0
LINE
  5
AB1E
  8
0
 10
690.7632588675127181
 20
128.8488659658189874
 30
0.0
 11
693.1177489325931447
 21
128.8488659658189874
 31
0.0
  0
ARC
  5
AB1F
  8
0
 10
693.1177489325931447
 20
129.4393805165676952
 30
0.0
 40
0.5905145507486873
 50
270.0
 51
0.0387468352843148
  0
LINE
  5
AB20
  8
0
 10
693.7082633483126983
 20
129.4397798578189906
 30
0.0
 11
693.7081610636809046
 21
129.5910303221818936
 31
0.0
  0
ARC
  5
AB21
  8
0
 10
693.8200484779093813
 20
129.5787226444820135
 30
0.0
 40
0.1125623044947161
 50
75.5566626934019183
 51
173.7226700725591968
  0
ARC
  5
AB22
  8
0
 10
-11811.2618872875900706
 20
-78836.7398890534095699
 30
0.0
 40
79950.4500731475272914
 50
80.9995582019698332
 51
81.0013755956800026
  0
ARC
  5
AB23
  8
0
 10
696.998058839807868
 20
133.4269662028588925
 30
0.0
 40
4.1859517013720247
 50
261.1338731413493974
 51
271.5574137558036227
  0
LINE
  5
AB24
  8
0
 10
692.2110131205124617
 20
128.8488659658189874
 30
0.0
 11
692.2110131205124617
 21
129.7842671044190013
 31
0.0
  0
ARC
  5
AB25
  8
0
 10
691.7602117148165917
 20
129.547098144351196
 30
0.0
 40
0.5093829826341147
 50
27.7490908602622817
 51
85.6247019420025168
  0
ARC
  5
AB26
  8
0
 10
685.023038179289756
 20
90.0853989733014231
 30
0.0
 40
40.5398985489375008
 50
80.3781460049002163
 51
81.8598849295479738
  0
LINE
  5
AB27
  8
0
 10
696.5247803545129273
 20
136.7101236103189876
 30
0.0
 11
695.8576605884125001
 21
136.710123620118992
 31
0.0
  0
ARC
  5
AB28
  8
0
 10
695.8101699194234016
 20
136.2701197458756042
 30
0.0
 40
0.4425593440322747
 50
83.8397767885034142
 51
276.1602169220325891
  0
LINE
  5
AB29
  8
0
 10
695.8576605401125335
 20
135.8301158664189927
 30
0.0
 11
696.5276329283685754
 21
135.8301158027169038
 31
0.0
  0
ARC
  5
AB2A
  8
0
 10
696.5291567875209466
 20
136.2701292695122106
 30
0.0
 40
0.4400161055097114
 50
269.8015734618945771
 51
90.5698774930288693
  0
LINE
  5
AB2B
  8
0
 10
696.3868778791752447
 20
136.3621875175190041
 30
0.0
 11
696.1631998662752494
 21
136.3621875286189891
 31
0.0
  0
ARC
  5
AB2C
  8
0
 10
696.1704594100821168
 20
136.2701197338244015
 30
0.0
 40
0.09235355875455
 50
94.5084430505678057
 51
265.4915554558396025
  0
LINE
  5
AB2D
  8
0
 10
696.1631998638755476
 20
136.1780519392189888
 30
0.0
 11
696.3868778791752447
 21
136.1780519444882032
 31
0.0
  0
ARC
  5
AB2E
  8
0
 10
696.3868778770065546
 20
136.2701197310036036
 30
0.0
 40
0.0920677865153916
 50
270.0000013497325995
 51
89.9999986502674432
  0
LINE
  5
AB2F
  8
0
 10
696.5247803545129273
 20
133.5558160500090992
 30
0.0
 11
695.8576605884125001
 21
133.5558160598091035
 31
0.0
  0
ARC
  5
AB30
  8
0
 10
695.8101699194234016
 20
133.115812185565602
 30
0.0
 40
0.4425593440322747
 50
83.8397767885034142
 51
276.1602169220325891
  0
LINE
  5
AB31
  8
0
 10
695.8576605401125335
 20
132.6758083061089906
 30
0.0
 11
696.5276329283685754
 21
132.6758082424069016
 31
0.0
  0
ARC
  5
AB32
  8
0
 10
696.5291567875209466
 20
133.1158217092022085
 30
0.0
 40
0.4400161055097114
 50
269.8015734618945771
 51
90.5698774930288693
  0
LINE
  5
AB33
  8
0
 10
696.3868778791752447
 20
133.2078799572090873
 30
0.0
 11
696.1631998662752494
 21
133.2078799683091006
 31
0.0
  0
ARC
  5
AB34
  8
0
 10
696.1704594100821168
 20
133.115812173514513
 30
0.0
 40
0.09235355875455
 50
94.5084430505678057
 51
265.4915554558396025
  0
LINE
  5
AB35
  8
0
 10
696.1631998638755476
 20
133.0237443789091003
 30
0.0
 11
696.3868778791752447
 21
133.0237443841782863
 31
0.0
  0
ARC
  5
AB36
  8
0
 10
696.3868778770065546
 20
133.1158121706936868
 30
0.0
 40
0.0920677865153916
 50
270.0000013497325995
 51
89.9999986502674432
  0
LINE
  5
AB37
  8
0
 10
698.7908179226127459
 20
118.1293234743124998
 30
0.0
 11
698.7908179226127459
 21
118.0965518564968022
 31
0.0
  0
LINE
  5
AB38
  8
0
 10
697.5841250092129258
 20
128.5732693402190137
 30
0.0
 11
697.7612903635124439
 21
128.4551591040190033
 31
0.0
  0
LINE
  5
AB39
  8
0
 10
697.7612903635124439
 20
128.4551591040190033
 30
0.0
 11
697.7612903635124439
 21
127.5496472930539937
 31
0.0
  0
ARC
  5
AB3A
  8
0
 10
697.5545974501127375
 20
127.3527968993190029
 30
0.0
 40
0.2854330708999821
 50
359.9999999999984084
 51
43.6028189757291003
  0
LINE
  5
AB3B
  8
0
 10
698.1825502061127509
 20
126.9787811513189979
 30
0.0
 11
698.1825502061127509
 21
126.9030862801189983
 31
0.0
  0
ARC
  5
AB3C
  8
0
 10
698.2230015280849784
 20
126.903416090050797
 30
0.0
 40
0.0404526664622798
 50
180.4671367338879122
 51
246.4536264413407025
  0
ARC
  5
AB3D
  8
0
 10
698.2035728279281557
 20
126.8606709151689955
 30
0.0
 40
0.0065364332842835
 50
300.0000003464385827
 51
59.9999995734131133
  0
ARC
  5
AB3E
  8
0
 10
698.2230015280819089
 20
126.8179257402883024
 30
0.0
 40
0.0404526664588907
 50
113.5463735677543013
 51
179.5328632676329903
  0
LINE
  5
AB3F
  8
0
 10
698.1825502061127509
 20
126.818255550219007
 30
0.0
 11
698.1825502062901023
 21
126.7062358864189946
 31
0.0
  0
ARC
  5
AB40
  8
0
 10
697.9975108360124523
 20
127.0968913875189941
 30
0.0
 40
0.0787401574999951
 50
179.9999999999984084
 51
270.0
  0
LINE
  5
AB41
  8
0
 10
697.9187706785126011
 20
127.0968913875189941
 30
0.0
 11
697.9187706785126011
 21
127.3527968993190029
 31
0.0
  0
ARC
  5
AB42
  8
0
 10
698.2230015282624436
 20
126.7065656963507934
 30
0.0
 40
0.0404526664622798
 50
180.4671367338879122
 51
246.4536264413407025
  0
ARC
  5
AB43
  8
0
 10
698.2035728281060756
 20
126.6638205214690061
 30
0.0
 40
0.0065364332842835
 50
300.0000003464385827
 51
59.9999995734131133
  0
ARC
  5
AB44
  8
0
 10
698.2230015282591467
 20
126.6210753465882988
 30
0.0
 40
0.0404526664588907
 50
113.5463735677543013
 51
179.5328632676329903
  0
LINE
  5
AB45
  8
0
 10
698.1825502062901023
 20
126.6214051565190033
 30
0.0
 11
698.1825502064674538
 21
126.5093854927190051
 31
0.0
  0
ARC
  5
AB46
  8
0
 10
698.223001528439795
 20
126.5097153026508039
 30
0.0
 40
0.0404526664622798
 50
180.4671367338879122
 51
246.4536264413407025
  0
ARC
  5
AB47
  8
0
 10
698.203572828283427
 20
126.4669701277690024
 30
0.0
 40
0.0065364332842835
 50
300.0000003464385827
 51
59.9999995734131133
  0
ARC
  5
AB48
  8
0
 10
698.2230015284366118
 20
126.4242249528882951
 30
0.0
 40
0.0404526664588907
 50
113.5463735677543013
 51
179.5328632676329903
  0
LINE
  5
AB49
  8
0
 10
698.1825502064674538
 20
126.4245547628189996
 30
0.0
 11
698.1825502066448053
 21
126.3125350990190014
 31
0.0
  0
ARC
  5
AB4A
  8
0
 10
698.2230015286176013
 20
126.3128649089508002
 30
0.0
 40
0.0404526664622798
 50
180.4671367338879122
 51
246.4536264413407025
  0
ARC
  5
AB4B
  8
0
 10
698.2035728284606648
 20
126.2701197340689987
 30
0.0
 40
0.0065364332842835
 50
300.0000003464385827
 51
59.9999995734131133
  0
ARC
  5
AB4C
  8
0
 10
698.2230015286138496
 20
126.2273745591882061
 30
0.0
 40
0.0404526664588907
 50
113.5463735677543013
 51
179.5328632676329903
  0
LINE
  5
AB4D
  8
0
 10
698.1825502066448053
 20
126.2277043691189959
 30
0.0
 11
698.1825502068224978
 21
126.1156847053188983
 31
0.0
  0
ARC
  5
AB4E
  8
0
 10
698.2230015287949527
 20
126.1160145152507965
 30
0.0
 40
0.0404526664622798
 50
180.4671367338879122
 51
246.4536264413407025
  0
ARC
  5
AB4F
  8
0
 10
698.20357282863813
 20
126.0732693403688955
 30
0.0
 40
0.0065364332842835
 50
300.0000003464385827
 51
59.9999995734131133
  0
ARC
  5
AB50
  8
0
 10
698.2230015287913147
 20
126.0305241654882025
 30
0.0
 40
0.0404526664588907
 50
113.5463735677543013
 51
179.5328632676329903
  0
LINE
  5
AB51
  8
0
 10
698.1825502068224978
 20
126.030853975418907
 30
0.0
 11
698.1825502069998493
 21
125.9188343116189941
 31
0.0
  0
ARC
  5
AB52
  8
0
 10
698.2230015289721905
 20
125.9191641215506934
 30
0.0
 40
0.0404526664622798
 50
180.4671367338879122
 51
246.4536264413407025
  0
ARC
  5
AB53
  8
0
 10
698.2035728288153678
 20
125.8764189466689061
 30
0.0
 40
0.0065364332842835
 50
300.0000003464385827
 51
59.9999995734131133
  0
ARC
  5
AB54
  8
0
 10
698.2230015289686662
 20
125.8336737717881988
 30
0.0
 40
0.0404526664588907
 50
113.5463735677543013
 51
179.5328632676329903
  0
LINE
  5
AB55
  8
0
 10
698.1825502069998493
 20
125.8340035817189033
 30
0.0
 11
698.1825502071773144
 21
125.7219839179189051
 31
0.0
  0
ARC
  5
AB56
  8
0
 10
698.2230015291496557
 20
125.7223137278507039
 30
0.0
 40
0.0404526664622798
 50
180.4671367338879122
 51
246.4536264413407025
  0
ARC
  5
AB57
  8
0
 10
698.2035728289928329
 20
125.6795685529689024
 30
0.0
 40
0.0065364332842835
 50
300.0000003464385827
 51
59.9999995734131133
  0
ARC
  5
AB58
  8
0
 10
698.2230015291463587
 20
125.6368233780881951
 30
0.0
 40
0.0404526664588907
 50
113.5463735677543013
 51
179.5328632676329903
  0
LINE
  5
AB59
  8
0
 10
698.1825502071773144
 20
125.6371531880188996
 30
0.0
 11
698.1825502073545522
 21
125.5251335242189015
 31
0.0
  0
ARC
  5
AB5A
  8
0
 10
698.2230015293270071
 20
125.5254633341507002
 30
0.0
 40
0.0404526664622798
 50
180.4671367338879122
 51
246.4536264413407025
  0
ARC
  5
AB5B
  8
0
 10
698.2035728291701844
 20
125.4827181592688987
 30
0.0
 40
0.0065364332842835
 50
300.0000003464385827
 51
59.9999995734131133
  0
ARC
  5
AB5C
  8
0
 10
698.2230015293238239
 20
125.4399729843882056
 30
0.0
 40
0.0404526664588907
 50
113.5463735677543013
 51
179.5328632676329903
  0
LINE
  5
AB5D
  8
0
 10
698.1825502073545522
 20
125.440302794318896
 30
0.0
 11
698.1825502075320173
 21
125.3282831305188978
 31
0.0
  0
ARC
  5
AB5E
  8
0
 10
698.2230015295042449
 20
125.3286129404506966
 30
0.0
 40
0.0404526664622798
 50
180.4671367338879122
 51
246.4536264413407025
  0
ARC
  5
AB5F
  8
0
 10
698.2035728293479906
 20
125.2858677655687956
 30
0.0
 40
0.0065364332842835
 50
300.0000003464385827
 51
59.9999995734131133
  0
ARC
  5
AB60
  8
0
 10
698.2230015295010617
 20
125.2431225906881025
 30
0.0
 40
0.0404526664588907
 50
113.5463735677543013
 51
179.5328632676329903
  0
LINE
  5
AB61
  8
0
 10
698.1825502075320173
 20
125.243452400618807
 30
0.0
 11
698.1825502077092551
 21
125.1314327368188941
 31
0.0
  0
ARC
  5
AB62
  8
0
 10
698.2230015296817101
 20
125.1317625467507071
 30
0.0
 40
0.0404526664622798
 50
180.4671367338879122
 51
246.4536264413407025
  0
ARC
  5
AB63
  8
0
 10
698.2035728295253421
 20
125.0890173718688061
 30
0.0
 40
0.0065364332842835
 50
300.0000003464385827
 51
59.9999995734131133
  0
ARC
  5
AB64
  8
0
 10
698.2230015296785268
 20
125.0462721969880988
 30
0.0
 40
0.0404526664588907
 50
113.5463735677543013
 51
179.5328632676329903
  0
LINE
  5
AB65
  8
0
 10
698.1825502077092551
 20
125.0466020069188033
 30
0.0
 11
698.1825502078867203
 21
124.9345823431188052
 31
0.0
  0
ARC
  5
AB66
  8
0
 10
698.2230015298595163
 20
124.9349121530506039
 30
0.0
 40
0.0404526664622798
 50
180.4671367338879122
 51
246.4536264413407025
  0
ARC
  5
AB67
  8
0
 10
698.2035728297025798
 20
124.8921669781688024
 30
0.0
 40
0.0065364332842835
 50
300.0000003464385827
 51
59.9999995734131133
  0
ARC
  5
AB68
  8
0
 10
698.2230015298558783
 20
124.8494218032880951
 30
0.0
 40
0.0404526664588907
 50
113.5463735677543013
 51
179.5328632676329903
  0
LINE
  5
AB69
  8
0
 10
698.1825502078867203
 20
124.8497516132187997
 30
0.0
 11
698.1825502080645265
 21
124.7377319494188015
 31
0.0
  0
ARC
  5
AB6A
  8
0
 10
698.223001530036754
 20
124.7380617593506003
 30
0.0
 40
0.0404526664622798
 50
180.4671367338879122
 51
246.4536264413407025
  0
ARC
  5
AB6B
  8
0
 10
698.203572829880045
 20
124.6953165844687987
 30
0.0
 40
0.0065364332842835
 50
300.0000003464385827
 51
59.9999995734131133
  0
ARC
  5
AB6C
  8
0
 10
698.2230015300332298
 20
124.6525714095881057
 30
0.0
 40
0.0404526664588907
 50
113.5463735677543013
 51
179.5328632676329903
  0
LINE
  5
AB6D
  8
0
 10
698.1825502080645265
 20
124.652901219518796
 30
0.0
 11
698.1825502082417643
 21
124.5408815557187978
 31
0.0
  0
ARC
  5
AB6E
  8
0
 10
698.2230015302142192
 20
124.5412113656505966
 30
0.0
 40
0.0404526664622798
 50
180.4671367338879122
 51
246.4536264413407025
  0
ARC
  5
AB6F
  8
0
 10
698.2035728300573965
 20
124.4984661907687951
 30
0.0
 40
0.0065364332842835
 50
300.0000003464385827
 51
59.9999995734131133
  0
LINE
  5
AB70
  8
0
 10
698.1825502061127509
 20
122.881252061199703
 30
0.0
 11
698.1825502061127509
 21
122.7692280124814062
 31
0.0
  0
ARC
  5
AB71
  8
0
 10
698.2230015280849784
 20
122.7695578224132049
 30
0.0
 40
0.0404526664622798
 50
180.4671367338879122
 51
246.4536264413407025
  0
ARC
  5
AB72
  8
0
 10
698.2035728279281557
 20
122.7268126475314034
 30
0.0
 40
0.0065364332842835
 50
300.0000003464385827
 51
59.9999995734131133
  0
ARC
  5
AB73
  8
0
 10
698.2230015280819089
 20
122.6840674726506961
 30
0.0
 40
0.0404526664588907
 50
113.5463735677543013
 51
179.5328632676329903
  0
LINE
  5
AB74
  8
0
 10
698.2731013872129324
 20
120.7386236710189991
 30
0.0
 11
698.2731013872129324
 21
119.7725467456677961
 31
0.0
  0
LINE
  5
AB75
  8
0
 10
698.1825502061127509
 20
122.6843972825814006
 30
0.0
 11
698.1825502061127509
 21
121.2110646159189997
 31
0.0
  0
LINE
  5
AB76
  8
0
 10
698.1825502061127509
 20
121.2110646159189997
 30
0.0
 11
698.2430978093310614
 21
120.8370488679189947
 31
0.0
  0
LINE
  5
AB77
  8
0
 10
698.1549911509126787
 20
120.8370488679189947
 30
0.0
 11
698.1549911509126787
 21
120.7386236710189991
 31
0.0
  0
ARC
  5
AB78
  8
0
 10
701.4503310751067602
 20
128.801498578033403
 30
0.0
 40
0.4421706360982565
 50
85.9423025048246814
 51
184.1536753680582024
  0
ARC
  5
AB79
  8
0
 10
697.1289989641394413
 20
128.7874053761935045
 30
0.0
 40
0.4554792488868261
 50
357.7434545094071723
 51
92.1605676177067465
  0
LINE
  5
AB7A
  8
0
 10
707.8301880013126492
 20
139.0564149839190122
 30
0.0
 11
690.7632588675127181
 21
139.0564149839190122
 31
0.0
  0
LINE
  5
AB7B
  8
0
 10
707.8301880013126492
 20
139.1677704990190136
 30
0.0
 11
690.7632588675127181
 21
139.1677704990190136
 31
0.0
  0
LINE
  5
AB7C
  8
0
 10
702.9418582735246446
 20
139.8724780016189868
 30
0.0
 11
695.654991150912565
 21
139.8724780016189868
 31
0.0
  0
LINE
  5
AB7D
  8
0
 10
703.3065659541127843
 20
141.1972811512189878
 30
0.0
 11
695.2868809147129241
 21
141.1972811512189878
 31
0.0
  0
LINE
  5
AB7E
  8
0
 10
703.3065659541127843
 20
146.8153913875190142
 30
0.0
 11
695.2868809147129241
 21
146.8153913875190142
 31
0.0
  0
LINE
  5
AB7F
  8
0
 10
702.9384557179836293
 20
148.1401945371189868
 30
0.0
 11
695.6549911508421928
 21
148.1401945371189868
 31
0.0
  0
LINE
  5
AB80
  8
0
 10
708.7466411897124772
 20
148.2189386316190109
 30
0.0
 11
695.236610686968902
 21
148.2189386316190109
 31
0.0
  0
LINE
  5
AB81
  8
0
 10
692.9376961695104455
 20
148.2189386316190109
 30
0.0
 11
689.8468056791128902
 21
148.2189386316190109
 31
0.0
  0
CIRCLE
  5
AB82
  8
0
 10
699.2967234344126837
 20
119.1638205213690043
 30
0.0
 40
0.9645669291500013
  0
ARC
  5
AB83
  8
0
 10
700.3704453345907268
 20
124.4557210176414941
 30
0.0
 40
0.0404526664588907
 50
0.4671367323670239
 51
66.4536264322456987
  0
ARC
  5
AB84
  8
0
 10
698.22300152583216
 20
124.4557210176414941
 30
0.0
 40
0.0404526664588907
 50
113.5463735677543013
 51
179.5328632676329903
  0
LINE
  5
AB85
  8
0
 10
700.4108966565597711
 20
124.4560508275721986
 30
0.0
 11
700.4108966563825334
 21
124.3440311637722004
 31
0.0
  0
ARC
  5
AB86
  8
0
 10
700.3704453344100784
 20
124.3443609737039992
 30
0.0
 40
0.0404526664622798
 50
293.5463735586591838
 51
359.5328632661119741
  0
ARC
  5
AB87
  8
0
 10
700.3898740345670149
 20
124.3016157988221977
 30
0.0
 40
0.0065364332842835
 50
120.0000004265868938
 51
239.9999996535613889
  0
LINE
  5
AB88
  8
0
 10
700.3866058178826961
 20
124.3072765160723065
 30
0.0
 11
698.2068410425401908
 21
124.3072765160723065
 31
0.0
  0
LINE
  5
AB89
  8
0
 10
700.3866058178904268
 20
124.2959550815675982
 30
0.0
 11
698.2068410425324601
 21
124.2959550815675982
 31
0.0
  0
LINE
  5
AB8A
  8
0
 10
698.1825502038631157
 20
124.4560508275721986
 30
0.0
 11
698.1825502040403535
 21
124.3440311637722004
 31
0.0
  0
ARC
  5
AB8B
  8
0
 10
698.2230015260128084
 20
124.3443609737039992
 30
0.0
 40
0.0404526664622798
 50
180.4671367338879122
 51
246.4536264413407025
  0
ARC
  5
AB8C
  8
0
 10
698.2035728258564404
 20
124.3016157988221977
 30
0.0
 40
0.0065364332842835
 50
300.0000003464385827
 51
59.9999995734131133
  0
ARC
  5
AB8D
  8
0
 10
700.3704453303896571
 20
124.2588706256949962
 30
0.0
 40
0.0404526664588907
 50
0.4671367323670239
 51
66.4536264322456987
  0
ARC
  5
AB8E
  8
0
 10
698.2230015216307493
 20
124.2588706256949962
 30
0.0
 40
0.0404526664588907
 50
113.5463735677543013
 51
179.5328632676329903
  0
LINE
  5
AB8F
  8
0
 10
700.4108966523589288
 20
124.2592004356257007
 30
0.0
 11
700.4108966521811226
 21
124.1471807718256031
 31
0.0
  0
ARC
  5
AB90
  8
0
 10
700.3704453302087813
 20
124.1475105817575013
 30
0.0
 40
0.0404526664622798
 50
293.5463735586591838
 51
359.5328632661119741
  0
ARC
  5
AB91
  8
0
 10
700.3898740303656041
 20
124.1047654068756003
 30
0.0
 40
0.0065364332842835
 50
120.0000004265868938
 51
239.9999996535613889
  0
LINE
  5
AB92
  8
0
 10
700.3866058136817401
 20
124.110426124125695
 30
0.0
 11
698.2068410383388937
 21
124.110426124125695
 31
0.0
  0
LINE
  5
AB93
  8
0
 10
700.3866058136893571
 20
124.0991046896211003
 30
0.0
 11
698.2068410383316177
 21
124.0991046896211003
 31
0.0
  0
LINE
  5
AB94
  8
0
 10
698.182550199662046
 20
124.2592004356257007
 30
0.0
 11
698.1825501998395112
 21
124.1471807718256031
 31
0.0
  0
ARC
  5
AB95
  8
0
 10
698.2230015218118524
 20
124.1475105817575013
 30
0.0
 40
0.0404526664622798
 50
180.4671367338879122
 51
246.4536264413407025
  0
ARC
  5
AB96
  8
0
 10
698.2035728216550297
 20
124.1047654068756003
 30
0.0
 40
0.0065364332842835
 50
300.0000003464385827
 51
59.9999995734131133
  0
ARC
  5
AB97
  8
0
 10
700.3704453261882463
 20
124.0620202337483988
 30
0.0
 40
0.0404526664588907
 50
0.4671367323670239
 51
66.4536264322456987
  0
ARC
  5
AB98
  8
0
 10
698.2230015174299069
 20
124.0620202337483988
 30
0.0
 40
0.0404526664588907
 50
113.5463735677543013
 51
179.5328632676329903
  0
LINE
  5
AB99
  8
0
 10
700.410896648157518
 20
124.0623500436791034
 30
0.0
 11
700.4108966479800529
 21
123.9503303798791052
 31
0.0
  0
ARC
  5
AB9A
  8
0
 10
700.3704453260078253
 20
123.9506601898109039
 30
0.0
 40
0.0404526664622798
 50
293.5463735586591838
 51
359.5328632661119741
  0
ARC
  5
AB9B
  8
0
 10
700.3898740261646481
 20
123.9079150149291024
 30
0.0
 40
0.0065364332842835
 50
120.0000004265868938
 51
239.9999996535613889
  0
LINE
  5
AB9C
  8
0
 10
700.3866058094803293
 20
123.9135757321791971
 30
0.0
 11
698.2068410341379376
 21
123.9135757321791971
 31
0.0
  0
LINE
  5
AB9D
  8
0
 10
700.3866058094879463
 20
123.9022542976745029
 30
0.0
 11
698.2068410341302069
 21
123.9022542976745029
 31
0.0
  0
LINE
  5
AB9E
  8
0
 10
698.1825501954607489
 20
124.0623500436791034
 30
0.0
 11
698.1825501956381004
 21
123.9503303798791052
 31
0.0
  0
ARC
  5
AB9F
  8
0
 10
698.2230015176104416
 20
123.9506601898109039
 30
0.0
 40
0.0404526664622798
 50
180.4671367338879122
 51
246.4536264413407025
  0
ARC
  5
ABA0
  8
0
 10
698.2035728174539599
 20
123.9079150149291024
 30
0.0
 40
0.0065364332842835
 50
300.0000003464385827
 51
59.9999995734131133
  0
ARC
  5
ABA1
  8
0
 10
700.370445321987404
 20
123.8651698418018015
 30
0.0
 40
0.0404526664588907
 50
0.4671367323670239
 51
66.4536264322456987
  0
ARC
  5
ABA2
  8
0
 10
698.2230015132284962
 20
123.8651698418018015
 30
0.0
 40
0.0404526664588907
 50
113.5463735677543013
 51
179.5328632676329903
  0
LINE
  5
ABA3
  8
0
 10
700.410896643956562
 20
123.865499651732506
 30
0.0
 11
700.4108966437787558
 21
123.7534799879324936
 31
0.0
  0
ARC
  5
ABA4
  8
0
 10
700.3704453218063009
 20
123.7538097978643066
 30
0.0
 40
0.0404526664622798
 50
293.5463735586591838
 51
359.5328632661119741
  0
ARC
  5
ABA5
  8
0
 10
700.3898740219632373
 20
123.7110646229825051
 30
0.0
 40
0.0065364332842835
 50
120.0000004265868938
 51
239.9999996535613889
  0
LINE
  5
ABA6
  8
0
 10
700.3866058052793733
 20
123.7167253402326992
 30
0.0
 11
698.2068410299365269
 21
123.7167253402326992
 31
0.0
  0
LINE
  5
ABA7
  8
0
 10
700.3866058052866492
 20
123.7054039057279056
 30
0.0
 11
698.2068410299292509
 21
123.7054039057279056
 31
0.0
  0
LINE
  5
ABA8
  8
0
 10
698.1825501912593381
 20
123.865499651732506
 30
0.0
 11
698.1825501914371443
 21
123.7534799879324936
 31
0.0
  0
ARC
  5
ABA9
  8
0
 10
698.2230015134094856
 20
123.7538097978643066
 30
0.0
 40
0.0404526664622798
 50
180.4671367338879122
 51
246.4536264413407025
  0
ARC
  5
ABAA
  8
0
 10
698.2035728132525492
 20
123.7110646229825051
 30
0.0
 40
0.0065364332842835
 50
300.0000003464385827
 51
59.9999995734131133
  0
ARC
  5
ABAB
  8
0
 10
700.3704453177859932
 20
123.6683194498553036
 30
0.0
 40
0.0404526664588907
 50
0.4671367323670239
 51
66.4536264322456987
  0
ARC
  5
ABAC
  8
0
 10
698.2230015090275401
 20
123.6683194498553036
 30
0.0
 40
0.0404526664588907
 50
113.5463735677543013
 51
179.5328632676329903
  0
LINE
  5
ABAD
  8
0
 10
700.4108966397551512
 20
123.6686492597859939
 30
0.0
 11
700.4108966395777998
 21
123.5566295959859957
 31
0.0
  0
ARC
  5
ABAE
  8
0
 10
700.3704453176053448
 20
123.556959405917695
 30
0.0
 40
0.0404526664622798
 50
293.5463735586591838
 51
359.5328632661119741
  0
ARC
  5
ABAF
  8
0
 10
700.3898740177618265
 20
123.5142142310358935
 30
0.0
 40
0.0065364332842835
 50
120.0000004265868938
 51
239.9999996535613889
  0
LINE
  5
ABB0
  8
0
 10
700.3866058010778488
 20
123.5198749482861018
 30
0.0
 11
698.2068410257355708
 21
123.5198749482861018
 31
0.0
  0
LINE
  5
ABB1
  8
0
 10
700.3866058010855795
 20
123.5085535137813935
 30
0.0
 11
698.2068410257278401
 21
123.5085535137813935
 31
0.0
  0
LINE
  5
ABB2
  8
0
 10
698.1825501870582684
 20
123.6686492597859939
 30
0.0
 11
698.1825501872357336
 21
123.5566295959859957
 31
0.0
  0
ARC
  5
ABB3
  8
0
 10
698.2230015092079611
 20
123.556959405917695
 30
0.0
 40
0.0404526664622798
 50
180.4671367338879122
 51
246.4536264413407025
  0
ARC
  5
ABB4
  8
0
 10
698.2035728090517068
 20
123.5142142310358935
 30
0.0
 40
0.0065364332842835
 50
300.0000003464385827
 51
59.9999995734131133
  0
ARC
  5
ABB5
  8
0
 10
700.3704453135850372
 20
123.4714690579087062
 30
0.0
 40
0.0404526664588907
 50
0.4671367323670239
 51
66.4536264322456987
  0
ARC
  5
ABB6
  8
0
 10
698.2230015048261293
 20
123.4714690579087062
 30
0.0
 40
0.0404526664588907
 50
113.5463735677543013
 51
179.5328632676329903
  0
LINE
  5
ABB7
  8
0
 10
700.4108966355540815
 20
123.4717988678393965
 30
0.0
 11
700.4108966353762753
 21
123.3597792040393983
 31
0.0
  0
ARC
  5
ABB8
  8
0
 10
700.3704453134040477
 20
123.3601090139711971
 30
0.0
 40
0.0404526664622798
 50
293.5463735586591838
 51
359.5328632661119741
  0
ARC
  5
ABB9
  8
0
 10
700.3898740135608705
 20
123.3173638390893956
 30
0.0
 40
0.0065364332842835
 50
120.0000004265868938
 51
239.9999996535613889
  0
LINE
  5
ABBA
  8
0
 10
700.3866057968770065
 20
123.3230245563395044
 30
0.0
 11
698.2068410215340464
 21
123.3230245563395044
 31
0.0
  0
LINE
  5
ABBB
  8
0
 10
700.3866057968841687
 20
123.3117031218347961
 30
0.0
 11
698.2068410215264294
 21
123.3117031218347961
 31
0.0
  0
LINE
  5
ABBC
  8
0
 10
698.1825501828568576
 20
123.4717988678393965
 30
0.0
 11
698.1825501830346639
 21
123.3597792040393983
 31
0.0
  0
ARC
  5
ABBD
  8
0
 10
698.2230015050070051
 20
123.3601090139711971
 30
0.0
 40
0.0404526664622798
 50
180.4671367338879122
 51
246.4536264413407025
  0
ARC
  5
ABBE
  8
0
 10
698.2035728048502961
 20
123.3173638390893956
 30
0.0
 40
0.0065364332842835
 50
300.0000003464385827
 51
59.9999995734131133
  0
ARC
  5
ABBF
  8
0
 10
700.3704453093836264
 20
123.2746186659621941
 30
0.0
 40
0.0404526664588907
 50
0.4671367323670239
 51
66.4536264322456987
  0
ARC
  5
ABC0
  8
0
 10
698.2230015006250596
 20
123.2746186659621941
 30
0.0
 40
0.0404526664588907
 50
113.5463735677543013
 51
179.5328632676329903
  0
LINE
  5
ABC1
  8
0
 10
700.4108966313527844
 20
123.2749484758927991
 30
0.0
 11
700.410896631175433
 21
123.162928812092801
 31
0.0
  0
ARC
  5
ABC2
  8
0
 10
700.3704453092030917
 20
123.1632586220245997
 30
0.0
 40
0.0404526664622798
 50
293.5463735586591838
 51
359.5328632661119741
  0
ARC
  5
ABC3
  8
0
 10
700.389874009359346
 20
123.1205134471427982
 30
0.0
 40
0.0065364332842835
 50
120.0000004265868938
 51
239.9999996535613889
  0
LINE
  5
ABC4
  8
0
 10
700.3866057926755957
 20
123.1261741643929071
 30
0.0
 11
698.206841017333204
 21
123.1261741643929071
 31
0.0
  0
LINE
  5
ABC5
  8
0
 10
700.3866057926833264
 20
123.1148527298882982
 30
0.0
 11
698.2068410173254733
 21
123.1148527298882982
 31
0.0
  0
LINE
  5
ABC6
  8
0
 10
698.1825501786560153
 20
123.2749484758927991
 30
0.0
 11
698.1825501788333668
 21
123.162928812092801
 31
0.0
  0
ARC
  5
ABC7
  8
0
 10
698.223001500805708
 20
123.1632586220245997
 30
0.0
 40
0.0404526664622798
 50
180.4671367338879122
 51
246.4536264413407025
  0
ARC
  5
ABC8
  8
0
 10
698.2035728006487716
 20
123.1205134471427982
 30
0.0
 40
0.0065364332842835
 50
300.0000003464385827
 51
59.9999995734131133
  0
ARC
  5
ABC9
  8
0
 10
700.3704453051826704
 20
123.0777682740155967
 30
0.0
 40
0.0404526664588907
 50
0.4671367323670239
 51
66.4536264322456987
  0
ARC
  5
ABCA
  8
0
 10
698.2230014964236489
 20
123.0777682740155967
 30
0.0
 40
0.0404526664588907
 50
113.5463735677543013
 51
179.5328632676329903
  0
LINE
  5
ABCB
  8
0
 10
700.41089662715126
 20
123.0780980839463012
 30
0.0
 11
700.4108966269740222
 21
122.9660784201463031
 31
0.0
  0
ARC
  5
ABCC
  8
0
 10
700.3704453050015672
 20
122.9664082300781018
 30
0.0
 40
0.0404526664622798
 50
293.5463735586591838
 51
359.5328632661119741
  0
ARC
  5
ABCD
  8
0
 10
700.38987400515839
 20
122.9236630551963003
 30
0.0
 40
0.0065364332842835
 50
120.0000004265868938
 51
239.9999996535613889
  0
LINE
  5
ABCE
  8
0
 10
700.3866057884746397
 20
122.929323772446395
 30
0.0
 11
698.2068410131317933
 21
122.929323772446395
 31
0.0
  0
LINE
  5
ABCF
  8
0
 10
700.3866057884819156
 20
122.9180023379417008
 30
0.0
 11
698.2068410131239489
 21
122.9180023379417008
 31
0.0
  0
LINE
  5
ABD0
  8
0
 10
698.1825501744546045
 20
123.0780980839463012
 30
0.0
 11
698.1825501746324107
 21
122.9660784201463031
 31
0.0
  0
ARC
  5
ABD1
  8
0
 10
698.223001496604752
 20
122.9664082300781018
 30
0.0
 40
0.0404526664622798
 50
180.4671367338879122
 51
246.4536264413407025
  0
ARC
  5
ABD2
  8
0
 10
698.2035727964479292
 20
122.9236630551963003
 30
0.0
 40
0.0065364332842835
 50
300.0000003464385827
 51
59.9999995734131133
  0
ARC
  5
ABD3
  8
0
 10
700.3704453009811459
 20
122.8809178820689993
 30
0.0
 40
0.0404526664588907
 50
0.4601772135518745
 51
66.4536264322456987
  0
ARC
  5
ABD4
  8
0
 10
698.2230014922228065
 20
122.8809178820689993
 30
0.0
 40
0.0404526664588925
 50
113.5463735677543013
 51
179.5266746731986132
  0
LINE
  5
ABD5
  8
0
 10
697.5841250092129258
 20
128.769471350918991
 30
0.0
 11
697.5841250092129258
 21
128.5732693402190137
 31
0.0
  0
LINE
  5
ABD6
  8
0
 10
708.0270383950127098
 20
141.4079150096189892
 30
0.0
 11
709.404991150912565
 21
141.4079150096189892
 31
0.0
  0
CIRCLE
  5
ABD7
  8
0
 10
705.5959360328126877
 20
129.3213008363190113
 30
0.0
 40
0.1377952755999985
  0
CIRCLE
  5
ABD8
  8
0
 10
692.9975108360124523
 20
129.3213008363190113
 30
0.0
 40
0.1377952756000003
  0
LINE
  5
ABD9
  8
0
 10
709.404991150912565
 20
141.4079150096189892
 30
0.0
 11
709.404991150912565
 21
116.9984661907190002
 31
0.0
  0
LINE
  5
ABDA
  8
0
 10
707.8301880013126492
 20
141.2110646159190139
 30
0.0
 11
707.8301880013126492
 21
116.9984661907190002
 31
0.0
  0
ARC
  5
ABDB
  8
0
 10
708.0270383950127098
 20
141.2110646159190139
 30
0.0
 40
0.1968503936999859
 50
90.0
 51
180.0000000000032117
  0
CIRCLE
  5
ABDC
  8
0
 10
708.784912410812808
 20
129.6362614663190129
 30
0.0
 40
0.0944881889999998
  0
LINE
  5
ABDD
  8
0
 10
709.404991150912565
 20
116.9984661907190002
 30
0.0
 11
689.188455717912575
 21
116.9984661907190002
 31
0.0
  0
CIRCLE
  5
ABDE
  8
0
 10
708.1451486313128498
 20
117.3921669781189934
 30
0.0
 40
0.1811023622000007
  0
CIRCLE
  5
ABDF
  8
0
 10
708.9325502061127509
 20
118.1795685529189939
 30
0.0
 40
0.1811023621999999
  0
CIRCLE
  5
ABE0
  8
0
 10
703.8242824895127114
 20
117.7858677655190007
 30
0.0
 40
0.1870078739999998
  0
LINE
  5
ABE1
  8
0
 10
699.5093218596128963
 20
116.9984661907190002
 30
0.0
 11
699.5093218596128963
 21
116.9886236710189991
 31
0.0
  0
ARC
  5
ABE2
  8
0
 10
699.5388494187703827
 20
116.9886236710189991
 30
0.0
 40
0.0295275591578541
 50
180.0000000000212026
 51
270.0035863605958752
  0
LINE
  5
ABE3
  8
0
 10
699.5388512670126602
 20
116.9590961119189956
 30
0.0
 11
699.8419990244186693
 21
116.9591150870893017
 31
0.0
  0
ARC
  5
ABE4
  8
0
 10
699.8419971760603175
 20
116.9886445024312991
 30
0.0
 40
0.029529415399919
 50
270.0035863605958752
 51
359.959580909732324
  0
LINE
  5
ABE5
  8
0
 10
699.8715265841126438
 20
116.9886236710189991
 30
0.0
 11
699.8715335274804374
 21
116.9984661882699015
 31
0.0
  0
LINE
  5
ABE6
  8
0
 10
701.9896368202129224
 20
116.9984661907190002
 30
0.0
 11
701.9896368202129224
 21
116.9886236710189991
 31
0.0
  0
ARC
  5
ABE7
  8
0
 10
702.0191643793126559
 20
116.9886236710189991
 30
0.0
 40
0.0295275591000053
 50
180.0000000000098055
 51
270.0
  0
LINE
  5
ABE8
  8
0
 10
702.0191643793126559
 20
116.9590961119189956
 30
0.0
 11
702.3223139856125954
 21
116.9590961119189956
 31
0.0
  0
ARC
  5
ABE9
  8
0
 10
702.3223139856125954
 20
116.9886236710189991
 30
0.0
 40
0.0295275590999946
 50
270.0
 51
0.000000000117248
  0
LINE
  5
ABEA
  8
0
 10
702.3518415447127836
 20
116.9886236710189991
 30
0.0
 11
702.3518415447127836
 21
116.9984661907190002
 31
0.0
  0
LINE
  5
ABEB
  8
0
 10
703.1510541430128569
 20
116.9984661907190002
 30
0.0
 11
703.1510541430128569
 21
116.9886236710189991
 31
0.0
  0
ARC
  5
ABEC
  8
0
 10
703.1805817021124767
 20
116.9886236710189991
 30
0.0
 40
0.0295275591000053
 50
180.0000000000098055
 51
270.0
  0
LINE
  5
ABED
  8
0
 10
703.1805817021124767
 20
116.9590961119189956
 30
0.0
 11
703.4837313084125299
 21
116.9590961119189956
 31
0.0
  0
ARC
  5
ABEE
  8
0
 10
703.4837313084125299
 20
116.9886236710189991
 30
0.0
 40
0.0295275590999946
 50
270.0
 51
0.000000000117248
  0
LINE
  5
ABEF
  8
0
 10
703.5132588675127181
 20
116.9886236710189991
 30
0.0
 11
703.5132588675127181
 21
116.9984661907190002
 31
0.0
  0
LINE
  5
ABF0
  8
0
 10
704.3124714659128358
 20
116.9984661907190002
 30
0.0
 11
704.3124714659128358
 21
116.9886236710189991
 31
0.0
  0
ARC
  5
ABF1
  8
0
 10
704.3419990250124556
 20
116.9886236710189991
 30
0.0
 40
0.0295275591000053
 50
180.0000000000098055
 51
270.0
  0
LINE
  5
ABF2
  8
0
 10
704.3419990250124556
 20
116.9590961119189956
 30
0.0
 11
704.6451486313128498
 21
116.9590961119189956
 31
0.0
  0
ARC
  5
ABF3
  8
0
 10
704.6451486313128498
 20
116.9886236710189991
 30
0.0
 40
0.0295275590999946
 50
270.0
 51
0.000000000117248
  0
LINE
  5
ABF4
  8
0
 10
704.674676190412697
 20
116.9886236710189991
 30
0.0
 11
704.674676190412697
 21
116.9984661907190002
 31
0.0
  0
ARC
  5
ABF5
  8
0
 10
700.7010491423128542
 20
117.1441354820189957
 30
0.0
 40
0.1968503936999966
 50
270.0
 51
312.2685844460281146
  0
ARC
  5
ABF6
  8
0
 10
700.7797888995127096
 20
117.1441354820189957
 30
0.0
 40
0.2440944881999896
 50
270.0
 51
323.3607860689043036
  0
LINE
  5
ABF7
  8
0
 10
700.0368809147129241
 20
116.9472850883190063
 30
0.0
 11
700.0368809147129241
 21
116.9984661907190002
 31
0.0
  0
LINE
  5
ABF8
  8
0
 10
700.0841250092129258
 20
116.9472850883190063
 30
0.0
 11
700.0841250092129258
 21
116.9984661907190002
 31
0.0
  0
LINE
  5
ABF9
  8
0
 10
698.2738587842776496
 20
118.5732693403190012
 30
0.0
 11
690.7632588675127181
 21
118.5732693403190012
 31
0.0
  0
LINE
  5
ABFA
  8
0
 10
690.5664084738125439
 20
141.4079150096189892
 30
0.0
 11
689.188455717912575
 21
141.4079150096189892
 31
0.0
  0
LINE
  5
ABFB
  8
0
 10
689.188455717912575
 20
141.4079150096189892
 30
0.0
 11
689.188455717912575
 21
116.9984661907190002
 31
0.0
  0
LINE
  5
ABFC
  8
0
 10
690.7632588675127181
 20
141.2110646159190139
 30
0.0
 11
690.7632588675127181
 21
116.9984661907190002
 31
0.0
  0
ARC
  5
ABFD
  8
0
 10
690.5664084738125439
 20
141.2110646159190139
 30
0.0
 40
0.1968503936999859
 50
359.9999999999968168
 51
90.0
  0
CIRCLE
  5
ABFE
  8
0
 10
689.8085344580124456
 20
129.6362614663190129
 30
0.0
 40
0.0944881889999998
  0
CIRCLE
  5
ABFF
  8
0
 10
690.4482982375127449
 20
117.3921669781189934
 30
0.0
 40
0.1811023622000007
  0
CIRCLE
  5
AC00
  8
0
 10
689.6608966627126165
 20
118.1795685529189939
 30
0.0
 40
0.1811023621999999
  0
CIRCLE
  5
AC01
  8
0
 10
694.7691643793126559
 20
117.7858677655190007
 30
0.0
 40
0.1870078739999998
  0
LINE
  5
AC02
  8
0
 10
699.0841250092129258
 20
116.9984661907190002
 30
0.0
 11
699.0841250092129258
 21
116.9886236710189991
 31
0.0
  0
ARC
  5
AC03
  8
0
 10
699.0545974500548709
 20
116.9886236710189991
 30
0.0
 40
0.0295275591578541
 50
269.9964136394041248
 51
359.9999999999772058
  0
LINE
  5
AC04
  8
0
 10
699.0545956018125935
 20
116.9590961119189956
 30
0.0
 11
698.7514478444066981
 21
116.9591150870893017
 31
0.0
  0
ARC
  5
AC05
  8
0
 10
698.7514496927650498
 20
116.9886445024312991
 30
0.0
 40
0.029529415399919
 50
180.0404190902677044
 51
269.9964136394041248
  0
LINE
  5
AC06
  8
0
 10
698.7219202847126098
 20
116.9886236710189991
 30
0.0
 11
698.7219133413449299
 21
116.9984661882699015
 31
0.0
  0
LINE
  5
AC07
  8
0
 10
696.603810048612786
 20
116.9984661907190002
 30
0.0
 11
696.603810048612786
 21
116.9886236710189991
 31
0.0
  0
ARC
  5
AC08
  8
0
 10
696.5742824895125977
 20
116.9886236710189991
 30
0.0
 40
0.0295275591000053
 50
270.0
 51
359.9999999999902229
  0
LINE
  5
AC09
  8
0
 10
696.5742824895125977
 20
116.9590961119189956
 30
0.0
 11
696.271132883212772
 21
116.9590961119189956
 31
0.0
  0
ARC
  5
AC0A
  8
0
 10
696.271132883212772
 20
116.9886236710189991
 30
0.0
 40
0.0295275590999946
 50
179.9999999998827036
 51
270.0
  0
LINE
  5
AC0B
  8
0
 10
696.2416053241125837
 20
116.9886236710189991
 30
0.0
 11
696.2416053241125837
 21
116.9984661907190002
 31
0.0
  0
LINE
  5
AC0C
  8
0
 10
695.4423927258129652
 20
116.9984661907190002
 30
0.0
 11
695.4423927258129652
 21
116.9886236710189991
 31
0.0
  0
ARC
  5
AC0D
  8
0
 10
695.412865166712777
 20
116.9886236710189991
 30
0.0
 40
0.0295275591000053
 50
270.0
 51
359.9999999999902229
  0
LINE
  5
AC0E
  8
0
 10
695.412865166712777
 20
116.9590961119189956
 30
0.0
 11
695.1097155604128375
 21
116.9590961119189956
 31
0.0
  0
ARC
  5
AC0F
  8
0
 10
695.1097155604128375
 20
116.9886236710189991
 30
0.0
 40
0.0295275590999946
 50
179.9999999998827036
 51
270.0
  0
LINE
  5
AC10
  8
0
 10
695.0801880013126492
 20
116.9886236710189991
 30
0.0
 11
695.0801880013126492
 21
116.9984661907190002
 31
0.0
  0
LINE
  5
AC11
  8
0
 10
694.2809754029125315
 20
116.9984661907190002
 30
0.0
 11
694.2809754029125315
 21
116.9886236710189991
 31
0.0
  0
ARC
  5
AC12
  8
0
 10
694.2514478438127981
 20
116.9886236710189991
 30
0.0
 40
0.0295275591000053
 50
270.0
 51
359.9999999999902229
  0
LINE
  5
AC13
  8
0
 10
694.2514478438127981
 20
116.9590961119189956
 30
0.0
 11
693.9482982375127449
 21
116.9590961119189956
 31
0.0
  0
ARC
  5
AC14
  8
0
 10
693.9482982375127449
 20
116.9886236710189991
 30
0.0
 40
0.0295275590999946
 50
179.9999999998827036
 51
270.0
  0
LINE
  5
AC15
  8
0
 10
693.9187706784125567
 20
116.9886236710189991
 30
0.0
 11
693.9187706784125567
 21
116.9984661907190002
 31
0.0
  0
ARC
  5
AC16
  8
0
 10
697.8923977265125131
 20
117.1441354820189957
 30
0.0
 40
0.1968503936999966
 50
227.7314155539718001
 51
269.9999999961959816
  0
ARC
  5
AC17
  8
0
 10
697.8136579693125441
 20
117.1441354820189957
 30
0.0
 40
0.2440944881999896
 50
216.639213931091092
 51
270.0
  0
LINE
  5
AC18
  8
0
 10
697.8136579693125441
 20
116.9000409938190046
 30
0.0
 11
700.7797888995127096
 21
116.9000409938190046
 31
0.0
  0
LINE
  5
AC19
  8
0
 10
697.8923977264996665
 20
116.9472850883190063
 30
0.0
 11
700.7010491423128542
 21
116.9472850883190063
 31
0.0
  0
LINE
  5
AC1A
  8
0
 10
698.556565954112898
 20
116.9472850883190063
 30
0.0
 11
698.556565954112898
 21
116.9984661907190002
 31
0.0
  0
LINE
  5
AC1B
  8
0
 10
698.5093218596127826
 20
116.9472850883190063
 30
0.0
 11
698.5093218596127826
 21
116.9984661907190002
 31
0.0
  0
ARC
  5
AC1C
  8
0
 10
699.2967234344126837
 20
119.1638205214189981
 30
0.0
 40
1.181102362199995
 50
209.9999999999976978
 51
330.0000000000022737
  0
ARC
  5
AC1D
  8
0
 10
695.2437725865128186
 20
147.9837833844190982
 30
0.0
 40
0.2352642834998917
 50
91.7444637847978441
 51
120.293244437208898
  0
ARC
  5
AC1E
  8
0
 10
689.673209667822789
 20
240.8596180396309023
 30
0.0
 40
92.8329220170591327
 50
272.1878311464644185
 51
273.3668023476316762
  0
ARC
  5
AC1F
  8
0
 10
693.2964191186790686
 20
148.3800142262801103
 30
0.0
 40
0.2964395377687769
 50
230.1573430766626132
 51
254.4921864099677009
  0
ARC
  5
AC20
  8
0
 10
692.9383446703867548
 20
147.9731874139762908
 30
0.0
 40
0.2457520732898619
 50
46.824862697767017
 51
90.1511946809747258
  0
ARC
  5
AC21
  8
0
 10
694.6707391823418902
 20
148.1874425684482901
 30
0.0
 40
0.0196850392292909
 50
179.9999995031323863
 51
270.0000002058353061
  0
LINE
  5
AC22
  8
0
 10
694.6510541431129013
 20
148.1874425686189909
 30
0.0
 11
694.6510541441368787
 21
148.3055528048190013
 31
0.0
  0
ARC
  5
AC23
  8
0
 10
694.6116840657786042
 20
148.3055528051604028
 30
0.0
 40
0.0393700783585835
 50
359.9999995031324147
 51
90.0000021330010753
  0
LINE
  5
AC24
  8
0
 10
694.5723139856124817
 20
148.3449228836190059
 30
0.0
 11
694.5723139856124817
 21
148.9551591041189909
 31
0.0
  0
LINE
  5
AC25
  8
0
 10
694.6038091674124644
 20
148.9551591041189909
 30
0.0
 11
694.6038091674124644
 21
148.9945291828190079
 31
0.0
  0
LINE
  5
AC26
  8
0
 10
694.6116840657786042
 20
148.3449228835189899
 30
0.0
 11
693.666802173146948
 21
148.3449228835189899
 31
0.0
  0
LINE
  5
AC27
  8
0
 10
694.7889115105552946
 20
148.1677575292189886
 30
0.0
 11
694.2081407593126414
 21
148.1677575292189886
 31
0.0
  0
LINE
  5
AC28
  8
0
 10
694.0723738839423049
 20
148.1677575292189886
 30
0.0
 11
693.3820083692534126
 21
148.1677575292189886
 31
0.0
  0
LINE
  5
AC29
  8
0
 10
693.0884915952291294
 20
148.1677575292189886
 30
0.0
 11
693.0884664602129988
 21
148.1677575292189886
 31
0.0
  0
LINE
  5
AC2A
  8
0
 10
694.6038091674124644
 20
148.9945291828190079
 30
0.0
 11
693.6746770715124057
 21
148.9945291828190079
 31
0.0
  0
LINE
  5
AC2B
  8
0
 10
694.6038091674124644
 20
148.9551591041189909
 30
0.0
 11
693.6746770715124057
 21
148.9551591041189909
 31
0.0
  0
ARC
  5
AC2C
  8
0
 10
693.607747056583662
 20
148.1874425684482901
 30
0.0
 40
0.0196850392292909
 50
269.9999997941646939
 51
0.0000004968675754
  0
LINE
  5
AC2D
  8
0
 10
693.6274320958126509
 20
148.1874425686189909
 30
0.0
 11
693.6274320947885599
 21
148.3055528048190013
 31
0.0
  0
ARC
  5
AC2E
  8
0
 10
693.666802173146948
 20
148.3055528051604028
 30
0.0
 40
0.0393700783585835
 50
89.9999978669989105
 51
180.0000004968659084
  0
LINE
  5
AC2F
  8
0
 10
693.7061722533129569
 20
148.3449228836190059
 30
0.0
 11
693.7061722533129569
 21
148.9551591041189909
 31
0.0
  0
LINE
  5
AC30
  8
0
 10
693.6746770715124057
 20
148.9551591041189909
 30
0.0
 11
693.6746770715124057
 21
148.9945291828190079
 31
0.0
  0
LINE
  5
AC31
  8
0
 10
693.3626382390127674
 20
148.1000388736844968
 30
0.0
 11
693.3626382386399882
 21
148.1480724899190022
 31
0.0
  0
ARC
  5
AC32
  8
0
 10
693.3823258375886098
 20
148.148072490071911
 30
0.0
 40
0.0196875989488028
 50
90.9239513759408737
 51
180.0000004448208131
  0
ARC
  5
AC33
  8
0
 10
694.2081417783055031
 20
148.1874435896118882
 30
0.0
 40
0.0196860604192702
 50
180.0029715739308074
 51
269.9970342473071128
  0
LINE
  5
AC34
  8
0
 10
694.188455717912575
 20
148.1874425686189909
 30
0.0
 11
694.187923553820724
 21
148.3055516059386889
 31
0.0
  0
ARC
  5
AC35
  8
0
 10
694.148367939042032
 20
148.305373380137496
 30
0.0
 40
0.0395560162931479
 50
0.2581559449677421
 51
88.9602596206542842
  0
ARC
  5
AC36
  8
0
 10
694.0701289980381716
 20
148.1875322389452094
 30
0.0
 40
0.01990172498745
 50
276.4766655407059943
 51
359.7418440550616197
  0
LINE
  5
AC37
  8
0
 10
694.0900305210127499
 20
148.1874425686189909
 30
0.0
 11
694.0905626851042598
 21
148.3055516059386889
 31
0.0
  0
ARC
  5
AC38
  8
0
 10
694.1301182998834065
 20
148.305373380137496
 30
0.0
 40
0.0395560162931479
 50
91.0397403793457016
 51
179.7418440550322885
  0
CIRCLE
  5
AC39
  8
0
 10
703.8242824895127114
 20
117.7858677655190007
 30
0.0
 40
0.2854330708998388
  0
CIRCLE
  5
AC3A
  8
0
 10
702.8400305210125225
 20
117.7858677655190007
 30
0.0
 40
0.2007874016000002
  0
CIRCLE
  5
AC3B
  8
0
 10
702.8400305210125225
 20
117.7858677655190007
 30
0.0
 40
0.2657480315000002
  0
CIRCLE
  5
AC3C
  8
0
 10
695.7534163478125038
 20
117.7858677655190007
 30
0.0
 40
0.2657480314999998
  0
CIRCLE
  5
AC3D
  8
0
 10
695.7534163478125038
 20
117.7858677655190007
 30
0.0
 40
0.2007874015999995
  0
CIRCLE
  5
AC3E
  8
0
 10
694.7691643793125422
 20
117.7858677655190007
 30
0.0
 40
0.2854330709000004
  0
LINE
  5
AC3F
  8
0
 10
700.644699287208482
 20
127.3527968993190029
 30
0.0
 11
700.3586792969700809
 21
127.1567477230927068
 31
0.0
  0
LINE
  5
AC40
  8
0
 10
697.9487475816165443
 20
127.3527968993190029
 30
0.0
 11
698.2347675718549453
 21
127.1567477230927068
 31
0.0
  0
LINE
  5
AC41
  8
0
 10
698.1825502061127509
 20
126.9787811513189979
 30
0.0
 11
700.4108966627126165
 21
126.9787811513189979
 31
0.0
  0
LINE
  5
AC42
  8
0
 10
700.2731013872125914
 20
126.9787811513189979
 30
0.0
 11
700.2731013872125914
 21
126.9943377411825054
 31
0.0
  0
LINE
  5
AC43
  8
0
 10
698.3203454816125486
 20
126.9787811513189979
 30
0.0
 11
698.3203454816125486
 21
126.9943377411825054
 31
0.0
  0
ARC
  5
AC44
  8
0
 10
698.1234454816124071
 20
126.9943377411825054
 30
0.0
 40
0.1969
 50
0.0
 51
55.5717511980896575
  0
ARC
  5
AC45
  8
0
 10
700.4700013872125055
 20
126.9943377411825054
 30
0.0
 40
0.1969
 50
124.428248801910101
 51
179.9999999999984084
  0
CIRCLE
  5
AC46
  8
0
 10
695.7016955407125351
 20
147.6013641631190012
 30
0.0
 40
0.0649606299000001
  0
CIRCLE
  5
AC47
  8
0
 10
695.7016955407125351
 20
147.6013641631190012
 30
0.0
 40
0.0824882157022549
  0
CIRCLE
  5
AC48
  8
0
 10
695.5762509935125308
 20
143.5929504426190135
 30
0.0
 40
0.0669291338999997
  0
CIRCLE
  5
AC49
  8
0
 10
695.5762509935125308
 20
143.5929504426190135
 30
0.0
 40
0.1417322834999998
  0
CIRCLE
  5
AC4A
  8
0
 10
695.5762509935125308
 20
143.5929504426190135
 30
0.0
 40
0.0826771654000006
  0
CIRCLE
  5
AC4B
  8
0
 10
703.0171958753124954
 20
143.5929504426190135
 30
0.0
 40
0.1417322835000009
  0
CIRCLE
  5
AC4C
  8
0
 10
703.0171958753124954
 20
143.5929504426190135
 30
0.0
 40
0.066929133900001
  0
CIRCLE
  5
AC4D
  8
0
 10
703.0171958753124954
 20
143.5929504426190135
 30
0.0
 40
0.0826771654000007
  0
CIRCLE
  5
AC4E
  8
0
 10
695.7016955407125351
 20
140.4113083757189884
 30
0.0
 40
0.0826771653999998
  0
CIRCLE
  5
AC4F
  8
0
 10
695.7016955407125351
 20
140.4113083757189884
 30
0.0
 40
0.0649606298999999
  0
CIRCLE
  5
AC50
  8
0
 10
702.8917513281124911
 20
140.4113083757189884
 30
0.0
 40
0.0649606298999995
  0
CIRCLE
  5
AC51
  8
0
 10
702.8917513281124911
 20
140.4113083757189884
 30
0.0
 40
0.0826771653999995
  0
CIRCLE
  5
AC52
  8
0
 10
708.9423927257125797
 20
145.7779937497190019
 30
0.0
 40
0.1377952755999985
  0
CIRCLE
  5
AC53
  8
0
 10
689.6510541431124466
 20
145.7779937497190019
 30
0.0
 40
0.1377952755999998
  0
CIRCLE
  5
AC54
  8
0
 10
702.8917513281124911
 20
147.6013641631190012
 30
0.0
 40
0.0826771653999998
  0
CIRCLE
  5
AC55
  8
0
 10
702.8917513281124911
 20
147.6013641631190012
 30
0.0
 40
0.0649606298999999
  0
ENDSEC
  0
EOF
