  0
SECTION
  2
HEADER
  9
$ACADVER
  1
AC1009
  9
$INSBASE
 10
4352.3628819683563052
 20
270.7181940937546187
 30
0.0
  9
$EXTMIN
 10
4344.7260733610346506
 20
251.4492789636848045
 30
-0.0000000000000058
  9
$EXTMAX
 10
4359.7648105383213988
 20
270.7237615167035187
 30
0.0000000000000104
  9
$LIMMIN
 10
0.0
 20
0.0
  9
$LIMMAX
 10
11.6929133858000007
 20
8.2677165353999982
  9
$ORTHOMODE
 70
     0
  9
$REGENMODE
 70
     1
  9
$FILLMODE
 70
     1
  9
$QTEXTMODE
 70
     0
  9
$MIRRTEXT
 70
     0
  9
$DRAGMODE
 70
     2
  9
$LTSCALE
 40
0.6431102362
  9
$OSMODE
 70
   563
  9
$ATTMODE
 70
     1
  9
$TEXTSIZE
 40
0.2
  9
$TRACEWID
 40
0.05
  9
$TEXTSTYLE
  7
STANDARD
  9
$CLAYER
  8
0
  9
$CELTYPE
  6
BYLAYER
  9
$CECOLOR
 62
   256
  9
$DIMSCALE
 40
1.0
  9
$DIMASZ
 40
0.1875
  9
$DIMEXO
 40
0.0625
  9
$DIMDLI
 40
0.4443307087
  9
$DIMRND
 40
0.0
  9
$DIMDLE
 40
0.0
  9
$DIMEXE
 40
0.125
  9
$DIMTP
 40
0.01
  9
$DIMTM
 40
0.01
  9
$DIMTXT
 40
2.0
  9
$DIMCEN
 40
0.1052362205
  9
$DIMTSZ
 40
0.0
  9
$DIMTOL
 70
     1
  9
$DIMLIM
 70
     0
  9
$DIMTIH
 70
     1
  9
$DIMTOH
 70
     1
  9
$DIMSE1
 70
     0
  9
$DIMSE2
 70
     0
  9
$DIMTAD
 70
     0
  9
$DIMZIN
 70
     0
  9
$DIMBLK
  1

  9
$DIMASO
 70
     1
  9
$DIMSHO
 70
     1
  9
$DIMPOST
  1
\X
  9
$DIMAPOST
  1

  9
$DIMALT
 70
     1
  9
$DIMALTD
 70
     2
  9
$DIMALTF
 40
25.3999999999999986
  9
$DIMLFAC
 40
1.0
  9
$DIMTOFL
 70
     0
  9
$DIMTVP
 40
0.0
  9
$DIMTIX
 70
     0
  9
$DIMSOXD
 70
     0
  9
$DIMSAH
 70
     0
  9
$DIMBLK1
  1

  9
$DIMBLK2
  1

  9
$DIMSTYLE
  2
STANDARD
  9
$DIMCLRD
 70
     0
  9
$DIMCLRE
 70
     0
  9
$DIMCLRT
 70
     0
  9
$DIMTFAC
 40
1.0
  9
$DIMGAP
 40
0.09
  9
$LUNITS
 70
     2
  9
$LUPREC
 70
     4
  9
$SKETCHINC
 40
0.1
  9
$FILLETRAD
 40
0.0
  9
$AUNITS
 70
     0
  9
$AUPREC
 70
     0
  9
$MENU
  1
.
  9
$ELEVATION
 40
0.0
  9
$PELEVATION
 40
0.0
  9
$THICKNESS
 40
0.0
  9
$LIMCHECK
 70
     0
  9
$BLIPMODE
 70
     0
  9
$CHAMFERA
 40
0.0
  9
$CHAMFERB
 40
0.0
  9
$SKPOLY
 70
     0
  9
$TDCREATE
 40
2458060.468368056230247
  9
$TDUPDATE
 40
2459221.5391666670329869
  9
$TDINDWG
 40
0.4574954861
  9
$TDUSRTIMER
 40
0.4574954861
  9
$USRTIMER
 70
     1
  9
$ANGBASE
 50
0.0
  9
$ANGDIR
 70
     0
  9
$PDMODE
 70
     0
  9
$PDSIZE
 40
0.3125
  9
$PLINEWID
 40
0.0
  9
$COORDS
 70
     1
  9
$SPLFRAME
 70
     0
  9
$SPLINETYPE
 70
     6
  9
$SPLINESEGS
 70
     8
  9
$ATTDIA
 70
     1
  9
$ATTREQ
 70
     1
  9
$HANDLING
 70
     1
  9
$HANDSEED
  5
1AC60
  9
$SURFTAB1
 70
     6
  9
$SURFTAB2
 70
     6
  9
$SURFTYPE
 70
     6
  9
$SURFU
 70
     6
  9
$SURFV
 70
     6
  9
$UCSNAME
  2

  9
$UCSORG
 10
0.0
 20
0.0
 30
0.0
  9
$UCSXDIR
 10
1.0
 20
0.0
 30
0.0
  9
$UCSYDIR
 10
0.0
 20
1.0
 30
0.0
  9
$PUCSNAME
  2

  9
$PUCSORG
 10
0.0
 20
0.0
 30
0.0
  9
$PUCSXDIR
 10
1.0
 20
0.0
 30
0.0
  9
$PUCSYDIR
 10
0.0
 20
1.0
 30
0.0
  9
$USERI1
 70
     0
  9
$USERI2
 70
     0
  9
$USERI3
 70
     0
  9
$USERI4
 70
     0
  9
$USERI5
 70
     0
  9
$USERR1
 40
0.0
  9
$USERR2
 40
0.0
  9
$USERR3
 40
0.0
  9
$USERR4
 40
0.0
  9
$USERR5
 40
0.0
  9
$WORLDVIEW
 70
     1
  9
$SHADEDGE
 70
     3
  9
$SHADEDIF
 70
    70
  9
$TILEMODE
 70
     1
  9
$MAXACTVP
 70
    64
  9
$PLIMCHECK
 70
     0
  9
$PEXTMIN
 10
1.0000000000000000E+20
 20
1.0000000000000000E+20
 30
1.0000000000000000E+20
  9
$PEXTMAX
 10
-1.0000000000000000E+20
 20
-1.0000000000000000E+20
 30
-1.0000000000000000E+20
  9
$PLIMMIN
 10
0.0
 20
0.0
  9
$PLIMMAX
 10
12.0
 20
9.0
  9
$UNITMODE
 70
     0
  9
$VISRETAIN
 70
     1
  9
$PLINEGEN
 70
     0
  9
$PSLTSCALE
 70
     1
  0
ENDSEC
  0
SECTION
  2
TABLES
  0
TABLE
  2
VPORT
 70
     1
  0
VPORT
  2
*ACTIVE
 70
     0
 10
0.0
 20
0.0
 11
1.0
 21
1.0
 12
440.8800855097539966
 22
128.5069150097450006
 13
0.0
 23
0.0
 14
1.0
 24
1.0
 15
0.0
 25
0.0
 16
0.0
 26
0.0
 36
60.4960186965801583
 17
3911.3653564453120453
 27
132.5796051025390057
 37
0.0
 40
26.3874710575668701
 41
1.9002217294900221
 42
50.0
 43
0.0
 44
0.0
 50
0.0
 51
0.0
 71
     0
 72
   100
 73
     1
 74
     1
 75
     0
 76
     0
 77
     0
 78
     0
  0
ENDTAB
  0
TABLE
  2
LTYPE
 70
     2
  0
LTYPE
  2
CONTINUOUS
 70
     0
  3
Solid line
 72
    65
 73
     0
 40
0.0
  0
LTYPE
  2
PHANTOM2
 70
     0
  3
___ _ _ ___ _ _ ___ _ _ ___ _ _
 72
    65
 73
     6
 40
1.25
 49
0.625
 49
-0.125
 49
0.125
 49
-0.125
 49
0.125
 49
-0.125
  0
ENDTAB
  0
TABLE
  2
LAYER
 70
     2
  0
LAYER
  2
0
 70
     0
 62
   255
  6
CONTINUOUS
  0
LAYER
  2
DEFPOINTS
 70
     0
 62
     7
  6
CONTINUOUS
  0
ENDTAB
  0
TABLE
  2
STYLE
 70
     1
  0
STYLE
  2
STANDARD
 70
     0
 40
0.0
 41
0.8
 50
0.0
 71
     0
 42
0.2
  3
txt
  4

  0
ENDTAB
  0
TABLE
  2
VIEW
 70
     0
  0
ENDTAB
  0
TABLE
  2
UCS
 70
     0
  0
ENDTAB
  0
TABLE
  2
APPID
 70
    11
  0
APPID
  2
ACAD
 70
     0
  0
APPID
  2
ACAD_MLEADERVER
 70
     0
  0
APPID
  2
ACAD_EXEMPT_FROM_CAD_STANDARDS
 70
     0
  0
APPID
  2
ACAD_NAV_VCDISPLAY
 70
     0
  0
APPID
  2
ACAECLAYERSTANDARD
 70
     0
  0
APPID
  2
ACCMTRANSPARENCY
 70
     0
  0
APPID
  2
ACAD_DSTYLE_DIMJAG
 70
     0
  0
APPID
  2
ACAD_DSTYLE_DIMTALN
 70
     0
  0
APPID
  2
ACDBATTR
 70
     0
  0
APPID
  2
ACADANNOTATIVE
 70
     0
  0
APPID
  2
DCO15
 70
     0
  0
ENDTAB
  0
TABLE
  2
DIMSTYLE
 70
     1
  0
DIMSTYLE
  2
STANDARD
 70
     0
  3

  4

  5

  6

  7

 40
1.0
 41
0.1875
 42
0.0625
 43
0.38
 44
0.125
 45
0.0
 46
0.0
 47
0.01
 48
0.01
140
0.15625
141
0.09
142
0.0
143
25.3999999999999986
144
1.0
145
0.0
146
1.0
147
0.09
 71
     1
 72
     0
 73
     1
 74
     1
 75
     0
 76
     0
 77
     0
 78
     4
170
     0
171
     2
172
     0
173
     0
174
     0
175
     0
176
     0
177
     0
178
     0
  0
ENDTAB
  0
ENDSEC
  0
SECTION
  2
BLOCKS
  0
BLOCK
  8
0
  2
$MODEL_SPACE
 70
     0
 10
0.0
 20
0.0
 30
0.0
  3
$MODEL_SPACE
  1

  0
ENDBLK
  5
21
  8
0
  0
BLOCK
 67
     1
  8
0
  2
$PAPER_SPACE
 70
     0
 10
0.0
 20
0.0
 30
0.0
  3
$PAPER_SPACE
  1

  0
ENDBLK
  5
1D
 67
     1
  8
0
  0
BLOCK
  8
0
  2
_CLOSED
 70
     0
 10
0.0
 20
0.0
 30
0.0
  3
_CLOSED
  1

  0
LINE
  5
1A8F0
  8
0
  6
BYBLOCK
 62
     0
 10
0.0
 20
0.0
 30
0.0
 11
-1.0
 21
0.1666666667
 31
0.0
  0
LINE
  5
1A8F1
  8
0
  6
BYBLOCK
 62
     0
 10
-1.0
 20
0.1666666667
 30
0.0
 11
-1.0
 21
-0.1666666667
 31
0.0
  0
LINE
  5
1A8F2
  8
0
  6
BYBLOCK
 62
     0
 10
-1.0
 20
-0.1666666667
 30
0.0
 11
0.0
 21
0.0
 31
0.0
  0
LINE
  5
1A8F3
  8
0
  6
BYBLOCK
 62
     0
 10
-1.0
 20
0.0
 30
0.0
 11
0.0
 21
0.0
 31
0.0
  0
ENDBLK
  5
1A8F4
  8
0
  6
BYBLOCK
 62
     0
  0
ENDSEC
  0
SECTION
  2
ENTITIES
  0
LINE
  5
1AB17
  8
0
 10
4345.0130743600557253
 20
270.1270574861546265
 30
0.0
 11
4345.013225613501163
 21
270.0929904761572971
 31
0.0
  0
LINE
  5
1AB18
  8
0
 10
4347.5584228740563049
 20
270.6611791063546093
 30
0.0
 11
4347.5565139911568622
 21
270.5965822592546033
 31
0.0
  0
LINE
  5
1AB19
  8
0
 10
4348.0843587671570276
 20
270.4724701103546067
 30
0.0
 11
4348.0899700390564249
 21
270.6612701177546114
 31
0.0
  0
LINE
  5
1AB1A
  8
0
 10
4348.6042978197574485
 20
270.6612701177546114
 30
0.0
 11
4348.6099090796569726
 21
270.4724701232545954
 31
0.0
  0
LINE
  5
1AB1B
  8
0
 10
4348.6227244805568262
 20
270.6426325884546031
 30
0.0
 11
4348.6227244805568262
 21
270.4576520374783968
 31
0.0
  0
LINE
  5
1AB1C
  8
0
 10
4345.4730438013202729
 20
270.3957816874506079
 30
0.0
 11
4352.3628819683563052
 21
270.3957816892545907
 31
0.0
  0
LINE
  5
1AB1D
  8
0
 10
4345.4856083456570559
 20
270.4394454406545947
 30
0.0
 11
4347.9664356441553537
 21
270.4394453951546211
 31
0.0
  0
LINE
  5
1AB1E
  8
0
 10
4352.3628819683563052
 20
270.4394455834046198
 30
0.0
 11
4348.7280035577568924
 21
270.4394455149546275
 31
0.0
  0
LINE
  5
1AB1F
  8
0
 10
4347.9927813121557847
 20
270.6820026672546078
 30
0.0
 11
4347.6112513418556773
 21
270.6820026672546078
 31
0.0
  0
LINE
  5
1AB20
  8
0
 10
4348.1437720644562432
 20
270.6820026672546078
 30
0.0
 11
4348.5504957512566762
 21
270.6820026672546078
 31
0.0
  0
LINE
  5
1AB21
  8
0
 10
4348.662094559356774
 20
270.6820026665545811
 30
0.0
 11
4352.3628819683563052
 21
270.6820026665545811
 31
0.0
  0
LINE
  5
1AB22
  8
0
 10
4349.6699724619556946
 20
270.7181940937546187
 30
0.0
 11
4352.3628819683563052
 21
270.7181940937546187
 31
0.0
  0
ARC
  5
1AB23
  8
0
 10
4348.662094559356774
 20
270.6426325884546031
 30
0.0
 40
0.0393700787
 50
90.0
 51
180.0
  0
LINE
  5
1AB24
  8
0
 10
4348.0692438870555634
 20
270.467608820954581
 30
0.0
 11
4348.0691658240602919
 21
270.4563992278360161
 31
0.0
  0
ARC
  5
1AB25
  8
0
 10
4349.6704603220896388
 20
269.4038279144976968
 30
0.0
 40
1.314366269797703
 50
90.021266771639759
 51
94.3002763980623087
  0
ARC
  5
1AB26
  8
0
 10
4349.6741959033633975
 20
269.3505169697087922
 30
0.0
 40
1.367807266329796
 50
94.2888667962941156
 51
98.9308045815423753
  0
ARC
  5
1AB27
  8
0
 10
4349.6728183592331334
 20
269.3576905321356776
 30
0.0
 40
1.36050684266781
 50
98.9203937438188916
 51
103.2457746187046013
  0
ARC
  5
1AB28
  8
0
 10
4348.7250853724626722
 20
270.783750197579991
 30
0.0
 40
0.3443170490741894
 50
257.5655378062749037
 51
270.4856039029118051
  0
ARC
  5
1AB29
  8
0
 10
4348.677710767858116
 20
270.5663204458539894
 30
0.0
 40
0.1217879910751523
 50
243.1605591427870081
 51
257.304795075630409
  0
ARC
  5
1AB2A
  8
0
 10
4348.6365380832012306
 20
270.485381307761827
 30
0.0
 40
0.0309794778599756
 50
218.0090943374326002
 51
243.5193678816806937
  0
ARC
  5
1AB2B
  8
0
 10
4348.6212715843976184
 20
270.4730787127091958
 30
0.0
 40
0.0113787914606473
 50
183.0659014538607039
 51
216.5362526176299127
  0
ARC
  5
1AB2C
  8
0
 10
4348.5614278756711428
 20
270.6200749422342255
 30
0.0
 40
0.0594548113457801
 50
43.8586886100887412
 51
66.1622332251242682
  0
ARC
  5
1AB2D
  8
0
 10
4348.5524862434131137
 20
270.6014839495526871
 30
0.0
 40
0.0800763806063369
 50
65.686171606193966
 51
84.3597188416223815
  0
ARC
  5
1AB2E
  8
0
 10
4348.5434747297385911
 20
270.5396069225827205
 30
0.0
 40
0.1425687302455605
 50
83.1996269206723156
 51
87.1772373994081988
  0
ARC
  5
1AB2F
  8
0
 10
4348.1432826924437904
 20
270.5958217721238839
 30
0.0
 40
0.0861822845513876
 50
89.6746535356071917
 51
109.6748015583276015
  0
ARC
  5
1AB30
  8
0
 10
4348.1369375258473156
 20
270.615245246791801
 30
0.0
 40
0.0657589048158221
 50
110.1669100786660067
 51
135.5807580355103994
  0
ARC
  5
1AB31
  8
0
 10
4347.9667600418188158
 20
270.83584581618328
 30
0.0
 40
0.3964005537655173
 50
269.9531115210972985
 51
276.0437029921894236
  0
ARC
  5
1AB32
  8
0
 10
4347.9819148727137872
 20
270.7053109271097924
 30
0.0
 40
0.2649989092909201
 50
275.756795869544419
 51
283.9351364140750889
  0
ARC
  5
1AB33
  8
0
 10
4348.0186699547566604
 20
270.5618975598953853
 30
0.0
 40
0.1169603816846877
 50
283.3786000165952146
 51
295.5777066351461144
  0
ARC
  5
1AB34
  8
0
 10
4348.0466172608203124
 20
270.5023591847865987
 30
0.0
 40
0.0511933134994824
 50
296.1331802421289012
 51
305.8805423935323233
  0
ARC
  5
1AB35
  8
0
 10
4348.0612498264781607
 20
270.4820325405809172
 30
0.0
 40
0.0261477955033558
 50
306.0065147706221182
 51
323.0398588515508891
  0
ARC
  5
1AB36
  8
0
 10
4348.0723604049726418
 20
270.4734211777279143
 30
0.0
 40
0.0120938454697887
 50
323.9902892616639747
 51
345.4817758514931825
  0
ARC
  5
1AB37
  8
0
 10
4348.0746404987439746
 20
270.4727671927034862
 30
0.0
 40
0.0097228081779477
 50
345.8442518095678793
 51
358.2490434684153797
  0
ARC
  5
1AB38
  8
0
 10
4347.6104473419618444
 20
270.6066188376445893
 30
0.0
 40
0.0753881169846817
 50
89.3889398509453486
 51
133.6371099209530939
  0
ARC
  5
1AB39
  8
0
 10
4347.9927536834384227
 20
270.6032020419676769
 30
0.0
 40
0.078800630130415
 50
9.2565984105137389
 51
89.9799112139750719
  0
ARC
  5
1AB3A
  8
0
 10
4347.8951918828188354
 20
270.5934856310623218
 30
0.0
 40
0.176760320610739
 50
359.7468475475552054
 51
7.2777794009292407
  0
ARC
  5
1AB3B
  8
0
 10
4334.6058626830072171
 20
270.4262838495175174
 30
0.0
 40
13.4671161124588892
 50
0.1368589786259846
 51
0.7080544839517477
  0
ARC
  5
1AB3C
  8
0
 10
4347.5490611281029487
 20
270.5971738994253997
 30
0.0
 40
0.0074763096369805
 50
321.9184496520746279
 51
355.4611342392277038
  0
ARC
  5
1AB3D
  8
0
 10
4347.5431065668890369
 20
270.6018617713692151
 30
0.0
 40
0.0150547523367909
 50
304.7898469385161206
 51
321.8525592364359795
  0
ARC
  5
1AB3E
  8
0
 10
4347.5301146593310477
 20
270.6207129865056231
 30
0.0
 40
0.0379491844120998
 50
291.3218833315543179
 51
304.6595619460787248
  0
ARC
  5
1AB3F
  8
0
 10
4347.5074573256497388
 20
270.6797136196072984
 30
0.0
 40
0.1011503269474055
 50
279.3938850380436065
 51
291.125581306434924
  0
ARC
  5
1AB40
  8
0
 10
4347.4882519153452449
 20
270.7834464602269122
 30
0.0
 40
0.2066366268103019
 50
272.0219774922292117
 51
279.953028846990378
  0
ARC
  5
1AB41
  8
0
 10
4347.4684944085765892
 20
272.0804197416450165
 30
0.0
 40
1.5037245340286249
 50
269.5826121625505039
 51
271.0306629895562764
  0
LINE
  5
1AB42
  8
0
 10
4347.4575401849779155
 20
270.5767351074131852
 30
0.0
 11
4345.4853477191563798
 21
270.58366147415461
 31
0.0
  0
ARC
  5
1AB43
  8
0
 10
4345.4821467758265499
 20
270.1012485457674188
 30
0.0
 40
0.4824235478428564
 50
89.6198322205058417
 51
119.2245766551517931
  0
ARC
  5
1AB44
  8
0
 10
4345.4653672671756794
 20
270.1263931546376966
 30
0.0
 40
0.4522933950064099
 50
118.9246976616098976
 51
179.9158435514989094
  0
ARC
  5
1AB45
  8
0
 10
4345.4540856214298401
 20
270.0950460859385771
 30
0.0
 40
0.4408705535542147
 50
169.5477669029490073
 51
179.9613945797950976
  0
ARC
  5
1AB46
  8
0
 10
4345.455727036251119
 20
270.0946958816293773
 30
0.0
 40
0.4425482665736635
 50
158.7240610618918026
 51
169.541731794700695
  0
ARC
  5
1AB47
  8
0
 10
4345.4604855991683507
 20
270.0928225586451958
 30
0.0
 40
0.4476622576722248
 50
147.5931786193513062
 51
158.7216353722340898
  0
ARC
  5
1AB48
  8
0
 10
4345.4745540194062414
 20
270.0822713986647727
 30
0.0
 40
0.465196387377948
 50
113.4901692073621007
 51
147.424650226881198
  0
ARC
  5
1AB49
  8
0
 10
4345.4835541960210321
 20
270.0637107753541954
 30
0.0
 40
0.4858070139221551
 50
89.7532268540699079
 51
113.5911498581532015
  0
LINE
  5
1AB4A
  8
0
 10
4345.4856465491557174
 20
270.5495135546545953
 30
0.0
 11
4347.9905045046562009
 21
270.5431447821546271
 31
0.0
  0
ARC
  5
1AB4B
  8
0
 10
4347.9919380471446857
 20
270.4658318103645911
 30
0.0
 40
0.0773262610700187
 50
1.3168122875381809
 51
91.0622605931755231
  0
ARC
  5
1AB4C
  8
0
 10
4345.4752792858389512
 20
269.9767444784275767
 30
0.0
 40
0.4628162377472296
 50
88.7211756514036267
 51
176.4183736901327961
  0
ARC
  5
1AB4D
  8
0
 10
4345.4807042058600928
 20
269.9280221518325789
 30
0.0
 40
0.4678222578707303
 50
90.9382376712988929
 51
179.0866307757065101
  0
ARC
  5
1AB4E
  8
0
 10
4352.3821324762457152
 20
257.0578297032201931
 30
0.0
 40
5.5884586172512813
 50
260.4502605189625228
 51
269.8026334070942767
  0
ARC
  5
1AB4F
  8
0
 10
4352.2651890908773566
 20
256.1902637682463819
 30
0.0
 40
4.713600933703848
 50
234.6636608652785867
 51
260.102495961747195
  0
ARC
  5
1AB50
  8
0
 10
4354.0504659173748223
 20
258.5574421452967044
 30
0.0
 40
7.6777318385851858
 50
212.212839861979802
 51
234.0124624005617875
  0
ARC
  5
1AB51
  8
0
 10
4359.4900912527546097
 20
262.4360500328768921
 30
0.0
 40
14.3526915015435996
 50
198.6228564002580868
 51
213.7375981662775075
  0
ARC
  5
1AB52
  8
0
 10
4362.320827401634233
 20
262.8737245262022952
 30
0.0
 40
17.1819448711415887
 50
185.3137429229161057
 51
196.9913199588955877
  0
ARC
  5
1AB53
  8
0
 10
4364.5530181742278728
 20
263.7920806635805775
 30
0.0
 40
19.5024354720341613
 50
180.3458477563899862
 51
187.3932994984581057
  0
LINE
  5
1AB54
  8
0
 10
4357.1673410626563054
 20
270.6611791063546093
 30
0.0
 11
4357.1692499455557481
 21
270.5965822592546033
 31
0.0
  0
LINE
  5
1AB55
  8
0
 10
4356.6414051695574017
 20
270.4724701103546067
 30
0.0
 11
4356.6357938976570949
 21
270.6612701177546114
 31
0.0
  0
LINE
  5
1AB56
  8
0
 10
4356.1214661169569808
 20
270.6612701177546114
 30
0.0
 11
4356.1158548570565472
 21
270.4724701232545954
 31
0.0
  0
LINE
  5
1AB57
  8
0
 10
4356.1030394561566936
 20
270.6426325884546031
 30
0.0
 11
4356.1030394561566936
 21
270.4576520374783968
 31
0.0
  0
LINE
  5
1AB58
  8
0
 10
4359.2527201353923374
 20
270.3957816874506079
 30
0.0
 11
4352.3628819683563052
 21
270.3957816892545907
 31
0.0
  0
LINE
  5
1AB59
  8
0
 10
4359.2401555910555544
 20
270.4394454406545947
 30
0.0
 11
4356.7593282925563472
 21
270.4394453951546211
 31
0.0
  0
LINE
  5
1AB5A
  8
0
 10
4352.3628819683563052
 20
270.4394455834046198
 30
0.0
 11
4355.9977603789566274
 21
270.4394455149546275
 31
0.0
  0
LINE
  5
1AB5B
  8
0
 10
4356.7329826245559161
 20
270.6820026672546078
 30
0.0
 11
4357.114512594856933
 21
270.6820026672546078
 31
0.0
  0
LINE
  5
1AB5C
  8
0
 10
4356.5819918722563671
 20
270.6820026672546078
 30
0.0
 11
4356.1752681854568436
 21
270.6820026672546078
 31
0.0
  0
LINE
  5
1AB5D
  8
0
 10
4356.0636693773558363
 20
270.6820026665545811
 30
0.0
 11
4352.3628819683563052
 21
270.6820026665545811
 31
0.0
  0
LINE
  5
1AB5E
  8
0
 10
4355.0557914747560062
 20
270.7181940937546187
 30
0.0
 11
4352.3628819683563052
 21
270.7181940937546187
 31
0.0
  0
ARC
  5
1AB5F
  8
0
 10
4356.0636693773558363
 20
270.6426325884546031
 30
0.0
 40
0.0393700787
 50
0.0
 51
90.0
  0
LINE
  5
1AB60
  8
0
 10
4356.6565200496561374
 20
270.467608820954581
 30
0.0
 11
4356.6565981126541374
 21
270.4563992278360161
 31
0.0
  0
ARC
  5
1AB61
  8
0
 10
4355.0553036146229715
 20
269.4038279144976968
 30
0.0
 40
1.314366269797703
 50
85.6997236019376913
 51
89.9787332283602268
  0
ARC
  5
1AB62
  8
0
 10
4355.0515680333510318
 20
269.3505169697087922
 30
0.0
 40
1.367807266329796
 50
81.0691954184576389
 51
85.7111332037058844
  0
ARC
  5
1AB63
  8
0
 10
4355.0529455774785674
 20
269.3576905321356776
 30
0.0
 40
1.36050684266781
 50
76.7542253812954129
 51
81.0796062561810942
  0
ARC
  5
1AB64
  8
0
 10
4356.0006785642490286
 20
270.783750197579991
 30
0.0
 40
0.3443170490741894
 50
269.5143960970883086
 51
282.4344621937246984
  0
ARC
  5
1AB65
  8
0
 10
4356.0480531688535848
 20
270.5663204458539894
 30
0.0
 40
0.1217879910751523
 50
282.6952049243697047
 51
296.8394408572129919
  0
ARC
  5
1AB66
  8
0
 10
4356.0892258535113797
 20
270.485381307761827
 30
0.0
 40
0.0309794778599756
 50
296.4806321183193063
 51
321.9909056625672861
  0
ARC
  5
1AB67
  8
0
 10
4356.1044923523159014
 20
270.4730787127091958
 30
0.0
 40
0.0113787914606473
 50
323.4637473823701157
 51
356.9340985461392961
  0
ARC
  5
1AB68
  8
0
 10
4356.1643360610432865
 20
270.6200749422342255
 30
0.0
 40
0.0594548113457801
 50
113.8377667748757034
 51
136.1413113899112943
  0
ARC
  5
1AB69
  8
0
 10
4356.1732776933004061
 20
270.6014839495526871
 30
0.0
 40
0.0800763806063369
 50
95.6402811583776185
 51
114.3138283938060056
  0
ARC
  5
1AB6A
  8
0
 10
4356.1822892069749287
 20
270.5396069225827205
 30
0.0
 40
0.1425687302455605
 50
92.8227626005918154
 51
96.8003730793277128
  0
ARC
  5
1AB6B
  8
0
 10
4356.5824812442688199
 20
270.5958217721238839
 30
0.0
 40
0.0861822845513876
 50
70.325198441672427
 51
90.3253464643927941
  0
ARC
  5
1AB6C
  8
0
 10
4356.5888264108662042
 20
270.615245246791801
 30
0.0
 40
0.0657589048158221
 50
44.4192419644895509
 51
69.8330899213340359
  0
ARC
  5
1AB6D
  8
0
 10
4356.759003894894704
 20
270.83584581618328
 30
0.0
 40
0.3964005537655173
 50
263.9562970078105764
 51
270.0468884789028152
  0
ARC
  5
1AB6E
  8
0
 10
4356.7438490639997326
 20
270.7053109271097924
 30
0.0
 40
0.2649989092909201
 50
256.0648635859249111
 51
264.243204130455581
  0
ARC
  5
1AB6F
  8
0
 10
4356.7070939819550404
 20
270.5618975598953853
 30
0.0
 40
0.1169603816846877
 50
244.422293364853914
 51
256.6213999834047854
  0
ARC
  5
1AB70
  8
0
 10
4356.6791466758932074
 20
270.5023591847865987
 30
0.0
 40
0.0511933134994824
 50
234.1194576064677051
 51
243.8668197578710988
  0
ARC
  5
1AB71
  8
0
 10
4356.6645141102353591
 20
270.4820325405809172
 30
0.0
 40
0.0261477955033558
 50
216.9601411484491109
 51
233.9934852293779102
  0
ARC
  5
1AB72
  8
0
 10
4356.653403531739059
 20
270.4734211777279143
 30
0.0
 40
0.0120938454697887
 50
194.5182241485067891
 51
216.0097107383359116
  0
ARC
  5
1AB73
  8
0
 10
4356.6511234379686357
 20
270.4727671927034862
 30
0.0
 40
0.0097228081779477
 50
181.7509565315828866
 51
194.155748190432007
  0
ARC
  5
1AB74
  8
0
 10
4357.1153165947507659
 20
270.6066188376445893
 30
0.0
 40
0.0753881169846817
 50
46.3628900790469487
 51
90.6110601490546372
  0
ARC
  5
1AB75
  8
0
 10
4356.7330102532741876
 20
270.6032020419676769
 30
0.0
 40
0.078800630130415
 50
90.0200887860249139
 51
170.7434015894862114
  0
ARC
  5
1AB76
  8
0
 10
4356.8305720538937749
 20
270.5934856310623218
 30
0.0
 40
0.176760320610739
 50
172.7222205990705959
 51
180.253152452443004
  0
ARC
  5
1AB77
  8
0
 10
4370.1199012537072122
 20
270.4262838495175174
 30
0.0
 40
13.4671161124588892
 50
179.2919455160482016
 51
179.8631410213739912
  0
ARC
  5
1AB78
  8
0
 10
4357.1767028086105711
 20
270.5971738994253997
 30
0.0
 40
0.0074763096369805
 50
184.5388657607722962
 51
218.0815503479250879
  0
ARC
  5
1AB79
  8
0
 10
4357.1826573698235734
 20
270.6018617713692151
 30
0.0
 40
0.0150547523367909
 50
218.147440763563992
 51
235.2101530614835951
  0
ARC
  5
1AB7A
  8
0
 10
4357.1956492773815626
 20
270.6207129865056231
 30
0.0
 40
0.0379491844120998
 50
235.3404380539213037
 51
248.6781166684457105
  0
ARC
  5
1AB7B
  8
0
 10
4357.2183066110628715
 20
270.6797136196072984
 30
0.0
 40
0.1011503269474055
 50
248.8744186935651044
 51
260.6061149619563935
  0
ARC
  5
1AB7C
  8
0
 10
4357.2375120213682749
 20
270.7834464602269122
 30
0.0
 40
0.2066366268103019
 50
260.046971153009622
 51
267.9780225077707883
  0
ARC
  5
1AB7D
  8
0
 10
4357.2572695281360211
 20
272.0804197416450165
 30
0.0
 40
1.5037245340286249
 50
268.9693370104436099
 51
270.4173878374493825
  0
LINE
  5
1AB7E
  8
0
 10
4357.2682237517346948
 20
270.5767351074131852
 30
0.0
 11
4359.24041621755714
 21
270.58366147415461
 31
0.0
  0
ARC
  5
1AB7F
  8
0
 10
4359.2436171608860604
 20
270.1012485457674188
 30
0.0
 40
0.4824235478428564
 50
60.7754233448481571
 51
90.380167779494144
  0
ARC
  5
1AB80
  8
0
 10
4359.2559180885091337
 20
270.121783301346909
 30
0.0
 40
0.4584974223075085
 50
0.6840225635398988
 51
60.8640741694805811
  0
ARC
  5
1AB81
  8
0
 10
4358.8504726994997327
 20
270.0369823735885006
 30
0.0
 40
0.8658359852457955
 50
3.8221814406812462
 51
9.1741035723895479
  0
ARC
  5
1AB82
  8
0
 10
4359.2700369004624008
 20
270.0946958816293773
 30
0.0
 40
0.4425482665736635
 50
10.4582682052992393
 51
21.2759389381082507
  0
ARC
  5
1AB83
  8
0
 10
4359.2652783375442596
 20
270.0928225586451958
 30
0.0
 40
0.4476622576722248
 50
21.2783646277659102
 51
32.4068213806486725
  0
ARC
  5
1AB84
  8
0
 10
4359.2512099173072784
 20
270.0822713986647727
 30
0.0
 40
0.465196387377948
 50
32.5753497731187593
 51
66.5098307926378425
  0
ARC
  5
1AB85
  8
0
 10
4359.2422097406915782
 20
270.0637107753541954
 30
0.0
 40
0.4858070139221551
 50
66.40885014184677
 51
90.2467731459301064
  0
LINE
  5
1AB86
  8
0
 10
4359.2401173875568929
 20
270.5495135546545953
 30
0.0
 11
4356.7352594320564094
 21
270.5431447821546271
 31
0.0
  0
ARC
  5
1AB87
  8
0
 10
4356.7338258895679246
 20
270.4658318103645911
 30
0.0
 40
0.0773262610700187
 50
88.9377394068244769
 51
178.6831877124616881
  0
ARC
  5
1AB88
  8
0
 10
4359.2491213310540843
 20
269.9731261472841197
 30
0.0
 40
0.4664054758075295
 50
4.0137643634139106
 51
91.101467996223036
  0
ARC
  5
1AB89
  8
0
 10
4359.2438853483854473
 20
269.9252521654833004
 30
0.0
 40
0.470612456809462
 50
1.266494359354142
 51
88.9243256561657063
  0
ARC
  5
1AB8A
  8
0
 10
4352.3436314604678046
 20
257.0578297032203068
 30
0.0
 40
5.5884586172513853
 50
270.1973665929057233
 51
279.5497394810374203
  0
ARC
  5
1AB8B
  8
0
 10
4352.4605748458370726
 20
256.1902637682463819
 30
0.0
 40
4.713600933703848
 50
279.8975040382522934
 51
305.3363391347214133
  0
ARC
  5
1AB8C
  8
0
 10
4350.6752980193368785
 20
258.5574421452967044
 30
0.0
 40
7.6777318385851858
 50
305.9875375994382125
 51
327.7871601380202264
  0
ARC
  5
1AB8D
  8
0
 10
4345.2356726839580006
 20
262.4360500328768921
 30
0.0
 40
14.3526915015435996
 50
326.2624018337224925
 51
341.377143599741828
  0
ARC
  5
1AB8E
  8
0
 10
4342.4049365350792868
 20
262.8737245262022952
 30
0.0
 40
17.1819448711415887
 50
343.0086800411042987
 51
354.6862570770838943
  0
ARC
  5
1AB8F
  8
0
 10
4340.172745762485647
 20
263.7920806635805775
 30
0.0
 40
19.5024354720341613
 50
352.6067005015419227
 51
359.6541522436099854
  0
ARC
  5
1AB90
  8
0
 10
4218.1282161751687454
 20
266.7163345790364133
 30
0.0
 40
141.5792934713973068
 50
358.7688478380118795
 51
359.6577987684606796
  0
ARC
  5
1AB91
  8
0
 10
4577.45992355377075
 20
266.1216362519592735
 30
0.0
 40
217.7550835792677901
 50
179.4635930423577861
 51
180.0660127849550918
  0
LINE
  5
1AB93
  8
0
 10
4359.7143828371908967
 20
268.1602442715300185
 30
0.0
 11
4359.7143828371908967
 21
270.1272569179899961
 31
0.0
  0
ARC
  5
1AB94
  8
0
 10
4127.2658403829409508
 20
266.1216362519592735
 30
0.0
 40
217.7550835792677901
 50
359.9339872150447945
 51
0.5364069576421514
  0
LINE
  5
1AB95
  8
0
 10
4345.0113810995226231
 20
268.1602442715300185
 30
0.0
 11
4345.0113810995226231
 21
270.1272569179899961
 31
0.0
  0
ARC
  5
1AB96
  8
0
 10
4486.5975477615429554
 20
266.7163345790364133
 30
0.0
 40
141.5792934713973068
 50
180.3422012315392919
 51
181.2311521619880068
  0
ATTDEF
  5
1AB97
  8
DEFPOINTS
 10
4352.3630358528380384
 20
270.7216408001918921
 30
0.0
 40
0.001
  1
K-77070T
  3

  2
MODELNUMBER
 70
     0
1001
ACDBATTR
1070
     0
1070
     1
  0
ATTDEF
  5
1AB98
  8
DEFPOINTS
 10
4352.3629100431808183
 20
270.7199739598127053
 30
0.0
 40
0.001
  1
VEIL
  3

  2
TRADENAME
 70
     0
1001
ACDBATTR
1070
     0
1070
     1
  0
ATTDEF
  5
1AB99
  8
DEFPOINTS
 10
4352.3630358528380384
 20
270.7183074668586187
 30
0.0
 40
0.001
  1
TOILET SEAT
  3

  2
PRODUCT
 70
     0
1001
ACDBATTR
1070
     0
1070
     1
  0
ENDSEC
  0
EOF
