  0
SECTION
  2
HEADER
  9
$ACADVER
  1
AC1009
  9
$INSBASE
 10
4397.9547566014916811
 20
258.7482391254714003
 30
0.0
  9
$EXTMIN
 10
4378.410381457800213
 20
258.5021342230824075
 30
-0.0000000000000058
  9
$EXTMAX
 10
4398.1637112043854358
 20
260.8468070524900781
 30
0.0000000000000104
  9
$LIMMIN
 10
0.0
 20
0.0
  9
$LIMMAX
 10
11.6929133858000007
 20
8.2677165353999982
  9
$ORTHOMODE
 70
     0
  9
$REGENMODE
 70
     1
  9
$FILLMODE
 70
     1
  9
$QTEXTMODE
 70
     0
  9
$MIRRTEXT
 70
     0
  9
$DRAGMODE
 70
     2
  9
$LTSCALE
 40
0.6431102362
  9
$OSMODE
 70
   563
  9
$ATTMODE
 70
     1
  9
$TEXTSIZE
 40
0.2
  9
$TRACEWID
 40
0.05
  9
$TEXTSTYLE
  7
STANDARD
  9
$CLAYER
  8
0
  9
$CELTYPE
  6
BYLAYER
  9
$CECOLOR
 62
   256
  9
$DIMSCALE
 40
1.0
  9
$DIMASZ
 40
0.1875
  9
$DIMEXO
 40
0.0625
  9
$DIMDLI
 40
0.4443307087
  9
$DIMRND
 40
0.0
  9
$DIMDLE
 40
0.0
  9
$DIMEXE
 40
0.125
  9
$DIMTP
 40
0.01
  9
$DIMTM
 40
0.01
  9
$DIMTXT
 40
2.0
  9
$DIMCEN
 40
0.1052362205
  9
$DIMTSZ
 40
0.0
  9
$DIMTOL
 70
     1
  9
$DIMLIM
 70
     0
  9
$DIMTIH
 70
     1
  9
$DIMTOH
 70
     1
  9
$DIMSE1
 70
     0
  9
$DIMSE2
 70
     0
  9
$DIMTAD
 70
     0
  9
$DIMZIN
 70
     0
  9
$DIMBLK
  1

  9
$DIMASO
 70
     1
  9
$DIMSHO
 70
     1
  9
$DIMPOST
  1
\X
  9
$DIMAPOST
  1

  9
$DIMALT
 70
     1
  9
$DIMALTD
 70
     2
  9
$DIMALTF
 40
25.3999999999999986
  9
$DIMLFAC
 40
1.0
  9
$DIMTOFL
 70
     0
  9
$DIMTVP
 40
0.0
  9
$DIMTIX
 70
     0
  9
$DIMSOXD
 70
     0
  9
$DIMSAH
 70
     0
  9
$DIMBLK1
  1

  9
$DIMBLK2
  1

  9
$DIMSTYLE
  2
STANDARD
  9
$DIMCLRD
 70
     0
  9
$DIMCLRE
 70
     0
  9
$DIMCLRT
 70
     0
  9
$DIMTFAC
 40
1.0
  9
$DIMGAP
 40
0.09
  9
$LUNITS
 70
     2
  9
$LUPREC
 70
     4
  9
$SKETCHINC
 40
0.1
  9
$FILLETRAD
 40
0.0
  9
$AUNITS
 70
     0
  9
$AUPREC
 70
     0
  9
$MENU
  1
.
  9
$ELEVATION
 40
0.0
  9
$PELEVATION
 40
0.0
  9
$THICKNESS
 40
0.0
  9
$LIMCHECK
 70
     0
  9
$BLIPMODE
 70
     0
  9
$CHAMFERA
 40
0.0
  9
$CHAMFERB
 40
0.0
  9
$SKPOLY
 70
     0
  9
$TDCREATE
 40
2458060.468368056230247
  9
$TDUPDATE
 40
2459221.540312500204891
  9
$TDINDWG
 40
0.4573103009
  9
$TDUSRTIMER
 40
0.4573103009
  9
$USRTIMER
 70
     1
  9
$ANGBASE
 50
0.0
  9
$ANGDIR
 70
     0
  9
$PDMODE
 70
     0
  9
$PDSIZE
 40
0.3125
  9
$PLINEWID
 40
0.0
  9
$COORDS
 70
     1
  9
$SPLFRAME
 70
     0
  9
$SPLINETYPE
 70
     6
  9
$SPLINESEGS
 70
     8
  9
$ATTDIA
 70
     1
  9
$ATTREQ
 70
     1
  9
$HANDLING
 70
     1
  9
$HANDSEED
  5
1ADEE
  9
$SURFTAB1
 70
     6
  9
$SURFTAB2
 70
     6
  9
$SURFTYPE
 70
     6
  9
$SURFU
 70
     6
  9
$SURFV
 70
     6
  9
$UCSNAME
  2

  9
$UCSORG
 10
0.0
 20
0.0
 30
0.0
  9
$UCSXDIR
 10
1.0
 20
0.0
 30
0.0
  9
$UCSYDIR
 10
0.0
 20
1.0
 30
0.0
  9
$PUCSNAME
  2

  9
$PUCSORG
 10
0.0
 20
0.0
 30
0.0
  9
$PUCSXDIR
 10
1.0
 20
0.0
 30
0.0
  9
$PUCSYDIR
 10
0.0
 20
1.0
 30
0.0
  9
$USERI1
 70
     0
  9
$USERI2
 70
     0
  9
$USERI3
 70
     0
  9
$USERI4
 70
     0
  9
$USERI5
 70
     0
  9
$USERR1
 40
0.0
  9
$USERR2
 40
0.0
  9
$USERR3
 40
0.0
  9
$USERR4
 40
0.0
  9
$USERR5
 40
0.0
  9
$WORLDVIEW
 70
     1
  9
$SHADEDGE
 70
     3
  9
$SHADEDIF
 70
    70
  9
$TILEMODE
 70
     1
  9
$MAXACTVP
 70
    64
  9
$PLIMCHECK
 70
     0
  9
$PEXTMIN
 10
1.0000000000000000E+20
 20
1.0000000000000000E+20
 30
1.0000000000000000E+20
  9
$PEXTMAX
 10
-1.0000000000000000E+20
 20
-1.0000000000000000E+20
 30
-1.0000000000000000E+20
  9
$PLIMMIN
 10
0.0
 20
0.0
  9
$PLIMMAX
 10
12.0
 20
9.0
  9
$UNITMODE
 70
     0
  9
$VISRETAIN
 70
     1
  9
$PLINEGEN
 70
     0
  9
$PSLTSCALE
 70
     1
  0
ENDSEC
  0
SECTION
  2
TABLES
  0
TABLE
  2
VPORT
 70
     1
  0
VPORT
  2
*ACTIVE
 70
     0
 10
0.0
 20
0.0
 11
1.0
 21
1.0
 12
476.921690035486904
 22
127.0948654984083959
 13
0.0
 23
0.0
 14
1.0
 24
1.0
 15
0.0
 25
0.0
 16
0.0
 26
0.0
 36
60.4960186965801583
 17
3911.3653564453120453
 27
132.5796051025390057
 37
0.0
 40
14.60427572918843
 41
1.9002217294900221
 42
50.0
 43
0.0
 44
0.0
 50
0.0
 51
0.0
 71
     0
 72
   100
 73
     1
 74
     1
 75
     0
 76
     0
 77
     0
 78
     0
  0
ENDTAB
  0
TABLE
  2
LTYPE
 70
     2
  0
LTYPE
  2
CONTINUOUS
 70
     0
  3
Solid line
 72
    65
 73
     0
 40
0.0
  0
LTYPE
  2
PHANTOM2
 70
     0
  3
___ _ _ ___ _ _ ___ _ _ ___ _ _
 72
    65
 73
     6
 40
1.25
 49
0.625
 49
-0.125
 49
0.125
 49
-0.125
 49
0.125
 49
-0.125
  0
ENDTAB
  0
TABLE
  2
LAYER
 70
     2
  0
LAYER
  2
0
 70
     0
 62
   255
  6
CONTINUOUS
  0
LAYER
  2
DEFPOINTS
 70
     0
 62
     7
  6
CONTINUOUS
  0
ENDTAB
  0
TABLE
  2
STYLE
 70
     1
  0
STYLE
  2
STANDARD
 70
     0
 40
0.0
 41
0.8
 50
0.0
 71
     0
 42
0.2
  3
txt
  4

  0
ENDTAB
  0
TABLE
  2
VIEW
 70
     0
  0
ENDTAB
  0
TABLE
  2
UCS
 70
     0
  0
ENDTAB
  0
TABLE
  2
APPID
 70
    11
  0
APPID
  2
ACAD
 70
     0
  0
APPID
  2
ACAD_MLEADERVER
 70
     0
  0
APPID
  2
ACAD_EXEMPT_FROM_CAD_STANDARDS
 70
     0
  0
APPID
  2
ACAD_NAV_VCDISPLAY
 70
     0
  0
APPID
  2
ACAECLAYERSTANDARD
 70
     0
  0
APPID
  2
ACCMTRANSPARENCY
 70
     0
  0
APPID
  2
ACAD_DSTYLE_DIMJAG
 70
     0
  0
APPID
  2
ACAD_DSTYLE_DIMTALN
 70
     0
  0
APPID
  2
ACDBATTR
 70
     0
  0
APPID
  2
ACADANNOTATIVE
 70
     0
  0
APPID
  2
DCO15
 70
     0
  0
ENDTAB
  0
TABLE
  2
DIMSTYLE
 70
     1
  0
DIMSTYLE
  2
STANDARD
 70
     0
  3

  4

  5

  6

  7

 40
1.0
 41
0.1875
 42
0.0625
 43
0.38
 44
0.125
 45
0.0
 46
0.0
 47
0.01
 48
0.01
140
0.15625
141
0.09
142
0.0
143
25.3999999999999986
144
1.0
145
0.0
146
1.0
147
0.09
 71
     1
 72
     0
 73
     1
 74
     1
 75
     0
 76
     0
 77
     0
 78
     4
170
     0
171
     2
172
     0
173
     0
174
     0
175
     0
176
     0
177
     0
178
     0
  0
ENDTAB
  0
ENDSEC
  0
SECTION
  2
BLOCKS
  0
BLOCK
  8
0
  2
$MODEL_SPACE
 70
     0
 10
0.0
 20
0.0
 30
0.0
  3
$MODEL_SPACE
  1

  0
ENDBLK
  5
21
  8
0
  0
BLOCK
 67
     1
  8
0
  2
$PAPER_SPACE
 70
     0
 10
0.0
 20
0.0
 30
0.0
  3
$PAPER_SPACE
  1

  0
ENDBLK
  5
1D
 67
     1
  8
0
  0
ENDSEC
  0
SECTION
  2
ENTITIES
  0
LINE
  5
1ABB1
  8
0
 10
4378.7082741911972334
 20
259.1265506232713847
 30
0.0
 11
4378.7082741911972334
 21
259.0038116807702977
 31
0.0
  0
LINE
  5
1ABB2
  8
0
 10
4378.705962447865204
 20
259.4889632821714258
 30
0.0
 11
4378.7087521091962117
 21
259.6487828731713989
 31
0.0
  0
LINE
  5
1ABB3
  8
0
 10
4382.8202262001968847
 20
259.3334811410713883
 30
0.0
 11
4382.8202262001968847
 21
259.2744260229713973
 31
0.0
  0
LINE
  5
1ABB4
  8
0
 10
4382.8225885055971958
 20
258.8466643222714083
 30
0.0
 11
4382.8225885055971958
 21
258.7876092041714173
 31
0.0
  0
LINE
  5
1ABB5
  8
0
 10
4383.9024024664968238
 20
259.2744260229713973
 30
0.0
 11
4383.9024024664968238
 21
259.3334811410713883
 31
0.0
  0
LINE
  5
1ABB6
  8
0
 10
4383.9047645705968534
 20
258.7876092041714173
 30
0.0
 11
4383.9047645705968534
 21
258.8466643222714083
 31
0.0
  0
LINE
  5
1ABB7
  8
0
 10
4383.9162483010968572
 20
259.3422818937714283
 30
0.0
 11
4383.9180484615617388
 21
259.3456713313714204
 31
0.0
  0
LINE
  5
1ABB8
  8
0
 10
4381.1403659149473242
 20
258.5171895181022137
 30
0.0
 11
4393.149719130561607
 21
258.5807967190120848
 31
0.0
  0
LINE
  5
1ABB9
  8
0
 10
4383.8653980094959479
 20
258.7482391254714003
 30
0.0
 11
4382.8619550665971474
 21
258.7482391254714003
 31
0.0
  0
LINE
  5
1ABBA
  8
0
 10
4396.7957750064970242
 20
258.7482391254714003
 30
0.0
 11
4397.9547566015971825
 21
258.7482391254714003
 31
0.0
  0
LINE
  5
1ABBB
  8
0
 10
4391.6400267251956393
 20
258.8072942435713912
 30
0.0
 11
4390.5140418674973262
 21
258.8072942435713912
 31
0.0
  0
LINE
  5
1ABBC
  8
0
 10
4383.9047645705968534
 20
258.8466643222714083
 30
0.0
 11
4382.8225885055971958
 21
258.8466643222714083
 31
0.0
  0
LINE
  5
1ABBD
  8
0
 10
4391.6793950061955911
 20
258.9057194403713993
 30
0.0
 11
4390.4746735620956315
 21
258.9057194403713993
 31
0.0
  0
LINE
  5
1ABBE
  8
0
 10
4397.9195698094981708
 20
259.0631997553713859
 30
0.0
 11
4396.8939384932973553
 21
259.0631997553713859
 31
0.0
  0
LINE
  5
1ABBF
  8
0
 10
4391.6506063862971132
 20
259.3117787192713877
 30
0.0
 11
4390.5253074480970099
 21
259.2724824143713818
 31
0.0
  0
LINE
  5
1ABC0
  8
0
 10
4390.4508316143974298
 20
259.3683668523714232
 30
0.0
 11
4391.7186680492959567
 21
259.4126406762713941
 31
0.0
  0
LINE
  5
1ABC1
  8
0
 10
4383.9024024664968238
 20
259.3334811410713883
 30
0.0
 11
4382.8202262001968847
 21
259.3334811410713883
 31
0.0
  0
LINE
  5
1ABC2
  8
0
 10
4390.4845870696026395
 20
259.3104545037293178
 30
0.0
 11
4390.4825281349976649
 21
259.3694737192611228
 31
0.0
  0
LINE
  5
1ABC3
  8
0
 10
4390.4746735620956315
 20
258.8466643222714083
 30
0.0
 11
4390.4746735620956315
 21
258.9057194403713993
 31
0.0
  0
LINE
  5
1ABC4
  8
0
 10
4391.6865156952953839
 20
259.4115178913285717
 30
0.0
 11
4391.6885766891973617
 21
259.3524987479714241
 31
0.0
  0
LINE
  5
1ABC5
  8
0
 10
4391.6793950061955911
 20
258.9057194403713993
 30
0.0
 11
4391.6793950061955911
 21
258.8466643222714083
 31
0.0
  0
LINE
  5
1ABC6
  8
0
 10
4396.7957750064970242
 20
258.7482391254714003
 30
0.0
 11
4396.7957750064970242
 21
258.7819358712714006
 31
0.0
  0
LINE
  5
1ABC7
  8
0
 10
4396.8880923362958129
 20
259.8301246996713871
 30
0.0
 11
4396.8948334744391104
 21
259.6917942546281211
 31
0.0
  0
LINE
  5
1ABC8
  8
0
 10
4397.9392278712957705
 20
259.0445449513713925
 30
0.0
 11
4397.9547566015971825
 21
258.7482391253714127
 31
0.0
  0
LINE
  5
1ABC9
  8
0
 10
4397.9195629265959724
 20
259.6499059777714251
 30
0.0
 11
4397.9376031429956129
 21
259.0835152128714185
 31
0.0
  0
LINE
  5
1ABCA
  8
0
 10
4396.8982726311960505
 20
259.7973076009714077
 30
0.0
 11
4396.8984408937967601
 21
259.7929496483714047
 31
0.0
  0
LINE
  5
1ABCB
  8
0
 10
4396.8759051602955878
 20
259.0835152271714037
 30
0.0
 11
4396.8939453852972292
 21
259.6499062610714077
 31
0.0
  0
LINE
  5
1ABCC
  8
0
 10
4396.8984408937967601
 20
259.7929496484713923
 30
0.0
 11
4396.8940172994889508
 21
259.7085424419105948
 31
0.0
  0
LINE
  5
1ABCD
  8
0
 10
4396.8711314915972252
 20
258.984459597871421
 30
0.0
 11
4396.8742804315970716
 21
259.0445449513713925
 31
0.0
  0
LINE
  5
1ABCE
  8
0
 10
4397.7798366404967965
 20
260.2588531141714157
 30
0.0
 11
4397.8985619125542144
 21
259.8544946213087883
 31
0.0
  0
LINE
  5
1ABCF
  8
0
 10
4397.7798366404967965
 20
260.2588531141714157
 30
0.0
 11
4397.6323441988970444
 21
260.7611584208714248
 31
0.0
  0
ARC
  5
1ABD0
  8
0
 10
4381.2327491905925854
 20
259.8951652450522261
 30
0.0
 40
1.38106906912091
 50
265.129717295235821
 51
266.1644733294796765
  0
ARC
  5
1ABD1
  8
0
 10
4381.1370510657388877
 20
258.7147863043558118
 30
0.0
 40
0.1968871780933822
 50
231.4917308593244059
 51
263.714768248968312
  0
ARC
  5
1ABD2
  8
0
 10
4378.8268357940423812
 20
259.6466920848159248
 30
0.0
 40
0.1181021931316354
 50
101.4818663465025992
 51
178.9856275856577952
  0
ARC
  5
1ABD3
  8
0
 10
4390.2293545484189963
 20
259.2462790240584241
 30
0.0
 40
0.2426980394156786
 50
32.7328016909224431
 51
89.3894071895493738
  0
ARC
  5
1ABD4
  8
0
 10
4390.5239501835321789
 20
259.3118467500166275
 30
0.0
 40
0.0393877276304154
 50
182.0256679307308048
 51
271.9747503677036207
  0
ARC
  5
1ABD5
  8
0
 10
4390.5140577660777126
 20
258.8466784468758988
 30
0.0
 40
0.0393842065134436
 50
180.0205483444628101
 51
269.9768708912030206
  0
ARC
  5
1ABD6
  8
0
 10
4390.5108591710441033
 20
258.9739174025444868
 30
0.0
 40
0.07720337000071
 50
225.1639941332421131
 51
242.0497290608917069
  0
ARC
  5
1ABD7
  8
0
 10
4390.4501465255862058
 20
259.3880424911855016
 30
0.0
 40
0.0196875623026378
 50
212.3385836766771035
 51
271.9941840953870837
  0
ARC
  5
1ABD8
  8
0
 10
4391.9390091566428964
 20
259.3032635235568932
 30
0.0
 40
0.2362598020052462
 50
93.4046735889841244
 51
149.7205201507541119
  0
ARC
  5
1ABD9
  8
0
 10
4392.2065322911039402
 20
258.0901064737686283
 30
0.0
 40
1.0105845791216379
 50
104.7393138740652034
 51
112.9873539026393985
  0
ARC
  5
1ABDA
  8
0
 10
4391.877436960934574
 20
258.8339993273265236
 30
0.0
 40
0.1966411387265939
 50
140.0714652174050059
 51
145.8464439067047067
  0
ARC
  5
1ABDB
  8
0
 10
4391.8771355793969633
 20
258.8341630554713788
 30
0.0
 40
0.1962998185
 50
145.8366051001862047
 51
151.9130138322061043
  0
ARC
  5
1ABDC
  8
0
 10
4391.8912559320970104
 20
258.8176990486639966
 30
0.0
 40
0.2177304577016726
 50
111.3831486479449069
 51
139.1160956873229111
  0
ARC
  5
1ABDD
  8
0
 10
4391.6492160160642015
 20
259.3511383452313908
 30
0.0
 40
0.0393841755670346
 50
272.0231197288932776
 51
1.979496653120381
  0
ARC
  5
1ABDE
  8
0
 10
4391.6400108331590673
 20
258.8466784159234066
 30
0.0
 40
0.0393841755583259
 50
270.0231196067082919
 51
359.9794966688164095
  0
ARC
  5
1ABDF
  8
0
 10
4391.6678439848319613
 20
258.9462754212258915
 30
0.0
 40
0.0411297839446272
 50
279.5817990566123967
 51
331.3941934788895765
  0
ARC
  5
1ABE0
  8
0
 10
4391.7179798448078145
 20
259.4323142273740928
 30
0.0
 40
0.019685584533074
 50
272.0034583727223207
 51
329.7261219690752796
  0
ARC
  5
1ABE1
  8
0
 10
4394.4521003280369769
 20
257.048563040860472
 30
0.0
 40
1.9684676900533731
 50
107.8425447128380057
 51
127.0095590964691041
  0
ARC
  5
1ABE2
  8
0
 10
4394.9209088920233626
 20
259.71272512907899
 30
0.0
 40
1.974036274734684
 50
358.1763943181086916
 51
358.5812902373667725
  0
ARC
  5
1ABE3
  8
0
 10
4394.9268276276879988
 20
259.712569522753995
 30
0.0
 40
1.9681155008309641
 50
358.5815527944383234
 51
359.3951791505767233
  0
ARC
  5
1ABE4
  8
0
 10
4393.1486872644263713
 20
258.7776508106554729
 30
0.0
 40
0.1968567960332542
 50
270.3003292066778727
 51
307.0094726179993927
  0
ARC
  5
1ABE5
  8
0
 10
4396.5566025042971887
 20
259.0009433636714107
 30
0.0
 40
0.3149606299
 50
321.8233695684020859
 51
356.9999999999986926
  0
ARC
  5
1ABE6
  8
0
 10
4396.8351450851969275
 20
258.7819358712714006
 30
0.0
 40
0.0393700787
 50
141.8233695680875996
 51
180.0
  0
ARC
  5
1ABE7
  8
0
 10
4396.8939384932973553
 20
259.043514715971412
 30
0.0
 40
0.0196850394
 50
90.0
 51
176.9999999999988063
  0
ARC
  5
1ABE8
  8
0
 10
4396.6391185569445952
 20
260.0671619681018001
 30
0.0
 40
0.23622775825265
 50
14.6776938250344493
 51
102.805392635886605
  0
ARC
  5
1ABE9
  8
0
 10
4396.7570931275313342
 20
259.9108314364498256
 30
0.0
 40
0.0788926980263781
 50
286.7686365071770069
 51
293.0466996634800125
  0
ARC
  5
1ABEA
  8
0
 10
4396.757154452816394
 20
259.9106774413506855
 30
0.0
 40
0.0787269862742879
 50
293.0495056289038871
 51
304.6069307274415223
  0
ARC
  5
1ABEB
  8
0
 10
4397.4058978830425986
 20
259.7133190493896109
 30
0.0
 40
0.5124923297769799
 50
183.9717025641093926
 51
15.9899447797665708
  0
ARC
  5
1ABEC
  8
0
 10
4397.9195698094981708
 20
259.043514715971412
 30
0.0
 40
0.0196850394
 50
3.000000000001227
 51
90.0
  0
ARC
  5
1ABED
  8
0
 10
4397.5190183973973035
 20
260.7278824444713905
 30
0.0
 40
0.1181102362
 50
16.3638774749015106
 51
107.4159862797003058
  0
ARC
  5
1ABEE
  8
0
 10
4400.9627388223707385
 20
259.7411093882769251
 30
0.0
 40
3.0445422635768491
 50
180.6102479591953056
 51
181.7166299296852969
  0
ARC
  5
1ABEF
  8
0
 10
4391.5370921175290277
 20
279.8058146698616042
 30
0.0
 40
20.1512514611433211
 50
284.5123304276597764
 51
287.7366557181035205
  0
ARC
  5
1ABF0
  8
0
 10
4391.8610626628960745
 20
278.7741251337714061
 30
0.0
 40
18.7943020463000003
 50
286.3345933730158777
 51
287.4074808094242144
  0
ARC
  5
1ABF1
  8
0
 10
4443.66999235739695
 20
104.1386593560714005
 30
0.0
 40
162.6042032555999981
 50
106.7603821852796955
 51
107.8420805474197977
  0
LINE
  5
1ABF2
  8
0
 10
4397.9191813736633776
 20
259.0631997553713859
 30
0.0
 11
4397.9231155089955791
 21
259.0639079390713846
 31
0.0
  0
ARC
  5
1ABF3
  8
0
 10
4390.0033509880913698
 20
288.2713195137931734
 30
0.0
 40
29.2686518131927116
 50
270.5065787098363899
 51
273.8123974231244233
  0
ARC
  5
1ABF4
  8
0
 10
4390.3194967922318028
 20
284.6171991375550192
 30
0.0
 40
25.601699761766799
 50
273.6501792806046751
 51
279.2533592806491924
  0
ARC
  5
1ABF5
  8
0
 10
4390.6161723951927343
 20
283.1042190773630978
 30
0.0
 40
24.0607536094551406
 50
279.1354205146316758
 51
283.5227012834665743
  0
ARC
  5
1ABF6
  8
0
 10
4389.2156638778324123
 20
289.9757246109853099
 30
0.0
 40
31.0702112105329817
 50
283.07074048681352
 51
284.3520251632430131
  0
ARC
  5
1ABF7
  8
0
 10
4392.0701048015707784
 20
279.4837571447071127
 30
0.0
 40
20.1988024751434594
 50
283.8850581946846887
 51
286.5399721451184973
  0
ARC
  5
1ABF8
  8
0
 10
4396.8271345809162085
 20
259.7932272236647009
 30
0.0
 40
0.0712549765057266
 50
3.2828073592773328
 51
67.6278270826059327
  0
ARC
  5
1ABF9
  8
0
 10
4397.9179602643380349
 20
259.0828731284184983
 30
0.0
 40
0.019653370053734
 50
285.2070804611450967
 51
1.872212080966188
  0
ARC
  5
1ABFA
  8
0
 10
4390.3133706892940609
 20
258.7943452749038897
 30
0.0
 40
0.189857119848811
 50
41.1070894789632035
 51
68.4068942695422919
  0
ARC
  5
1ABFB
  8
0
 10
4389.3448163792236301
 20
255.39115622302171
 30
0.0
 40
3.727295981004874
 50
73.8233422944354487
 51
75.7528094199163604
  0
ARC
  5
1ABFC
  8
0
 10
4382.8633424776835454
 20
258.7889929737517036
 30
0.0
 40
0.0407774577331826
 50
181.9446867420878959
 51
268.0501936753850032
  0
ARC
  5
1ABFD
  8
0
 10
4383.8640105986951312
 20
258.7889929735695773
 30
0.0
 40
0.0407774575414737
 50
271.9498059322583003
 51
358.0553135047737783
  0
ARC
  5
1ABFE
  8
0
 10
4382.8427146262592942
 20
258.8869495685063953
 30
0.0
 40
0.0402902426606552
 50
201.4726071579644042
 51
269.0976564832077997
  0
ARC
  5
1ABFF
  8
0
 10
4382.6218340931136481
 20
258.8136608419632125
 30
0.0
 40
0.1925036369190881
 50
17.7039856862363791
 51
81.0328627058902242
  0
ARC
  5
1AC00
  8
0
 10
4383.8877094125709846
 20
258.8864280484506253
 30
0.0
 40
0.0397654701734829
 50
270.5366098384757834
 51
332.0224359952177906
  0
ARC
  5
1AC01
  8
0
 10
4384.093965301965909
 20
258.7981381277871833
 30
0.0
 40
0.1847624219099574
 50
109.8610962319353064
 51
157.8588909000800129
  0
LINE
  5
1AC02
  8
0
 10
4384.0311939287958012
 20
258.9719107011713959
 30
0.0
 11
4384.1434050726438727
 21
259.0038116807702977
 31
0.0
  0
ARC
  5
1AC03
  8
0
 10
4397.6646684377701604
 20
260.2240446099115729
 30
0.0
 40
0.1203135357642839
 50
16.8169473538579588
 51
83.513092279040066
  0
ARC
  5
1AC04
  8
0
 10
4397.6673031376876679
 20
260.211547810944694
 30
0.0
 40
0.1324939615356658
 50
85.2559553097923555
 51
104.3513760972060993
  0
ARC
  5
1AC05
  8
0
 10
3723.5095256090698967
 20
2686.3666072431851717
 30
0.0
 40
2517.9455871090008259
 50
285.5130917868768279
 51
285.5291236899225282
  0
ARC
  5
1AC06
  8
0
 10
4337.3009610671124392
 20
475.4343320776836208
 30
0.0
 40
223.3952294929758864
 50
285.4097197148678902
 51
285.4879889532908237
  0
ARC
  5
1AC07
  8
0
 10
4390.4156079697531823
 20
283.0478678958230034
 30
0.0
 40
23.8115362674672895
 50
283.17779986033662
 51
285.2068103083108213
  0
ARC
  5
1AC08
  8
0
 10
4390.4865831011256887
 20
283.5270119791828733
 30
0.0
 40
24.2625381736882915
 50
276.5444302706587791
 51
282.7566514893820795
  0
ARC
  5
1AC09
  8
0
 10
4390.2406730292432258
 20
285.7357752211544266
 30
0.0
 40
26.4849369244094213
 50
273.6349176492091146
 51
276.5283498987731718
  0
ARC
  5
1AC0A
  8
0
 10
4390.1147217105062737
 20
285.5277035593516075
 30
0.0
 40
26.2856359374042405
 50
269.4812231788516215
 51
273.9376614973608071
  0
ARC
  5
1AC0B
  8
0
 10
4384.2415010977629208
 20
-560.6115307855390029
 30
0.0
 40
819.8740423345823274
 50
89.6061869427405782
 51
90.3786864027843677
  0
ARC
  5
1AC0C
  8
0
 10
4378.826390374219045
 20
259.1265449084369834
 30
0.0
 40
0.1181161831604581
 50
91.7773604547165149
 51
179.9972278490635063
  0
ARC
  5
1AC0D
  8
0
 10
4390.1302524337279465
 20
284.7292802115990753
 30
0.0
 40
25.2704903749950205
 50
281.3753789371685912
 51
284.8029758855158207
  0
ARC
  5
1AC0E
  8
0
 10
4390.7031439526826944
 20
281.3373711511496822
 30
0.0
 40
21.8324810413728407
 50
273.2081805234307126
 51
281.6571530000766757
  0
ARC
  5
1AC0F
  8
0
 10
4383.8719108709310603
 20
259.2733771831995
 30
0.0
 40
0.0305096290544191
 50
338.9941263451366922
 51
1.9700644361028019
  0
ARC
  5
1AC10
  8
0
 10
4383.8985902691829324
 20
259.3547705979830198
 30
0.0
 40
0.0216280795251751
 50
280.1520768236921981
 51
324.7300078918332815
  0
ARC
  5
1AC11
  8
0
 10
4382.8240677557387244
 20
259.3549638482863884
 30
0.0
 40
0.0218234795180437
 50
214.9818085980272997
 51
259.8614808558260734
  0
ARC
  5
1AC12
  8
0
 10
4382.5862763212871869
 20
259.2532773301213069
 30
0.0
 40
0.2373033075889233
 50
22.0727705726862986
 51
83.3067745032736724
  0
ARC
  5
1AC13
  8
0
 10
4382.8558127921542109
 20
259.2739712908302181
 30
0.0
 40
0.0355894971649032
 50
179.2679036360879081
 51
200.8853209843570937
  0
ARC
  5
1AC14
  8
0
 10
4389.999389163847809
 20
285.3617533099370007
 30
0.0
 40
25.6396989790930085
 50
277.9726416277139833
 51
286.1866216862889019
  0
ARC
  5
1AC15
  8
0
 10
4390.2641598199206783
 20
285.9239542482970933
 30
0.0
 40
26.1619540248061213
 50
270.3287169861266079
 51
277.2275926432462825
  0
ARC
  5
1AC16
  8
0
 10
4396.8957136432127299
 20
259.0830035326766279
 30
0.0
 40
0.0198150908825164
 50
178.5202594043844044
 51
268.0637552096854961
  0
ARC
  5
1AC17
  8
0
 10
4379.823986326294289
 20
257.0686602066194837
 30
0.0
 40
1.9087886808314201
 50
51.4144769109763615
 51
63.6889883546978126
  0
ARC
  5
1AC18
  8
0
 10
4379.770113231283176
 20
256.9705369410647222
 30
0.0
 40
2.0206310975302841
 50
63.5528990136222376
 51
80.9674051863976842
  0
ARC
  5
1AC19
  8
0
 10
4379.4132901372677225
 20
253.2742621482809113
 30
0.0
 40
5.7316217831040879
 50
83.2462267877975677
 51
88.4592467509246916
  0
ARC
  5
1AC1A
  8
0
 10
4384.1497478577639413
 20
259.2464487179983053
 30
0.0
 40
0.2520510607110784
 50
143.1763425506416922
 51
156.8175244532004911
  0
ARC
  5
1AC1B
  8
0
 10
4384.1332549152666616
 20
259.2596282720377872
 30
0.0
 40
0.2309504611660244
 50
119.0706371490636002
 51
143.341297687167895
  0
ARC
  5
1AC1C
  8
0
 10
4384.138154997302081
 20
259.2517570583124211
 30
0.0
 40
0.240211395817593
 50
99.0725486135734883
 51
119.1799404781527016
  0
LINE
  5
1AC1E
  8
0
 10
4390.2621254185405633
 20
259.0038116807702977
 30
0.0
 11
4378.7082741911972334
 21
259.0038116807702977
 31
0.0
  0
LINE
  5
1AC1F
  8
0
 10
4390.2319408972607562
 20
259.4889632821714258
 30
0.0
 11
4378.705962447865204
 21
259.4889632821714258
 31
0.0
  0
LINE
  5
1AC20
  8
0
 10
4390.4142551947206812
 20
259.7624307877924821
 30
0.0
 11
4378.8033266329375692
 21
259.7624307877924821
 31
0.0
  0
ATTDEF
  5
1AC21
  8
DEFPOINTS
 10
4397.9550461142716813
 20
258.751743583523421
 30
0.0
 40
0.001
  1
K-77070T
  3

  2
MODELNUMBER
 70
     0
1001
ACDBATTR
1070
     0
1070
     1
  0
ATTDEF
  5
1AC22
  8
DEFPOINTS
 10
4397.9549203046153707
 20
258.750076743144291
 30
0.0
 40
0.001
  1
VEIL
  3

  2
TRADENAME
 70
     0
1001
ACDBATTR
1070
     0
1070
     1
  0
ATTDEF
  5
1AC23
  8
DEFPOINTS
 10
4397.9550461142716813
 20
258.7484102501900907
 30
0.0
 40
0.001
  1
TOILET SEAT
  3

  2
PRODUCT
 70
     0
1001
ACDBATTR
1070
     0
1070
     1
  0
ENDSEC
  0
EOF
