  0
SECTION
  2
HEADER
  9
$ACADVER
  1
AC1009
  9
$INSBASE
 10
4106.2470996721649499
 20
160.6483475457430075
 30
0.0
  9
$EXTMIN
 10
4083.0384085209648219
 20
160.6483475457430075
 30
0.0
  9
$EXTMAX
 10
4106.2544751897276001
 20
194.3097648685429988
 30
0.0
  9
$LIMMIN
 10
0.0
 20
0.0
  9
$LIMMAX
 10
11.6929133858000007
 20
8.2677165353999982
  9
$ORTHOMODE
 70
     0
  9
$REGENMODE
 70
     1
  9
$FILLMODE
 70
     1
  9
$QTEXTMODE
 70
     0
  9
$MIRRTEXT
 70
     0
  9
$DRAGMODE
 70
     2
  9
$LTSCALE
 40
0.6431102362
  9
$OSMODE
 70
  4095
  9
$ATTMODE
 70
     1
  9
$TEXTSIZE
 40
0.2
  9
$TRACEWID
 40
0.05
  9
$TEXTSTYLE
  7
STANDARD
  9
$CLAYER
  8
0
  9
$CELTYPE
  6
BYLAYER
  9
$CECOLOR
 62
   256
  9
$DIMSCALE
 40
1.0
  9
$DIMASZ
 40
0.1875
  9
$DIMEXO
 40
0.0625
  9
$DIMDLI
 40
0.4443307087
  9
$DIMRND
 40
0.0
  9
$DIMDLE
 40
0.0
  9
$DIMEXE
 40
0.125
  9
$DIMTP
 40
0.01
  9
$DIMTM
 40
0.01
  9
$DIMTXT
 40
2.0
  9
$DIMCEN
 40
0.1052362205
  9
$DIMTSZ
 40
0.0
  9
$DIMTOL
 70
     1
  9
$DIMLIM
 70
     0
  9
$DIMTIH
 70
     1
  9
$DIMTOH
 70
     1
  9
$DIMSE1
 70
     0
  9
$DIMSE2
 70
     0
  9
$DIMTAD
 70
     0
  9
$DIMZIN
 70
     0
  9
$DIMBLK
  1

  9
$DIMASO
 70
     1
  9
$DIMSHO
 70
     1
  9
$DIMPOST
  1
\X
  9
$DIMAPOST
  1

  9
$DIMALT
 70
     1
  9
$DIMALTD
 70
     2
  9
$DIMALTF
 40
25.3999999999999986
  9
$DIMLFAC
 40
1.0
  9
$DIMTOFL
 70
     0
  9
$DIMTVP
 40
0.0
  9
$DIMTIX
 70
     0
  9
$DIMSOXD
 70
     0
  9
$DIMSAH
 70
     0
  9
$DIMBLK1
  1

  9
$DIMBLK2
  1

  9
$DIMSTYLE
  2
STANDARD
  9
$DIMCLRD
 70
     0
  9
$DIMCLRE
 70
     0
  9
$DIMCLRT
 70
     0
  9
$DIMTFAC
 40
1.0
  9
$DIMGAP
 40
0.09
  9
$LUNITS
 70
     2
  9
$LUPREC
 70
     4
  9
$SKETCHINC
 40
0.1
  9
$FILLETRAD
 40
0.0
  9
$AUNITS
 70
     0
  9
$AUPREC
 70
     0
  9
$MENU
  1
.
  9
$ELEVATION
 40
0.0
  9
$PELEVATION
 40
0.0
  9
$THICKNESS
 40
0.0
  9
$LIMCHECK
 70
     0
  9
$BLIPMODE
 70
     0
  9
$CHAMFERA
 40
0.0
  9
$CHAMFERB
 40
0.0
  9
$SKPOLY
 70
     0
  9
$TDCREATE
 40
2458060.468368056230247
  9
$TDUPDATE
 40
2460517.5978819448500872
  9
$TDINDWG
 40
0.4179121528
  9
$TDUSRTIMER
 40
0.4179121528
  9
$USRTIMER
 70
     1
  9
$ANGBASE
 50
0.0
  9
$ANGDIR
 70
     0
  9
$PDMODE
 70
     0
  9
$PDSIZE
 40
0.3125
  9
$PLINEWID
 40
0.0
  9
$COORDS
 70
     1
  9
$SPLFRAME
 70
     0
  9
$SPLINETYPE
 70
     6
  9
$SPLINESEGS
 70
     8
  9
$ATTDIA
 70
     1
  9
$ATTREQ
 70
     1
  9
$HANDLING
 70
     1
  9
$HANDSEED
  5
151E4
  9
$SURFTAB1
 70
     6
  9
$SURFTAB2
 70
     6
  9
$SURFTYPE
 70
     6
  9
$SURFU
 70
     6
  9
$SURFV
 70
     6
  9
$UCSNAME
  2

  9
$UCSORG
 10
0.0
 20
0.0
 30
0.0
  9
$UCSXDIR
 10
1.0
 20
0.0
 30
0.0
  9
$UCSYDIR
 10
0.0
 20
1.0
 30
0.0
  9
$PUCSNAME
  2

  9
$PUCSORG
 10
0.0
 20
0.0
 30
0.0
  9
$PUCSXDIR
 10
1.0
 20
0.0
 30
0.0
  9
$PUCSYDIR
 10
0.0
 20
1.0
 30
0.0
  9
$USERI1
 70
     0
  9
$USERI2
 70
     0
  9
$USERI3
 70
     0
  9
$USERI4
 70
     0
  9
$USERI5
 70
     0
  9
$USERR1
 40
0.0
  9
$USERR2
 40
0.0
  9
$USERR3
 40
0.0
  9
$USERR4
 40
0.0
  9
$USERR5
 40
0.0
  9
$WORLDVIEW
 70
     1
  9
$SHADEDGE
 70
     3
  9
$SHADEDIF
 70
    70
  9
$TILEMODE
 70
     1
  9
$MAXACTVP
 70
    64
  9
$PLIMCHECK
 70
     0
  9
$PEXTMIN
 10
1.0000000000000000E+20
 20
1.0000000000000000E+20
 30
1.0000000000000000E+20
  9
$PEXTMAX
 10
-1.0000000000000000E+20
 20
-1.0000000000000000E+20
 30
-1.0000000000000000E+20
  9
$PLIMMIN
 10
0.0
 20
0.0
  9
$PLIMMAX
 10
12.0
 20
9.0
  9
$UNITMODE
 70
     0
  9
$VISRETAIN
 70
     1
  9
$PLINEGEN
 70
     0
  9
$PSLTSCALE
 70
     1
  0
ENDSEC
  0
SECTION
  2
TABLES
  0
TABLE
  2
VPORT
 70
     1
  0
VPORT
  2
*ACTIVE
 70
     0
 10
0.0
 20
0.0
 11
1.0
 21
1.0
 12
183.287350684965503
 22
44.901754879008422
 13
0.0
 23
0.0
 14
1.0
 24
1.0
 15
0.0
 25
0.0
 16
0.0
 26
0.0
 36
60.4960186965801583
 17
3911.3653564453120453
 27
132.5796051025390057
 37
0.0
 40
33.9089314392943209
 41
2.1579545454545448
 42
50.0
 43
0.0
 44
0.0
 50
0.0
 51
0.0
 71
     0
 72
   100
 73
     1
 74
     1
 75
     0
 76
     0
 77
     0
 78
     0
  0
ENDTAB
  0
TABLE
  2
LTYPE
 70
     2
  0
LTYPE
  2
CONTINUOUS
 70
     0
  3
Solid line
 72
    65
 73
     0
 40
0.0
  0
LTYPE
  2
PHANTOM2
 70
     0
  3
___ _ _ ___ _ _ ___ _ _ ___ _ _
 72
    65
 73
     6
 40
1.25
 49
0.625
 49
-0.125
 49
0.125
 49
-0.125
 49
0.125
 49
-0.125
  0
ENDTAB
  0
TABLE
  2
LAYER
 70
     2
  0
LAYER
  2
0
 70
     0
 62
   255
  6
CONTINUOUS
  0
LAYER
  2
DEFPOINTS
 70
     0
 62
     7
  6
CONTINUOUS
  0
ENDTAB
  0
TABLE
  2
STYLE
 70
     1
  0
STYLE
  2
STANDARD
 70
     0
 40
0.0
 41
0.8
 50
0.0
 71
     0
 42
0.2
  3
txt
  4

  0
ENDTAB
  0
TABLE
  2
VIEW
 70
     0
  0
ENDTAB
  0
TABLE
  2
UCS
 70
     0
  0
ENDTAB
  0
TABLE
  2
APPID
 70
    10
  0
APPID
  2
ACAD
 70
     0
  0
APPID
  2
ACAD_MLEADERVER
 70
     0
  0
APPID
  2
ACAD_EXEMPT_FROM_CAD_STANDARDS
 70
     0
  0
APPID
  2
ACAD_NAV_VCDISPLAY
 70
     0
  0
APPID
  2
ACAECLAYERSTANDARD
 70
     0
  0
APPID
  2
ACCMTRANSPARENCY
 70
     0
  0
APPID
  2
ACAD_DSTYLE_DIMJAG
 70
     0
  0
APPID
  2
ACAD_DSTYLE_DIMTALN
 70
     0
  0
APPID
  2
ACDBATTR
 70
     0
  0
APPID
  2
ACADANNOTATIVE
 70
     0
  0
ENDTAB
  0
TABLE
  2
DIMSTYLE
 70
     1
  0
DIMSTYLE
  2
STANDARD
 70
     0
  3

  4

  5

  6

  7

 40
1.0
 41
0.1875
 42
0.0625
 43
0.38
 44
0.125
 45
0.0
 46
0.0
 47
0.01
 48
0.01
140
0.15625
141
0.09
142
0.0
143
25.3999999999999986
144
1.0
145
0.0
146
1.0
147
0.09
 71
     1
 72
     0
 73
     1
 74
     1
 75
     0
 76
     0
 77
     0
 78
     4
170
     0
171
     2
172
     0
173
     0
174
     0
175
     0
176
     0
177
     0
178
     0
  0
ENDTAB
  0
ENDSEC
  0
SECTION
  2
BLOCKS
  0
BLOCK
  8
0
  2
$MODEL_SPACE
 70
     0
 10
0.0
 20
0.0
 30
0.0
  3
$MODEL_SPACE
  1

  0
ENDBLK
  5
21
  8
0
  0
BLOCK
 67
     1
  8
0
  2
$PAPER_SPACE
 70
     0
 10
0.0
 20
0.0
 30
0.0
  3
$PAPER_SPACE
  1

  0
ENDBLK
  5
1D
 67
     1
  8
0
  0
ENDSEC
  0
SECTION
  2
ENTITIES
  0
ATTDEF
  5
14D1C
  8
DEFPOINTS
 10
4106.2438085230587603
 20
160.6518934596801955
 30
0.0
 40
0.001
  1
K-77127T
  3

  2
MODELNUMBER
 70
     0
1001
ACDBATTR
1070
     0
1070
     1
  0
ATTDEF
  5
14D1D
  8
DEFPOINTS
 10
4106.2436827134033592
 20
160.6502266193010087
 30
0.0
 40
0.001
  1
MING
  3

  2
TRADENAME
 70
     0
1001
ACDBATTR
1070
     0
1070
     1
  0
ATTDEF
  5
14D1E
  8
DEFPOINTS
 10
4106.2438085230587603
 20
160.6485601263468936
 30
0.0
 40
0.001
  1
VANITY CABINET
  3

  2
PRODUCT
 70
     0
1001
ACDBATTR
1070
     0
1070
     1
  0
LINE
  5
150CF
  8
0
 10
4084.6722667886651834
 20
194.3097648685429988
 30
0.0
 11
4106.2470699383648025
 21
194.3097648685429988
 31
0.0
  0
LINE
  5
150D0
  8
0
 10
4083.9242352913652212
 20
193.8373239236429981
 30
0.0
 11
4106.247099748364235
 21
193.8373239236429981
 31
0.0
  0
LINE
  5
150D1
  8
0
 10
4083.9242352913652212
 20
161.0026782543430102
 30
0.0
 11
4083.9242352913652212
 21
193.8373239236429981
 31
0.0
  0
LINE
  5
150D2
  8
0
 10
4083.9242352913652212
 20
161.0026782543430102
 30
0.0
 11
4085.4681203488648862
 21
161.0026782543430102
 31
0.0
  0
LINE
  5
150D3
  8
0
 10
4084.498068346564196
 20
160.6483475457430075
 30
0.0
 11
4085.1041281390648692
 21
160.6483475457430075
 31
0.0
  0
LINE
  5
150D4
  8
0
 10
4084.498068346564196
 20
160.9239380969430044
 30
0.0
 11
4085.1041281390648692
 21
160.9239380969430044
 31
0.0
  0
LINE
  5
150D5
  8
0
 10
4083.0499045059677883
 20
191.5932294345429909
 30
0.0
 11
4083.9242352913652212
 21
191.5932294345429909
 31
0.0
  0
LINE
  5
150D6
  8
0
 10
4083.0384085209648219
 20
191.5817215504247031
 30
0.0
 11
4083.0384085209648219
 21
190.9022819842500951
 31
0.0
  0
LINE
  5
150D7
  8
0
 10
4083.0498634946529819
 20
190.890815082143007
 30
0.0
 11
4083.1958888005651716
 21
190.890815082143007
 31
0.0
  0
LINE
  5
150D8
  8
0
 10
4083.4517943123651094
 20
190.890815082143007
 30
0.0
 11
4083.9242352913652212
 21
190.890815082143007
 31
0.0
  0
LINE
  5
150D9
  8
0
 10
4083.4517943123651094
 20
191.2484450668430043
 30
0.0
 11
4083.4517943123651094
 21
188.5322058134429994
 31
0.0
  0
LINE
  5
150DA
  8
0
 10
4083.1958888005651716
 20
191.2484450668312945
 30
0.0
 11
4083.1958888005651716
 21
188.5322058134429994
 31
0.0
  0
LINE
  5
150DB
  8
0
 10
4084.498068346564196
 20
160.9239380969430044
 30
0.0
 11
4084.498068346564196
 21
160.6483475457430075
 31
0.0
  0
LINE
  5
150DC
  8
0
 10
4085.1041281390648692
 20
160.9239380969430044
 30
0.0
 11
4085.1041281390648692
 21
160.6483475457430075
 31
0.0
  0
LINE
  5
150DD
  8
0
 10
4084.6358636221648339
 20
161.0026782543430102
 30
0.0
 11
4084.6358636221648339
 21
160.9239380969430044
 31
0.0
  0
LINE
  5
150DE
  8
0
 10
4084.9663328634651407
 20
161.0026782543430102
 30
0.0
 11
4084.9663328634651407
 21
160.9239380969430044
 31
0.0
  0
ARC
  5
150DF
  8
0
 10
4083.0500725863162188
 20
191.5815655368340913
 30
0.0
 40
0.0116651086907999
 50
90.8255926367578326
 51
179.2336816535795094
  0
ARC
  5
150E0
  8
0
 10
4083.0500520984592185
 20
190.9024584696464899
 30
0.0
 40
0.0116449149397245
 50
180.8683838015662104
 51
269.0719833801937853
  0
ARC
  5
150E1
  8
0
 10
4083.3238415564651405
 20
191.2462783788569993
 30
0.0
 40
0.1279710993905772
 50
0.9701253610851303
 51
179.0298746389148903
  0
ARC
  5
150E2
  8
0
 10
4083.3238415564651405
 20
188.5322058134429994
 30
0.0
 40
0.1279527559000009
 50
180.0
 51
0.0
  0
LINE
  5
150E3
  8
0
 10
4085.4681203488648862
 20
161.0026782543430102
 30
0.0
 11
4085.8461689555160774
 21
176.3176415608429863
 31
0.0
  0
LINE
  5
150E4
  8
0
 10
4085.8461689555160774
 20
176.3176415608429863
 30
0.0
 11
4104.3251660080140937
 21
176.3176415608429863
 31
0.0
  0
LINE
  5
150E5
  8
0
 10
4084.7287818480649548
 20
177.4607483983429859
 30
0.0
 11
4085.8461689555160774
 21
176.3176415608429863
 31
0.0
  0
LINE
  5
150E6
  8
0
 10
4084.725592411785783
 20
161.0026782543430102
 30
0.0
 11
4084.7319554913678985
 21
193.8373239236429981
 31
0.0
  0
LINE
  5
150E7
  8
0
 10
4083.9256920923648977
 20
178.0892924276429881
 30
0.0
 11
4106.245652834863904
 21
178.0892924276429881
 31
0.0
  0
LINE
  5
150E8
  8
0
 10
4084.7287818480649548
 20
177.4607483983429859
 30
0.0
 11
4105.4425531154647615
 21
177.4607483983429859
 31
0.0
  0
LINE
  5
150E9
  8
0
 10
4084.6722667886651834
 20
194.3097648685429988
 30
0.0
 11
4084.6722667886651834
 21
193.8373239236429981
 31
0.0
  0
LINE
  5
150EA
  8
0
 10
4083.3632116705639419
 20
191.4094109697429928
 30
0.0
 11
4083.9234478910648249
 21
191.4094109697429928
 31
0.0
  0
LINE
  5
150EB
  8
0
 10
4083.4517943123651094
 20
191.1416944342429929
 30
0.0
 11
4083.9234478910648249
 21
191.1416944342429929
 31
0.0
  0
ARC
  5
150EC
  8
0
 10
4083.3632116707672139
 20
191.3700408908065924
 30
0.0
 40
0.0393700789364147
 50
90.0000002938494674
 51
173.7518347738557054
  0
LINE
  5
150ED
  8
0
 10
4083.0654912586428509
 20
190.9061982912429869
 30
0.0
 11
4083.1958888005651716
 21
190.9061982912429869
 31
0.0
  0
LINE
  5
150EE
  8
0
 10
4083.4517943123651094
 20
190.9061982912429869
 30
0.0
 11
4083.9242352913652212
 21
190.9061982912429869
 31
0.0
  0
LINE
  5
150EF
  8
0
 10
4083.053559701865197
 20
190.9203831702430136
 30
0.0
 11
4083.053559701865197
 21
191.5636613514429882
 31
0.0
  0
LINE
  5
150F0
  8
0
 10
4083.0654912326831436
 20
191.5778462154430031
 30
0.0
 11
4083.9242352913652212
 21
191.5778462154430031
 31
0.0
  0
ARC
  5
150F1
  8
0
 10
4083.0676244686069367
 20
191.5639413470316867
 30
0.0
 40
0.0140675534847662
 50
98.7221112596893846
 51
181.1404701567990969
  0
ARC
  5
150F2
  8
0
 10
4083.0688658945550742
 20
190.9211473845483056
 30
0.0
 40
0.0153252588295895
 50
182.8583152824554929
 51
257.2791664296714771
  0
LINE
  5
150F3
  8
0
 10
4083.0418198433071666
 20
191.5898097465343142
 30
0.0
 11
4083.0576894904970686
 21
191.5739008786972875
 31
0.0
  0
LINE
  5
150F4
  8
0
 10
4083.0571378922791155
 20
190.9112824202400986
 30
0.0
 11
4083.0418136162220435
 21
190.8942285574727009
 31
0.0
  0
LINE
  5
150F5
  8
0
 10
4083.0499045059677883
 20
183.7192341578486037
 30
0.0
 11
4083.9242352913652212
 21
183.7192341578486037
 31
0.0
  0
LINE
  5
150F6
  8
0
 10
4083.0384085209648219
 20
183.7077262737302874
 30
0.0
 11
4083.0384085209648219
 21
183.0282867075557078
 31
0.0
  0
LINE
  5
150F7
  8
0
 10
4083.0498634946529819
 20
183.0168198054485913
 30
0.0
 11
4083.1958888005651716
 21
183.0168198054485913
 31
0.0
  0
LINE
  5
150F8
  8
0
 10
4083.4517943123651094
 20
183.0168198054485913
 30
0.0
 11
4083.9242352913652212
 21
183.0168198054485913
 31
0.0
  0
LINE
  5
150F9
  8
0
 10
4083.4517943123651094
 20
183.3744497901485886
 30
0.0
 11
4083.4517943123651094
 21
180.6582105367486122
 31
0.0
  0
LINE
  5
150FA
  8
0
 10
4083.1958888005651716
 20
183.3744497901369073
 30
0.0
 11
4083.1958888005651716
 21
180.6582105367486122
 31
0.0
  0
ARC
  5
150FB
  8
0
 10
4083.0500725863162188
 20
183.707570260139704
 30
0.0
 40
0.0116651086907999
 50
90.8255926367578326
 51
179.2336816535795094
  0
ARC
  5
150FC
  8
0
 10
4083.0500520984592185
 20
183.0284631929521879
 30
0.0
 40
0.0116449149397245
 50
180.8683838015662104
 51
269.0719833801937853
  0
ARC
  5
150FD
  8
0
 10
4083.3238415564651405
 20
183.3722831021626121
 30
0.0
 40
0.1279710993905772
 50
0.9701253610851303
 51
179.0298746389148903
  0
ARC
  5
150FE
  8
0
 10
4083.3238415564651405
 20
180.6582105367486122
 30
0.0
 40
0.1279527559000009
 50
180.0
 51
0.0
  0
LINE
  5
150FF
  8
0
 10
4083.3632116705639419
 20
183.5354156930486056
 30
0.0
 11
4083.9234478910648249
 21
183.5354156930486056
 31
0.0
  0
LINE
  5
15100
  8
0
 10
4083.4517943123651094
 20
183.2676991575486056
 30
0.0
 11
4083.9234478910648249
 21
183.2676991575486056
 31
0.0
  0
ARC
  5
15101
  8
0
 10
4083.3632116707672139
 20
183.4960456141122052
 30
0.0
 40
0.0393700789364147
 50
90.0000002938494674
 51
173.7518347738557054
  0
LINE
  5
15102
  8
0
 10
4083.0654912586428509
 20
183.0322030145485996
 30
0.0
 11
4083.1958888005651716
 21
183.0322030145485996
 31
0.0
  0
LINE
  5
15103
  8
0
 10
4083.4517943123651094
 20
183.0322030145485996
 30
0.0
 11
4083.9242352913652212
 21
183.0322030145485996
 31
0.0
  0
LINE
  5
15104
  8
0
 10
4083.053559701865197
 20
183.046387893548598
 30
0.0
 11
4083.053559701865197
 21
183.689666074748601
 31
0.0
  0
LINE
  5
15105
  8
0
 10
4083.0654912326831436
 20
183.7038509387485874
 30
0.0
 11
4083.9242352913652212
 21
183.7038509387485874
 31
0.0
  0
ARC
  5
15106
  8
0
 10
4083.0676244686069367
 20
183.6899460703372995
 30
0.0
 40
0.0140675534847662
 50
98.7221112596893846
 51
181.1404701567990969
  0
ARC
  5
15107
  8
0
 10
4083.0688658945550742
 20
183.0471521078538899
 30
0.0
 40
0.0153252588295895
 50
182.8583152824554929
 51
257.2791664296714771
  0
LINE
  5
15108
  8
0
 10
4083.0418198433071666
 20
183.7158144698398985
 30
0.0
 11
4083.0576894904970686
 21
183.6999056020030139
 31
0.0
  0
LINE
  5
15109
  8
0
 10
4083.0571378922791155
 20
183.0372871435457114
 30
0.0
 11
4083.0418136162220435
 21
183.0202332807783137
 31
0.0
  0
LINE
  5
1510A
  8
0
 10
4106.2470996721649499
 20
161.0026782543430102
 30
0.0
 11
4106.2470996721649499
 21
194.3097648685429988
 31
0.0
  0
LINE
  5
1510B
  8
0
 10
4106.2470996721649499
 20
161.0026782543430102
 30
0.0
 11
4104.7032146146648302
 21
161.0026782543430102
 31
0.0
  0
LINE
  5
1510C
  8
0
 10
4105.6732666169664299
 20
160.6483475457430075
 30
0.0
 11
4105.0672068244648472
 21
160.6483475457430075
 31
0.0
  0
LINE
  5
1510D
  8
0
 10
4105.6732666169664299
 20
160.9239380969430044
 30
0.0
 11
4105.0672068244648472
 21
160.9239380969430044
 31
0.0
  0
LINE
  5
1510E
  8
0
 10
4105.6732666169664299
 20
160.9239380969430044
 30
0.0
 11
4105.6732666169664299
 21
160.6483475457430075
 31
0.0
  0
LINE
  5
1510F
  8
0
 10
4105.0672068244648472
 20
160.9239380969430044
 30
0.0
 11
4105.0672068244648472
 21
160.6483475457430075
 31
0.0
  0
LINE
  5
15110
  8
0
 10
4105.5354713413653371
 20
161.0026782543430102
 30
0.0
 11
4105.5354713413653371
 21
160.9239380969430044
 31
0.0
  0
LINE
  5
15111
  8
0
 10
4105.2050021000650304
 20
161.0026782543430102
 30
0.0
 11
4105.2050021000650304
 21
160.9239380969430044
 31
0.0
  0
LINE
  5
15112
  8
0
 10
4104.7032146146648302
 20
161.0026782543430102
 30
0.0
 11
4104.3251660080140937
 21
176.3176415608429863
 31
0.0
  0
LINE
  5
15113
  8
0
 10
4105.4425531154647615
 20
177.4607483983429859
 30
0.0
 11
4104.3251660080140937
 21
176.3176415608429863
 31
0.0
  0
LINE
  5
15114
  8
0
 10
4105.4457425517439333
 20
161.0026782543430102
 30
0.0
 11
4105.4393794721609083
 21
193.8373239236429981
 31
0.0
  0
LINE
  5
15115
  8
0
 10
4105.5384085209652767
 20
194.3097648685429988
 30
0.0
 11
4105.5384085209652767
 21
193.8373239236429981
 31
0.0
  0
LINE
  5
15116
  8
0
 10
4105.0827155133656561
 20
160.9239380969430044
 30
0.0
 11
4105.0827155133656561
 21
160.6483475457430075
 31
0.0
  0
LINE
  5
15117
  8
0
 10
4105.2205107889640203
 20
161.0026782543430102
 30
0.0
 11
4105.2205107889640203
 21
160.9239380969430044
 31
0.0
  0
LINE
  5
15118
  8
0
 10
4084.5135769579651424
 20
160.9239380969430044
 30
0.0
 11
4084.5135769579651424
 21
160.6483475457430075
 31
0.0
  0
LINE
  5
15119
  8
0
 10
4084.6513722335639613
 20
161.0026782543430102
 30
0.0
 11
4084.6513722335639613
 21
160.9239380969430044
 31
0.0
  0
LINE
  5
1511A
  8
0
 10
4085.380928206065164
 20
194.3097648685429988
 30
0.0
 11
4085.380928206065164
 21
193.8373239236429981
 31
0.0
  0
ENDSEC
  0
EOF
