  0
SECTION
  2
HEADER
  9
$ACADVER
  1
AC1009
  9
$INSBASE
 10
645.0518200514668479
 20
117.4777888905639003
 30
0.0
  9
$EXTMIN
 10
637.9500191016250028
 20
117.4723302056265055
 30
-0.0000000000000058
  9
$EXTMAX
 10
652.1796540945025527
 20
134.6862434092847138
 30
0.0000000000000104
  9
$LIMMIN
 10
0.0
 20
0.0
  9
$LIMMAX
 10
11.6929133858000007
 20
8.2677165353999982
  9
$ORTHOMODE
 70
     0
  9
$REGENMODE
 70
     1
  9
$FILLMODE
 70
     1
  9
$QTEXTMODE
 70
     0
  9
$MIRRTEXT
 70
     0
  9
$DRAGMODE
 70
     2
  9
$LTSCALE
 40
0.6431102362
  9
$OSMODE
 70
  4095
  9
$ATTMODE
 70
     1
  9
$TEXTSIZE
 40
0.2
  9
$TRACEWID
 40
0.05
  9
$TEXTSTYLE
  7
STANDARD
  9
$CLAYER
  8
0
  9
$CELTYPE
  6
BYLAYER
  9
$CECOLOR
 62
   256
  9
$DIMSCALE
 40
1.0
  9
$DIMASZ
 40
0.1875
  9
$DIMEXO
 40
0.0625
  9
$DIMDLI
 40
0.4443307087
  9
$DIMRND
 40
0.0
  9
$DIMDLE
 40
0.0
  9
$DIMEXE
 40
0.125
  9
$DIMTP
 40
0.01
  9
$DIMTM
 40
0.01
  9
$DIMTXT
 40
1.0
  9
$DIMCEN
 40
0.1052362205
  9
$DIMTSZ
 40
0.0
  9
$DIMTOL
 70
     1
  9
$DIMLIM
 70
     0
  9
$DIMTIH
 70
     0
  9
$DIMTOH
 70
     1
  9
$DIMSE1
 70
     0
  9
$DIMSE2
 70
     0
  9
$DIMTAD
 70
     0
  9
$DIMZIN
 70
     0
  9
$DIMBLK
  1

  9
$DIMASO
 70
     1
  9
$DIMSHO
 70
     1
  9
$DIMPOST
  1
\X
  9
$DIMAPOST
  1

  9
$DIMALT
 70
     1
  9
$DIMALTD
 70
     2
  9
$DIMALTF
 40
25.3999999999999986
  9
$DIMLFAC
 40
1.0
  9
$DIMTOFL
 70
     0
  9
$DIMTVP
 40
0.0
  9
$DIMTIX
 70
     0
  9
$DIMSOXD
 70
     0
  9
$DIMSAH
 70
     0
  9
$DIMBLK1
  1

  9
$DIMBLK2
  1

  9
$DIMSTYLE
  2
STANDARD
  9
$DIMCLRD
 70
     0
  9
$DIMCLRE
 70
     0
  9
$DIMCLRT
 70
     0
  9
$DIMTFAC
 40
1.0
  9
$DIMGAP
 40
0.09
  9
$LUNITS
 70
     2
  9
$LUPREC
 70
     4
  9
$SKETCHINC
 40
0.1
  9
$FILLETRAD
 40
0.02
  9
$AUNITS
 70
     0
  9
$AUPREC
 70
     0
  9
$MENU
  1
.
  9
$ELEVATION
 40
0.0
  9
$PELEVATION
 40
0.0
  9
$THICKNESS
 40
0.0
  9
$LIMCHECK
 70
     0
  9
$BLIPMODE
 70
     0
  9
$CHAMFERA
 40
0.0
  9
$CHAMFERB
 40
0.0
  9
$SKPOLY
 70
     0
  9
$TDCREATE
 40
2458172.5207638889551163
  9
$TDUPDATE
 40
2459871.5596412038430572
  9
$TDINDWG
 40
0.3875817361
  9
$TDUSRTIMER
 40
0.3875817361
  9
$USRTIMER
 70
     1
  9
$ANGBASE
 50
0.0
  9
$ANGDIR
 70
     0
  9
$PDMODE
 70
     0
  9
$PDSIZE
 40
0.3125
  9
$PLINEWID
 40
0.0
  9
$COORDS
 70
     1
  9
$SPLFRAME
 70
     0
  9
$SPLINETYPE
 70
     6
  9
$SPLINESEGS
 70
     8
  9
$ATTDIA
 70
     1
  9
$ATTREQ
 70
     1
  9
$HANDLING
 70
     1
  9
$HANDSEED
  5
B1A3
  9
$SURFTAB1
 70
     6
  9
$SURFTAB2
 70
     6
  9
$SURFTYPE
 70
     6
  9
$SURFU
 70
     6
  9
$SURFV
 70
     6
  9
$UCSNAME
  2

  9
$UCSORG
 10
0.0
 20
0.0
 30
0.0
  9
$UCSXDIR
 10
1.0
 20
0.0
 30
0.0
  9
$UCSYDIR
 10
0.0
 20
1.0
 30
0.0
  9
$PUCSNAME
  2

  9
$PUCSORG
 10
0.0
 20
0.0
 30
0.0
  9
$PUCSXDIR
 10
1.0
 20
0.0
 30
0.0
  9
$PUCSYDIR
 10
0.0
 20
1.0
 30
0.0
  9
$USERI1
 70
     0
  9
$USERI2
 70
     0
  9
$USERI3
 70
     0
  9
$USERI4
 70
     0
  9
$USERI5
 70
     0
  9
$USERR1
 40
0.0
  9
$USERR2
 40
0.0
  9
$USERR3
 40
0.0
  9
$USERR4
 40
0.0
  9
$USERR5
 40
0.0
  9
$WORLDVIEW
 70
     1
  9
$SHADEDGE
 70
     3
  9
$SHADEDIF
 70
    70
  9
$TILEMODE
 70
     1
  9
$MAXACTVP
 70
    64
  9
$PLIMCHECK
 70
     0
  9
$PEXTMIN
 10
1.0000000000000000E+20
 20
1.0000000000000000E+20
 30
1.0000000000000000E+20
  9
$PEXTMAX
 10
-1.0000000000000000E+20
 20
-1.0000000000000000E+20
 30
-1.0000000000000000E+20
  9
$PLIMMIN
 10
0.0
 20
0.0
  9
$PLIMMAX
 10
12.0
 20
9.0
  9
$UNITMODE
 70
     0
  9
$VISRETAIN
 70
     1
  9
$PLINEGEN
 70
     0
  9
$PSLTSCALE
 70
     1
  0
ENDSEC
  0
SECTION
  2
TABLES
  0
TABLE
  2
VPORT
 70
     1
  0
VPORT
  2
*ACTIVE
 70
     0
 10
0.0
 20
0.0
 11
1.0
 21
1.0
 12
178.3226348902337008
 22
36.9461396875258572
 13
0.0
 23
0.0
 14
1.0
 24
1.0
 15
0.0
 25
0.0
 16
0.0
 26
0.0
 36
24.1179433675886514
 17
466.74220170783002
 27
89.133147119929788
 37
0.0
 40
17.3482220192914696
 41
2.095052083333333
 42
50.0
 43
0.0
 44
0.0
 50
0.0
 51
0.0
 71
     0
 72
   100
 73
     1
 74
     1
 75
     0
 76
     0
 77
     0
 78
     0
  0
ENDTAB
  0
TABLE
  2
LTYPE
 70
     2
  0
LTYPE
  2
CONTINUOUS
 70
     0
  3
Solid line
 72
    65
 73
     0
 40
0.0
  0
LTYPE
  2
PHANTOM2
 70
     0
  3
___ _ _ ___ _ _ ___ _ _ ___ _ _
 72
    65
 73
     6
 40
1.25
 49
0.625
 49
-0.125
 49
0.125
 49
-0.125
 49
0.125
 49
-0.125
  0
ENDTAB
  0
TABLE
  2
LAYER
 70
     2
  0
LAYER
  2
0
 70
     0
 62
   255
  6
CONTINUOUS
  0
LAYER
  2
DEFPOINTS
 70
     0
 62
     7
  6
CONTINUOUS
  0
ENDTAB
  0
TABLE
  2
STYLE
 70
     1
  0
STYLE
  2
STANDARD
 70
     0
 40
0.0
 41
0.8
 50
0.0
 71
     0
 42
0.2
  3
txt
  4

  0
ENDTAB
  0
TABLE
  2
VIEW
 70
     0
  0
ENDTAB
  0
TABLE
  2
UCS
 70
     0
  0
ENDTAB
  0
TABLE
  2
APPID
 70
    11
  0
APPID
  2
ACAD
 70
     0
  0
APPID
  2
ACAD_MLEADERVER
 70
     0
  0
APPID
  2
ACAD_EXEMPT_FROM_CAD_STANDARDS
 70
     0
  0
APPID
  2
ACAD_DSTYLE_DIMJAG
 70
     0
  0
APPID
  2
ACAD_DSTYLE_DIMTALN
 70
     0
  0
APPID
  2
ACAD_NAV_VCDISPLAY
 70
     0
  0
APPID
  2
ACAECLAYERSTANDARD
 70
     0
  0
APPID
  2
ACCMTRANSPARENCY
 70
     0
  0
APPID
  2
DCO15
 70
     0
  0
APPID
  2
ACDBATTR
 70
     0
  0
APPID
  2
ACADANNOTATIVE
 70
     0
  0
ENDTAB
  0
TABLE
  2
DIMSTYLE
 70
     1
  0
DIMSTYLE
  2
STANDARD
 70
     0
  3

  4

  5

  6

  7

 40
1.0
 41
0.1875
 42
0.0625
 43
0.38
 44
0.125
 45
0.0
 46
0.0
 47
0.01
 48
0.01
140
0.15625
141
0.09
142
0.0
143
25.3999999999999986
144
1.0
145
0.0
146
1.0
147
0.09
 71
     1
 72
     0
 73
     1
 74
     1
 75
     0
 76
     0
 77
     0
 78
     4
170
     0
171
     2
172
     0
173
     0
174
     0
175
     0
176
     0
177
     0
178
     0
  0
ENDTAB
  0
ENDSEC
  0
SECTION
  2
BLOCKS
  0
BLOCK
  8
0
  2
$MODEL_SPACE
 70
     0
 10
0.0
 20
0.0
 30
0.0
  3
$MODEL_SPACE
  1

  0
ENDBLK
  5
21
  8
0
  0
BLOCK
 67
     1
  8
0
  2
$PAPER_SPACE
 70
     0
 10
0.0
 20
0.0
 30
0.0
  3
$PAPER_SPACE
  1

  0
ENDBLK
  5
1D
 67
     1
  8
0
  0
ENDSEC
  0
SECTION
  2
ENTITIES
  0
ATTDEF
  5
829
  8
DEFPOINTS
 10
645.0475055897514949
 20
117.4820778262246961
 30
0.0
 40
0.001
  1
K-77142IN
  3

  2
MODELNUMBER
 70
     0
1001
ACDBATTR
1070
     0
1070
     1
  0
ATTDEF
  5
82A
  8
DEFPOINTS
 10
645.0475055897514949
 20
117.480411159558102
 30
0.0
 40
0.001
  1
MODERN LIFE
  3

  2
TRADENAME
 70
     0
1001
ACDBATTR
1070
     0
1070
     1
  0
ATTDEF
  5
82B
  8
DEFPOINTS
 10
645.0475055897514949
 20
117.4787444928913942
 30
0.0
 40
0.001
  1
TOILET
  3

  2
PRODUCT
 70
     0
1001
ACDBATTR
1070
     0
1070
     1
  0
ARC
  5
B028
  8
0
 10
645.07431984083928
 20
120.7875431202094063
 30
0.0
 40
1.3373947679108349
 50
216.8074159749147043
 51
269.0360334723869755
  0
ARC
  5
B029
  8
0
 10
648.499583345044698
 20
123.2801565704123021
 30
0.0
 40
5.573523575547469
 50
203.3813483515965004
 51
216.2271195674188107
  0
ARC
  5
B02A
  8
0
 10
641.9355594200771975
 20
121.3044276322691957
 30
0.0
 40
0.2360479361900563
 50
204.332846165465611
 51
254.8635858572118877
  0
ARC
  5
B02B
  8
0
 10
641.9360730803921342
 20
121.3062400275686059
 30
0.0
 40
0.2379315808861995
 50
254.858145842985607
 51
270.0831485470587268
  0
ARC
  5
B02C
  8
0
 10
697.4182500015472215
 20
144.4044625844508118
 30
0.0
 40
60.3353633047440923
 50
199.1515488566716954
 51
202.6110039517695895
  0
ARC
  5
B02D
  8
0
 10
1387.0594315120010833
 20
392.8083061365427966
 30
0.0
 40
793.345631975350102
 50
199.4472313020719128
 51
199.7586857391422939
  0
ARC
  5
B02E
  8
0
 10
738.1275577167073152
 20
164.4185532156008094
 30
0.0
 40
105.3988144077380014
 50
198.4510442914144051
 51
199.8248583750352907
  0
ARC
  5
B02F
  8
0
 10
641.6129920849615473
 20
132.1005460257586037
 30
0.0
 40
3.618855368810848
 50
187.0400922754641897
 51
196.7032409344124062
  0
ARC
  5
B030
  8
0
 10
651.4564193326457371
 20
132.9696527386651042
 30
0.0
 40
13.4989716075099508
 50
179.8595756030942141
 51
185.5802914959616032
  0
ARC
  5
B031
  8
0
 10
638.1810875960637759
 20
133.0021888905639003
 30
0.0
 40
0.2236
 50
90.0
 51
179.8595756030942141
  0
ARC
  5
B032
  8
0
 10
638.3863952489563189
 20
133.4634388026292129
 30
0.0
 40
0.0226138056354881
 50
229.724575188193711
 51
246.7051832639509996
  0
ARC
  5
B033
  8
0
 10
638.3538470671456935
 20
133.3890744136812998
 30
0.0
 40
0.0585621632114463
 50
45.3586490835869469
 51
66.2290967878777224
  0
ARC
  5
B034
  8
0
 10
638.3496255239267612
 20
133.3849650232170063
 30
0.0
 40
0.0644525157997077
 50
22.5198534755576389
 51
45.25537250678844
  0
ARC
  5
B035
  8
0
 10
638.5068162224332582
 20
133.3315967077552955
 30
0.0
 40
0.0605819561295652
 50
202.6682436695942044
 51
241.3540214413357035
  0
ARC
  5
B036
  8
0
 10
2312853.2749902158975601
 20
4171575.7054484090767801
 30
0.0
 40
4769409.7318637641146779
 50
241.0005620983617121
 51
241.0005634027561996
  0
LINE
  5
B037
  8
0
 10
638.4091633339170357
 20
133.4096505650275901
 30
0.0
 11
638.450914111117072
 21
133.3082487451275995
 31
0.0
  0
ARC
  5
B038
  8
0
 10
637.5625539854763701
 20
130.9707000555281979
 30
0.0
 40
2.6043943379567298
 50
71.8977236851882253
 51
75.8863011921903876
  0
ARC
  5
B039
  8
0
 10
638.1779510831773905
 20
133.3784574370374116
 30
0.0
 40
0.1196490215021687
 50
80.5346748156445358
 51
87.7274254890116651
  0
ARC
  5
B03A
  8
0
 10
638.2417324527021947
 20
134.6703348720718907
 30
0.0
 40
1.1738080930338239
 50
261.0942311480059175
 51
267.1170832814908067
  0
ARC
  5
B03B
  8
0
 10
638.0890640289032945
 20
133.6690080528206863
 30
0.0
 40
0.1609728806797539
 50
247.762962194826514
 51
259.6036352729468035
  0
ARC
  5
B03C
  8
0
 10
638.0483424639086252
 20
133.5825856324368033
 30
0.0
 40
0.0657567953698805
 50
222.0663214731187907
 51
252.1127269414515126
  0
ARC
  5
B03D
  8
0
 10
638.0413814622775135
 20
133.6157046980879954
 30
0.0
 40
0.0846601551970514
 50
185.7911691760955932
 51
212.0810419473600916
  0
ARC
  5
B03E
  8
0
 10
638.1167583898549083
 20
133.6772304785476138
 30
0.0
 40
0.1816076330035812
 50
215.9002486956293012
 51
229.7951499187603872
  0
LINE
  5
B03F
  8
0
 10
651.9225525068701472
 20
133.2257888905639902
 30
0.0
 11
638.1810875960637759
 21
133.2257888905639049
 31
0.0
  0
LINE
  5
B040
  8
0
 10
637.9571533894417144
 20
133.6071622379996029
 30
0.0
 11
637.9675752118413357
 21
133.9120534589249871
 31
0.0
  0
LINE
  5
B041
  8
0
 10
637.9571533894417144
 20
134.2031629399349129
 30
0.0
 11
637.9702349260397796
 21
134.5709706405278041
 31
0.0
  0
ARC
  5
B042
  8
0
 10
638.6212079836806197
 20
117.7209015584085989
 30
0.0
 40
16.2900114740813216
 50
89.9366819230886563
 51
91.9994186680228268
  0
ARC
  5
B043
  8
0
 10
638.055943139727674
 20
133.9126790243643939
 30
0.0
 40
0.0883701420790946
 50
91.9994186680228268
 51
180.4055958042366967
  0
ARC
  5
B044
  8
0
 10
643.6054075320198535
 20
285.3594406148629901
 30
0.0
 40
151.3596442244208049
 50
269.8817766507561942
 51
270.5475342823571054
  0
ARC
  5
B045
  8
0
 10
650.8215204733877499
 20
1232.1894024246250865
 30
0.0
 40
1098.2150883609729135
 50
269.4046806523792839
 51
269.6072259155429833
  0
ARC
  5
B046
  8
0
 10
639.4590981285119824
 20
158.0185851838178053
 30
0.0
 40
23.9850394207335817
 50
267.2555932458142252
 51
269.8850082006467801
  0
ARC
  5
B047
  8
0
 10
638.4275755143598872
 20
134.8792611186999011
 30
0.0
 40
0.8265142815784869
 50
256.3215828359853958
 51
261.8692550033637758
  0
ARC
  5
B048
  8
0
 10
638.1717904994577566
 20
133.4597398065932907
 30
0.0
 40
0.6193942546311028
 50
84.4097486890354247
 51
88.0043220130640833
  0
ARC
  5
B049
  8
0
 10
637.964749779713884
 20
129.3444667748526058
 30
0.0
 40
4.7398079833714242
 50
87.2354355095059759
 51
88.6318556169970577
  0
ARC
  5
B04A
  8
0
 10
638.0816039465551057
 20
134.2073913684303079
 30
0.0
 40
0.1245223705741276
 50
181.9459771755464885
 51
268.3042727970719739
  0
ARC
  5
B04B
  8
0
 10
638.5874723584981894
 20
133.9803246869977897
 30
0.0
 40
0.059372668793497
 50
38.3139593476088365
 51
69.2772468610908163
  0
ARC
  5
B04C
  8
0
 10
639.7951947634120415
 20
134.9720764441497067
 30
0.0
 40
1.5033810220362609
 50
219.4345653395166948
 51
224.0506548794965056
  0
ARC
  5
B04D
  8
0
 10
639.0766367371054457
 20
143.6246741079648928
 30
0.0
 40
9.7046420370424311
 50
267.8625079360213022
 51
271.2718132135881888
  0
ARC
  5
B04E
  8
0
 10
639.7522915744415286
 20
133.3846816615400996
 30
0.0
 40
0.707813948138838
 50
124.8124750478201008
 51
130.5603878568998084
  0
ARC
  5
B04F
  8
0
 10
639.348178338354046
 20
134.0261390151648868
 30
0.0
 40
0.0603244642843081
 50
270.0262831242386028
 51
301.8149510061334126
  0
ARC
  5
B050
  8
0
 10
639.3652185964522232
 20
134.6146856473390869
 30
0.0
 40
0.6637169164006395
 50
266.8696887949124061
 51
273.3692534877932871
  0
ARC
  5
B051
  8
0
 10
639.4030518795323133
 20
134.0548890352710885
 30
0.0
 40
0.1027797791173976
 50
270.6543696602701061
 51
314.2277639751233096
  0
ARC
  5
B052
  8
0
 10
640.1047161000207097
 20
133.3800701329504932
 30
0.0
 40
0.8707883396996928
 50
131.4867384865875124
 51
136.3402703438293031
  0
ARC
  5
B053
  8
0
 10
634.9536966603551491
 20
102.8603973537202023
 30
0.0
 40
31.3807325279521301
 50
83.2796514220048749
 51
83.8589799370085984
  0
ARC
  5
B054
  8
0
 10
638.5691778157593035
 20
134.0230821273129891
 30
0.0
 40
0.0131750181229391
 50
92.0229627292922174
 51
130.2110459867747068
  0
ARC
  5
B055
  8
0
 10
638.4931031664616512
 20
124.3673731278558989
 30
0.0
 40
9.6691714312246368
 50
84.9785474816641226
 51
89.5519622875108041
  0
ARC
  5
B056
  8
0
 10
639.8776245016515531
 20
134.8423274726613101
 30
0.0
 40
1.0000593045262509
 50
237.4415891203422859
 51
242.0056015092808082
  0
ARC
  5
B057
  8
0
 10
639.3634461891278988
 20
134.0748731352857988
 30
0.0
 40
0.1239569467024121
 50
271.7123379282783731
 51
291.1699387050969108
  0
ARC
  5
B058
  8
0
 10
643.9887607658890829
 20
778.4973698226503984
 30
0.0
 40
644.6046844348536524
 50
269.607572257163099
 51
270.6057979587644127
  0
ARC
  5
B059
  8
0
 10
639.9895516681174286
 20
197.4033868344820917
 30
0.0
 40
63.4969431180439869
 50
268.6225341236839768
 51
269.6248457025657785
  0
ARC
  5
B05A
  8
0
 10
638.5762060307441743
 20
138.6265130757128929
 30
0.0
 40
4.703079197180795
 50
263.8368504870371112
 51
268.6225341236839768
  0
ARC
  5
B05B
  8
0
 10
638.1042822446303262
 20
133.998218542455902
 30
0.0
 40
0.0579209848572615
 50
187.0461469042020894
 51
235.2696128816562009
  0
ARC
  5
B05C
  8
0
 10
638.0541039010405484
 20
133.9940143897522091
 30
0.0
 40
0.0078601174471221
 50
119.3487111643200933
 51
201.6583248041143008
  0
ARC
  5
B05D
  8
0
 10
639.5106446057825451
 20
76.7987248127827939
 30
0.0
 40
57.8858117836485917
 50
89.9981429518687861
 51
90.8798054951067797
  0
ARC
  5
B05E
  8
0
 10
638.954423643847349
 20
113.018785851012197
 30
0.0
 40
21.6614801352721891
 50
90.8798054951067797
 51
92.3880679685564559
  0
ARC
  5
B05F
  8
0
 10
638.0553973459218469
 20
134.5762046181496885
 30
0.0
 40
0.0853231052056209
 50
92.3880679685564559
 51
183.5169046226390037
  0
ARC
  5
B060
  8
0
 10
638.834743188768698
 20
133.3386275858912029
 30
0.0
 40
0.0396944316184844
 50
209.3609089891430131
 51
249.4097875729979137
  0
ARC
  5
B061
  8
0
 10
638.8580162397893218
 20
133.2732742789503959
 30
0.0
 40
0.0738562482657759
 50
94.7018301853732112
 51
141.5850354866547036
  0
ARC
  5
B062
  8
0
 10
638.8186481687903324
 20
130.0046833646123048
 30
0.0
 40
3.3423646474427051
 50
79.2939831086372351
 51
89.4289115015749161
  0
ARC
  5
B063
  8
0
 10
639.4081003587800751
 20
133.067283676942111
 30
0.0
 40
0.2238066858530901
 50
54.7567112697416576
 51
81.9197568821560367
  0
ARC
  5
B064
  8
0
 10
639.3326944061818722
 20
133.1280661398648988
 30
0.0
 40
0.23817376834877
 50
24.2236958486158187
 51
30.8132555074852093
  0
ARC
  5
B065
  8
0
 10
636.2039035110437908
 20
131.4284035220206874
 30
0.0
 40
3.2181413858897909
 50
33.9532723473622369
 51
35.5936788724388009
  0
ARC
  5
B066
  8
0
 10
638.9158467012030087
 20
133.4939752731019951
 30
0.0
 40
0.2173729552498836
 50
235.4067961492654888
 51
245.0077637688607126
  0
ARC
  5
B067
  8
0
 10
640.1966670017744718
 20
135.3511012393159945
 30
0.0
 40
2.4733466910770541
 50
234.8753198469360939
 51
235.4067961492654888
  0
ARC
  5
B068
  8
0
 10
638.8431973246385951
 20
133.2103292354906046
 30
0.0
 40
0.1368337547636067
 50
86.3274015455588426
 51
120.5684487159104066
  0
ARC
  5
B069
  8
0
 10
636.5145674560440057
 20
131.6366204705292944
 30
0.0
 40
3.4513685558295419
 50
27.4158828444401301
 51
27.8673652076173504
  0
ARC
  5
B06A
  8
0
 10
639.4253266233482691
 20
133.0604647817660009
 30
0.0
 40
0.2357536627848638
 50
53.4608465434699482
 51
79.906388505420864
  0
ARC
  5
B06B
  8
0
 10
638.6208066329196527
 20
127.3349038895244973
 30
0.0
 40
6.0174099056668382
 50
81.9194560638125324
 51
84.0891068967659123
  0
ARC
  5
B06C
  8
0
 10
638.9822781211358915
 20
133.2371991502917865
 30
0.0
 40
0.4579681923530921
 50
163.9065333214591931
 51
174.180379628097711
  0
ARC
  5
B06D
  8
0
 10
638.5765415903426856
 20
133.2998159141399128
 30
0.0
 40
0.0524303915494144
 50
197.9750573421393085
 51
242.3520124112467045
  0
ARC
  5
B06E
  8
0
 10
638.3580962063980451
 20
132.8611096485801113
 30
0.0
 40
0.4376652447884786
 50
56.4327931644878973
 51
63.6709625560458292
  0
ARC
  5
B06F
  8
0
 10
638.599040871267789
 20
133.274972513791198
 30
0.0
 40
0.0426747275640695
 50
254.0904902923309976
 51
294.7885874450478809
  0
ARC
  5
B070
  8
0
 10
639.2617073139299464
 20
133.39378695114371
 30
0.0
 40
0.6637454108841455
 50
185.1498869920064863
 51
193.7317149399364951
  0
ARC
  5
B071
  8
0
 10
638.4271502521437469
 20
133.2027881365359008
 30
0.0
 40
0.2176473066138032
 50
37.1440532284478024
 51
47.9376528439627307
  0
ARC
  5
B072
  8
0
 10
638.5577397041661243
 20
133.3462468325209898
 30
0.0
 40
0.0236693105041359
 50
49.9791418633419369
 51
130.8522691476727005
  0
ARC
  5
B073
  8
0
 10
634.5894033318443235
 20
125.4228346438844
 30
0.0
 40
8.8876450459191361
 50
61.3966781569747582
 51
63.6537243680841485
  0
ARC
  5
B074
  8
0
 10
637.8970045325122555
 20
131.8885025194250886
 30
0.0
 40
1.6284302517712981
 50
66.9841834370107989
 51
73.049118372009886
  0
ARC
  5
B075
  8
0
 10
638.1832912921623802
 20
133.5312810057199044
 30
0.0
 40
0.0332739851894318
 50
268.9741765499971962
 51
291.2059154102792036
  0
ARC
  5
B076
  8
0
 10
638.7202159261764791
 20
144.6011202466368957
 30
0.0
 40
11.1132625157986205
 50
267.2928649898249205
 51
268.4633359783572928
  0
ARC
  5
B077
  8
0
 10
639.3936945008285875
 20
224.9849643704349091
 30
0.0
 40
91.4982676457988191
 50
269.3916406211188246
 51
270.2352334456513177
  0
ARC
  5
B078
  8
0
 10
642.4551693672523243
 20
209.2747854592651038
 30
0.0
 40
75.8348939543608793
 50
267.9703487701128211
 51
268.8839179206914878
  0
ARC
  5
B079
  8
0
 10
644.6457065917653608
 20
1469.0986438078980427
 30
0.0
 40
1335.649400880120993
 50
269.8426672332885232
 51
270.1984145168922851
  0
ARC
  5
B07A
  8
0
 10
640.0704553805085197
 20
132.9267647006294908
 30
0.0
 40
0.6899182620477231
 50
25.6847816827720408
 51
51.2800852860745096
  0
ARC
  5
B07B
  8
0
 10
641.1505328159620376
 20
139.0377479983106923
 30
0.0
 40
5.6747379956500721
 50
258.3747689951994175
 51
264.2311892530354953
  0
ARC
  5
B07C
  8
0
 10
641.2150653113858425
 20
226.0207218092878065
 30
0.0
 40
91.527660536942463
 50
268.2895868368581773
 51
269.6585820416776187
  0
ARC
  5
B07D
  8
0
 10
638.5872545745443176
 20
138.019915939848687
 30
0.0
 40
3.4876286029446342
 50
262.1720467116069244
 51
268.2895868368581773
  0
ARC
  5
B07E
  8
0
 10
638.1218632711885448
 20
134.6347601569636936
 30
0.0
 40
0.0706315675875188
 50
191.2136221346472098
 51
262.1720467116069244
  0
ARC
  5
B07F
  8
0
 10
638.1775999103738286
 20
134.6435279769800957
 30
0.0
 40
0.1270289179006394
 50
171.8876466055444041
 51
190.2038892002993862
  0
LINE
  5
B080
  8
0
 10
641.936418370367619
 20
121.068308697227593
 30
0.0
 11
648.1672217325739211
 21
121.068308697227593
 31
0.0
  0
ARC
  5
B081
  8
0
 10
640.6754580640400718
 20
132.8315903047871984
 30
0.0
 40
0.9477385532922035
 50
136.8173728812384979
 51
155.4217251088508931
  0
ARC
  5
B083
  8
0
 10
645.0518200480322548
 20
131.1904461788180072
 30
0.0
 40
10.5118110236001705
 50
254.3505117616390123
 51
261.5782906258058915
  0
LINE
  5
B084
  8
0
 10
639.5125207778057757
 20
134.6845365660265088
 30
0.0
 11
650.5911193251280338
 21
134.6845365660265088
 31
0.0
  0
LINE
  5
B085
  8
0
 10
640.6696673375171258
 20
134.4946862542836925
 30
0.0
 11
649.4339727654174794
 21
134.4946862542836925
 31
0.0
  0
ARC
  5
B086
  8
0
 10
642.8197037431541503
 20
240.9075886141002911
 30
0.0
 40
106.7205884181955042
 50
267.3903133845424804
 51
271.1984582829404076
  0
ARC
  5
B087
  8
0
 10
645.0293202620945294
 20
120.7875431202094063
 30
0.0
 40
1.3373947679108349
 50
270.9639665276130245
 51
323.192584025085182
  0
ARC
  5
B088
  8
0
 10
641.6040567578891114
 20
123.2801565704123021
 30
0.0
 40
5.573523575547469
 50
323.7728804325811893
 51
336.6186516484033859
  0
ARC
  5
B089
  8
0
 10
648.1680806828567256
 20
121.3044276322691957
 30
0.0
 40
0.2360479361900563
 50
285.1364141427881123
 51
335.6671538345344175
  0
ARC
  5
B08A
  8
0
 10
648.1675670225417889
 20
121.3062400275686059
 30
0.0
 40
0.2379315808861995
 50
269.9168514529412732
 51
285.141854157014393
  0
ARC
  5
B08B
  8
0
 10
592.6853901013864743
 20
144.4044625844508118
 30
0.0
 40
60.3353633047440923
 50
337.3889960482304105
 51
340.8484511433281909
  0
ARC
  5
B08C
  8
0
 10
-96.9557914090672739
 20
392.8083061365427966
 30
0.0
 40
793.345631975350102
 50
340.2413142608576777
 51
340.5527686979281157
  0
ARC
  5
B08D
  8
0
 10
551.9760823862266079
 20
164.4185532156008094
 30
0.0
 40
105.3988144077380014
 50
340.1751416249647946
 51
341.5489557085855949
  0
ARC
  5
B08E
  8
0
 10
648.4906480179722621
 20
132.1005460257586037
 30
0.0
 40
3.618855368810848
 50
343.2967590655874801
 51
352.9599077245358103
  0
ARC
  5
B08F
  8
0
 10
638.6472207702880723
 20
132.9696527386651042
 30
0.0
 40
13.4989716075099508
 50
354.4197085040383968
 51
0.1404243969057713
  0
ARC
  5
B090
  8
0
 10
651.9225525068701472
 20
133.0021888905639003
 30
0.0
 40
0.2236
 50
0.1404243969057713
 51
90.0
  0
ARC
  5
B091
  8
0
 10
651.7172448539776042
 20
133.4634388026292129
 30
0.0
 40
0.0226138056354881
 50
293.2948167360489151
 51
310.2754248118062037
  0
ARC
  5
B092
  8
0
 10
651.749793035788116
 20
133.3890744136812998
 30
0.0
 40
0.0585621632114463
 50
113.7709032121223061
 51
134.6413509164129891
  0
ARC
  5
B093
  8
0
 10
651.7540145790070483
 20
133.3849650232170063
 30
0.0
 40
0.0644525157997077
 50
134.7446274932115102
 51
157.4801465244424037
  0
ARC
  5
B094
  8
0
 10
651.5968238805005512
 20
133.3315967077552955
 30
0.0
 40
0.0605819561295652
 50
298.6459785586642965
 51
337.331756330405824
  0
ARC
  5
B095
  8
0
 10
-2311563.1713501140475273
 20
4171575.7054484090767801
 30
0.0
 40
4769409.7318637641146779
 50
298.9994365972436867
 51
298.9994379016383164
  0
LINE
  5
B096
  8
0
 10
651.6944767690167737
 20
133.4096505650275901
 30
0.0
 11
651.6527259918168511
 21
133.3082487451275995
 31
0.0
  0
ARC
  5
B097
  8
0
 10
652.5410861174574393
 20
130.9707000555281979
 30
0.0
 40
2.6043943379567298
 50
104.1136988078095982
 51
108.1022763148117036
  0
ARC
  5
B098
  8
0
 10
651.9256890197564189
 20
133.3784574370374116
 30
0.0
 40
0.1196490215021687
 50
92.2725745109883349
 51
99.4653251843554784
  0
ARC
  5
B099
  8
0
 10
651.8619076502317284
 20
134.6703348720718907
 30
0.0
 40
1.1738080930338239
 50
272.882916718509307
 51
278.9057688519941962
  0
ARC
  5
B09A
  8
0
 10
652.0145760740306287
 20
133.6690080528206863
 30
0.0
 40
0.1609728806797539
 50
280.3963647270530828
 51
292.2370378051733724
  0
ARC
  5
B09B
  8
0
 10
652.0552976390252979
 20
133.5825856324368033
 30
0.0
 40
0.0657567953698805
 50
287.8872730585484874
 51
317.9336785268811241
  0
ARC
  5
B09C
  8
0
 10
652.0622586406564096
 20
133.6157046980879954
 30
0.0
 40
0.0846601551970514
 50
327.91895805263988
 51
354.2088308239044068
  0
ARC
  5
B09D
  8
0
 10
651.9868817130790148
 20
133.6772304785476138
 30
0.0
 40
0.1816076330035812
 50
310.2048500812394991
 51
324.0997513043707272
  0
LINE
  5
B09E
  8
0
 10
652.1464867134922088
 20
133.6071622379996029
 30
0.0
 11
652.1360648910925875
 21
133.9120534589249871
 31
0.0
  0
LINE
  5
B09F
  8
0
 10
652.1464867134922088
 20
134.2031629399349129
 30
0.0
 11
652.1334051768941436
 21
134.5709706405278041
 31
0.0
  0
ARC
  5
B0A0
  8
0
 10
651.4824321192531897
 20
117.7209015584085989
 30
0.0
 40
16.2900114740813216
 50
88.0005813319771875
 51
90.0633180769113579
  0
ARC
  5
B0A1
  8
0
 10
652.0476969632061355
 20
133.9126790243643939
 30
0.0
 40
0.0883701420790946
 50
359.5944041957632749
 51
88.0005813319771875
  0
ARC
  5
B0A2
  8
0
 10
639.2821196295461732
 20
1232.1894024246250865
 30
0.0
 40
1098.2150883609729135
 50
270.392774084456903
 51
270.5953193476207161
  0
ARC
  5
B0A3
  8
0
 10
650.644541974421827
 20
158.0185851838178053
 30
0.0
 40
23.9850394207335817
 50
270.1149917993532199
 51
272.744406754185718
  0
ARC
  5
B0A4
  8
0
 10
651.6760645885739223
 20
134.8792611186999011
 30
0.0
 40
0.8265142815784869
 50
278.1307449966362242
 51
283.6784171640146042
  0
ARC
  5
B0A5
  8
0
 10
651.9318496034760528
 20
133.4597398065932907
 30
0.0
 40
0.6193942546311028
 50
91.9956779869359167
 51
95.5902513109645469
  0
ARC
  5
B0A6
  8
0
 10
652.1388903232199254
 20
129.3444667748526058
 30
0.0
 40
4.7398079833714242
 50
91.3681443830029423
 51
92.7645644904940241
  0
ARC
  5
B0A7
  8
0
 10
652.0220361563787037
 20
134.2073913684303079
 30
0.0
 40
0.1245223705741276
 50
271.6957272029280261
 51
358.0540228244533978
  0
ARC
  5
B0A8
  8
0
 10
651.5161677444357338
 20
133.9803246869977897
 30
0.0
 40
0.059372668793497
 50
110.7227531389091979
 51
141.6860406523911138
  0
ARC
  5
B0A9
  8
0
 10
650.3084453395217679
 20
134.9720764441497067
 30
0.0
 40
1.5033810220362609
 50
315.9493451205033807
 51
320.5654346604832767
  0
ARC
  5
B0AA
  8
0
 10
651.0270033658284774
 20
143.6246741079648928
 30
0.0
 40
9.7046420370424311
 50
268.7281867864116975
 51
272.1374920639786978
  0
ARC
  5
B0AB
  8
0
 10
650.3513485284923945
 20
133.3846816615400996
 30
0.0
 40
0.707813948138838
 50
49.4396121431001205
 51
55.1875249521799205
  0
ARC
  5
B0AC
  8
0
 10
650.7554617645796498
 20
134.0261390151648868
 30
0.0
 40
0.0603244642843081
 50
238.1850489938665874
 51
269.9737168757613972
  0
ARC
  5
B0AD
  8
0
 10
650.7384215064816999
 20
134.6146856473390869
 30
0.0
 40
0.6637169164006395
 50
266.6307465122067129
 51
273.1303112050875939
  0
ARC
  5
B0AE
  8
0
 10
650.7005882234014962
 20
134.0548890352710885
 30
0.0
 40
0.1027797791173976
 50
225.7722360248766904
 51
269.3456303397298939
  0
ARC
  5
B0AF
  8
0
 10
649.9989240029130997
 20
133.3800701329504932
 30
0.0
 40
0.8707883396996928
 50
43.6597296561706969
 51
48.5132615134125018
  0
ARC
  5
B0B0
  8
0
 10
655.1499434425786603
 20
102.8603973537202023
 30
0.0
 40
31.3807325279521301
 50
96.1410200629914158
 51
96.7203485779951251
  0
ARC
  5
B0B1
  8
0
 10
651.5344622871745059
 20
134.0230821273129891
 30
0.0
 40
0.0131750181229391
 50
49.7889540132252577
 51
87.9770372707077826
  0
ARC
  5
B0B2
  8
0
 10
651.6105369364720445
 20
124.3673731278558989
 30
0.0
 40
9.6691714312246368
 50
90.4480377124891959
 51
95.0214525183358631
  0
ARC
  5
B0B3
  8
0
 10
650.2260156012822563
 20
134.8423274726613101
 30
0.0
 40
1.0000593045262509
 50
297.9943984907192203
 51
302.558410879657572
  0
ARC
  5
B0B4
  8
0
 10
650.7401939138060243
 20
134.0748731352857988
 30
0.0
 40
0.1239569467024121
 50
248.8300612949030892
 51
268.2876620717216269
  0
ARC
  5
B0B5
  8
0
 10
650.1140884348163809
 20
197.4033868344820917
 30
0.0
 40
63.4969431180439869
 50
270.3751542974342215
 51
271.3774658763160232
  0
ARC
  5
B0B6
  8
0
 10
651.5274340721897488
 20
138.6265130757128929
 30
0.0
 40
4.703079197180795
 50
271.3774658763160232
 51
276.1631495129627751
  0
ARC
  5
B0B7
  8
0
 10
651.9993578583035969
 20
133.998218542455902
 30
0.0
 40
0.0579209848572615
 50
304.7303871183437991
 51
352.9538530957977969
  0
ARC
  5
B0B8
  8
0
 10
652.0495362018933747
 20
133.9940143897522091
 30
0.0
 40
0.0078601174471221
 50
338.3416751958856139
 51
60.651288835679857
  0
ARC
  5
B0B9
  8
0
 10
650.5929954971512643
 20
76.7987248127827939
 30
0.0
 40
57.8858117836485917
 50
89.1201945048932345
 51
90.0018570481312281
  0
ARC
  5
B0BA
  8
0
 10
651.1492164590864604
 20
113.018785851012197
 30
0.0
 40
21.6614801352721891
 50
87.6119320314435441
 51
89.1201945048932345
  0
ARC
  5
B0BB
  8
0
 10
652.0482427570119626
 20
134.5762046181496885
 30
0.0
 40
0.0853231052056209
 50
356.4830953773609963
 51
87.6119320314435441
  0
ARC
  5
B0BC
  8
0
 10
651.2688969141651114
 20
133.3386275858912029
 30
0.0
 40
0.0396944316184844
 50
290.5902124270019726
 51
330.6390910108571006
  0
ARC
  5
B0BD
  8
0
 10
651.2456238631446013
 20
133.2732742789503959
 30
0.0
 40
0.0738562482657759
 50
38.4149645133453035
 51
85.298169814626803
  0
ARC
  5
B0BE
  8
0
 10
651.284991934143477
 20
130.0046833646123048
 30
0.0
 40
3.3423646474427051
 50
90.5710884984250981
 51
100.7060168913626939
  0
ARC
  5
B0BF
  8
0
 10
650.695539744153848
 20
133.067283676942111
 30
0.0
 40
0.2238066858530901
 50
98.0802431178439775
 51
125.2432887302582998
  0
ARC
  5
B0C0
  8
0
 10
650.7709456967519372
 20
133.1280661398648988
 30
0.0
 40
0.23817376834877
 50
149.186744492514805
 51
155.7763041513842097
  0
ARC
  5
B0C1
  8
0
 10
653.8997365918901323
 20
131.4284035220206874
 30
0.0
 40
3.2181413858897909
 50
144.4063211275611991
 51
146.0467276526377987
  0
ARC
  5
B0C2
  8
0
 10
651.1877934017308007
 20
133.4939752731019951
 30
0.0
 40
0.2173729552498836
 50
294.9922362311393158
 51
304.5932038507344828
  0
ARC
  5
B0C3
  8
0
 10
649.9069731011593376
 20
135.3511012393159945
 30
0.0
 40
2.4733466910770541
 50
304.5932038507344828
 51
305.1246801530638777
  0
ARC
  5
B0C4
  8
0
 10
651.260442778295328
 20
133.2103292354906046
 30
0.0
 40
0.1368337547636067
 50
59.4315512840895579
 51
93.6725984544411858
  0
ARC
  5
B0C5
  8
0
 10
653.5890726468899175
 20
131.6366204705292944
 30
0.0
 40
3.4513685558295419
 50
152.1326347923825892
 51
152.584117155559909
  0
ARC
  5
B0C6
  8
0
 10
650.678313479585654
 20
133.0604647817660009
 30
0.0
 40
0.2357536627848638
 50
100.0936114945790933
 51
126.539153456530002
  0
ARC
  5
B0C7
  8
0
 10
651.4828334700141568
 20
127.3349038895244973
 30
0.0
 40
6.0174099056668382
 50
95.9108931032340877
 51
98.0805439361874534
  0
ARC
  5
B0C8
  8
0
 10
651.1213619817980316
 20
133.2371991502917865
 30
0.0
 40
0.4579681923530921
 50
5.8196203719023174
 51
16.0934666785407785
  0
ARC
  5
B0C9
  8
0
 10
651.5270985125912375
 20
133.2998159141399128
 30
0.0
 40
0.0524303915494144
 50
297.6479875887533808
 51
342.0249426578607199
  0
ARC
  5
B0CA
  8
0
 10
651.7455438965356507
 20
132.8611096485801113
 30
0.0
 40
0.4376652447884786
 50
116.3290374439541068
 51
123.5672068355120956
  0
ARC
  5
B0CB
  8
0
 10
651.5045992316661341
 20
133.274972513791198
 30
0.0
 40
0.0426747275640695
 50
245.2114125549520054
 51
285.909509707668974
  0
ARC
  5
B0CC
  8
0
 10
650.841932789003863
 20
133.39378695114371
 30
0.0
 40
0.6637454108841455
 50
346.2682850600634765
 51
354.8501130079935137
  0
ARC
  5
B0CD
  8
0
 10
651.6764898507900625
 20
133.2027881365359008
 30
0.0
 40
0.2176473066138032
 50
132.0623471560373048
 51
142.8559467715521976
  0
ARC
  5
B0CE
  8
0
 10
651.5459003987677988
 20
133.3462468325209898
 30
0.0
 40
0.0236693105041359
 50
49.1477308523273066
 51
130.0208581366586031
  0
ARC
  5
B0CF
  8
0
 10
655.5142367710895996
 20
125.4228346438844
 30
0.0
 40
8.8876450459191361
 50
116.3462756319158018
 51
118.6033218430251992
  0
ARC
  5
B0D0
  8
0
 10
652.2066355704215539
 20
131.8885025194250886
 30
0.0
 40
1.6284302517712981
 50
106.9508816279900998
 51
113.0158165629892011
  0
ARC
  5
B0D1
  8
0
 10
651.9203488107714293
 20
133.5312810057199044
 30
0.0
 40
0.0332739851894318
 50
248.7940845897207112
 51
271.0258234500028038
  0
ARC
  5
B0D2
  8
0
 10
651.3834241767573303
 20
144.6011202466368957
 30
0.0
 40
11.1132625157986205
 50
271.5366640216425935
 51
272.7071350101750795
  0
ARC
  5
B0D3
  8
0
 10
650.709945602105222
 20
224.9849643704349091
 30
0.0
 40
91.4982676457988191
 50
269.7647665543486823
 51
270.6083593788811754
  0
ARC
  5
B0D4
  8
0
 10
647.6484707356814852
 20
209.2747854592651038
 30
0.0
 40
75.8348939543608793
 50
271.1160820793085122
 51
272.0296512298871789
  0
ARC
  5
B0D5
  8
0
 10
650.0331847224254034
 20
132.9267647006294908
 30
0.0
 40
0.6899182620477231
 50
128.7199147139255047
 51
154.3152183172279024
  0
ARC
  5
B0D6
  8
0
 10
648.9531072869717718
 20
139.0377479983106923
 30
0.0
 40
5.6747379956500721
 50
275.7688107469645047
 51
281.6252310048005256
  0
ARC
  5
B0D7
  8
0
 10
648.8885747915480806
 20
226.0207218092878065
 30
0.0
 40
91.527660536942463
 50
270.3414179583223813
 51
271.7104131631418227
  0
ARC
  5
B0D8
  8
0
 10
651.5163855283896055
 20
138.019915939848687
 30
0.0
 40
3.4876286029446342
 50
271.7104131631418227
 51
277.8279532883930187
  0
ARC
  5
B0D9
  8
0
 10
651.981776831745151
 20
134.6347601569636936
 30
0.0
 40
0.0706315675875188
 50
277.8279532883930187
 51
348.7863778653529039
  0
ARC
  5
B0DA
  8
0
 10
651.9260401925600945
 20
134.6435279769800957
 30
0.0
 40
0.1270289179006394
 50
349.796110799699818
 51
8.1123533944555906
  0
ARC
  5
B0DB
  8
0
 10
649.4281820388937376
 20
132.8315903047871984
 30
0.0
 40
0.9477385532922035
 50
24.5782748911490607
 51
43.1826271187614665
  0
ARC
  5
B0DC
  8
0
 10
645.0518200549016683
 20
131.1904461788180072
 30
0.0
 40
10.5118110236001705
 50
278.4217093741939948
 51
285.6494882383610161
  0
ARC
  5
B0DD
  8
0
 10
645.5200822546800055
 20
24.273042314122069
 30
0.0
 40
109.7346643815328946
 50
89.3261944987517609
 51
90.2444945681031072
  0
ARC
  5
B0DE
  8
0
 10
647.2839363597796591
 20
240.9075886141002911
 30
0.0
 40
106.7205884181955042
 50
268.8015417170595924
 51
272.6096866154575196
  0
ARC
  5
B0DF
  8
0
 10
644.7437658386594421
 20
642.0236312403296779
 30
0.0
 40
508.3996116552075932
 50
269.2353768518823927
 51
270.0347172285810871
  0
ARC
  5
B0E0
  8
0
 10
645.359874264274481
 20
642.0236312403296779
 30
0.0
 40
508.3996116552075932
 50
269.9652827714189129
 51
270.7646231481176073
  0
ENDSEC
  0
EOF
