  0
SECTION
  2
HEADER
  9
$ACADVER
  1
AC1009
  9
$INSBASE
 10
564.2336551145051544
 20
87.8344367559057986
 30
0.0
  9
$EXTMIN
 10
557.1361705894464649
 20
69.6525100472644283
 30
-0.0000000000112498
  9
$EXTMAX
 10
571.3606366752799204
 20
87.8431116938892842
 30
0.0000000000002956
  9
$LIMMIN
 10
0.0
 20
0.0
  9
$LIMMAX
 10
11.6929133858000007
 20
8.2677165353999982
  9
$ORTHOMODE
 70
     0
  9
$REGENMODE
 70
     1
  9
$FILLMODE
 70
     1
  9
$QTEXTMODE
 70
     0
  9
$MIRRTEXT
 70
     0
  9
$DRAGMODE
 70
     2
  9
$LTSCALE
 40
0.6431102362
  9
$OSMODE
 70
  4095
  9
$ATTMODE
 70
     1
  9
$TEXTSIZE
 40
0.2
  9
$TRACEWID
 40
0.05
  9
$TEXTSTYLE
  7
STANDARD
  9
$CLAYER
  8
0
  9
$CELTYPE
  6
BYLAYER
  9
$CECOLOR
 62
   256
  9
$DIMSCALE
 40
1.0
  9
$DIMASZ
 40
0.1875
  9
$DIMEXO
 40
0.0625
  9
$DIMDLI
 40
0.4443307087
  9
$DIMRND
 40
0.0
  9
$DIMDLE
 40
0.0
  9
$DIMEXE
 40
0.125
  9
$DIMTP
 40
0.01
  9
$DIMTM
 40
0.01
  9
$DIMTXT
 40
1.0
  9
$DIMCEN
 40
0.1052362205
  9
$DIMTSZ
 40
0.0
  9
$DIMTOL
 70
     1
  9
$DIMLIM
 70
     0
  9
$DIMTIH
 70
     0
  9
$DIMTOH
 70
     1
  9
$DIMSE1
 70
     0
  9
$DIMSE2
 70
     0
  9
$DIMTAD
 70
     0
  9
$DIMZIN
 70
     0
  9
$DIMBLK
  1

  9
$DIMASO
 70
     1
  9
$DIMSHO
 70
     1
  9
$DIMPOST
  1
\X
  9
$DIMAPOST
  1

  9
$DIMALT
 70
     1
  9
$DIMALTD
 70
     2
  9
$DIMALTF
 40
25.3999999999999986
  9
$DIMLFAC
 40
1.0
  9
$DIMTOFL
 70
     0
  9
$DIMTVP
 40
0.0
  9
$DIMTIX
 70
     0
  9
$DIMSOXD
 70
     0
  9
$DIMSAH
 70
     0
  9
$DIMBLK1
  1

  9
$DIMBLK2
  1

  9
$DIMSTYLE
  2
STANDARD
  9
$DIMCLRD
 70
     0
  9
$DIMCLRE
 70
     0
  9
$DIMCLRT
 70
     0
  9
$DIMTFAC
 40
1.0
  9
$DIMGAP
 40
0.09
  9
$LUNITS
 70
     2
  9
$LUPREC
 70
     4
  9
$SKETCHINC
 40
0.1
  9
$FILLETRAD
 40
0.0
  9
$AUNITS
 70
     0
  9
$AUPREC
 70
     0
  9
$MENU
  1
.
  9
$ELEVATION
 40
0.0
  9
$PELEVATION
 40
0.0
  9
$THICKNESS
 40
0.0
  9
$LIMCHECK
 70
     0
  9
$BLIPMODE
 70
     0
  9
$CHAMFERA
 40
0.0
  9
$CHAMFERB
 40
0.0
  9
$SKPOLY
 70
     0
  9
$TDCREATE
 40
2458171.8957638889551163
  9
$TDUPDATE
 40
2459047.8274884261190891
  9
$TDINDWG
 40
0.3159382176
  9
$TDUSRTIMER
 40
0.3159382176
  9
$USRTIMER
 70
     1
  9
$ANGBASE
 50
0.0
  9
$ANGDIR
 70
     0
  9
$PDMODE
 70
     0
  9
$PDSIZE
 40
0.3125
  9
$PLINEWID
 40
0.0
  9
$COORDS
 70
     1
  9
$SPLFRAME
 70
     0
  9
$SPLINETYPE
 70
     6
  9
$SPLINESEGS
 70
     8
  9
$ATTDIA
 70
     1
  9
$ATTREQ
 70
     1
  9
$HANDLING
 70
     1
  9
$HANDSEED
  5
8AE0
  9
$SURFTAB1
 70
     6
  9
$SURFTAB2
 70
     6
  9
$SURFTYPE
 70
     6
  9
$SURFU
 70
     6
  9
$SURFV
 70
     6
  9
$UCSNAME
  2

  9
$UCSORG
 10
0.0
 20
0.0
 30
0.0
  9
$UCSXDIR
 10
1.0
 20
0.0
 30
0.0
  9
$UCSYDIR
 10
0.0
 20
1.0
 30
0.0
  9
$PUCSNAME
  2

  9
$PUCSORG
 10
0.0
 20
0.0
 30
0.0
  9
$PUCSXDIR
 10
1.0
 20
0.0
 30
0.0
  9
$PUCSYDIR
 10
0.0
 20
1.0
 30
0.0
  9
$USERI1
 70
     0
  9
$USERI2
 70
     0
  9
$USERI3
 70
     0
  9
$USERI4
 70
     0
  9
$USERI5
 70
     0
  9
$USERR1
 40
0.0
  9
$USERR2
 40
0.0
  9
$USERR3
 40
0.0
  9
$USERR4
 40
0.0
  9
$USERR5
 40
0.0
  9
$WORLDVIEW
 70
     1
  9
$SHADEDGE
 70
     3
  9
$SHADEDIF
 70
    70
  9
$TILEMODE
 70
     1
  9
$MAXACTVP
 70
    64
  9
$PLIMCHECK
 70
     0
  9
$PEXTMIN
 10
1.0000000000000000E+20
 20
1.0000000000000000E+20
 30
1.0000000000000000E+20
  9
$PEXTMAX
 10
-1.0000000000000000E+20
 20
-1.0000000000000000E+20
 30
-1.0000000000000000E+20
  9
$PLIMMIN
 10
0.0
 20
0.0
  9
$PLIMMAX
 10
12.0
 20
9.0
  9
$UNITMODE
 70
     0
  9
$VISRETAIN
 70
     1
  9
$PLINEGEN
 70
     0
  9
$PSLTSCALE
 70
     1
  0
ENDSEC
  0
SECTION
  2
TABLES
  0
TABLE
  2
VPORT
 70
     1
  0
VPORT
  2
*ACTIVE
 70
     0
 10
0.0
 20
0.0
 11
1.0
 21
1.0
 12
97.5062019245331157
 22
-10.38533624935293
 13
0.0
 23
0.0
 14
1.0
 24
1.0
 15
0.0
 25
0.0
 16
0.0
 26
0.0
 36
24.1179433675886514
 17
466.74220170783002
 27
89.133147119929788
 37
0.0
 40
18.3980990038106889
 41
2.5847619047619039
 42
50.0
 43
0.0
 44
0.0
 50
0.0
 51
0.0
 71
     0
 72
   100
 73
     1
 74
     1
 75
     0
 76
     0
 77
     0
 78
     0
  0
ENDTAB
  0
TABLE
  2
LTYPE
 70
     2
  0
LTYPE
  2
CONTINUOUS
 70
     0
  3
Solid line
 72
    65
 73
     0
 40
0.0
  0
LTYPE
  2
PHANTOM2
 70
     0
  3
___ _ _ ___ _ _ ___ _ _ ___ _ _
 72
    65
 73
     6
 40
1.25
 49
0.625
 49
-0.125
 49
0.125
 49
-0.125
 49
0.125
 49
-0.125
  0
ENDTAB
  0
TABLE
  2
LAYER
 70
     2
  0
LAYER
  2
0
 70
     0
 62
   255
  6
CONTINUOUS
  0
LAYER
  2
DEFPOINTS
 70
     0
 62
     7
  6
CONTINUOUS
  0
ENDTAB
  0
TABLE
  2
STYLE
 70
     1
  0
STYLE
  2
STANDARD
 70
     0
 40
0.0
 41
0.8
 50
0.0
 71
     0
 42
0.2
  3
txt
  4

  0
ENDTAB
  0
TABLE
  2
VIEW
 70
     0
  0
ENDTAB
  0
TABLE
  2
UCS
 70
     0
  0
ENDTAB
  0
TABLE
  2
APPID
 70
    10
  0
APPID
  2
ACAD
 70
     0
  0
APPID
  2
ACAD_MLEADERVER
 70
     0
  0
APPID
  2
ACAD_EXEMPT_FROM_CAD_STANDARDS
 70
     0
  0
APPID
  2
ACAD_DSTYLE_DIMJAG
 70
     0
  0
APPID
  2
ACAD_DSTYLE_DIMTALN
 70
     0
  0
APPID
  2
ACAD_NAV_VCDISPLAY
 70
     0
  0
APPID
  2
ACAECLAYERSTANDARD
 70
     0
  0
APPID
  2
ACCMTRANSPARENCY
 70
     0
  0
APPID
  2
DCO15
 70
     0
  0
APPID
  2
ACDBATTR
 70
     0
  0
ENDTAB
  0
TABLE
  2
DIMSTYLE
 70
     1
  0
DIMSTYLE
  2
STANDARD
 70
     0
  3

  4

  5

  6

  7

 40
1.0
 41
0.1875
 42
0.0625
 43
0.38
 44
0.125
 45
0.0
 46
0.0
 47
0.01
 48
0.01
140
0.15625
141
0.09
142
0.0
143
25.3999999999999986
144
1.0
145
0.0
146
1.0
147
0.09
 71
     1
 72
     0
 73
     1
 74
     1
 75
     0
 76
     0
 77
     0
 78
     4
170
     0
171
     2
172
     0
173
     0
174
     0
175
     0
176
     0
177
     0
178
     0
  0
ENDTAB
  0
ENDSEC
  0
SECTION
  2
BLOCKS
  0
BLOCK
  8
0
  2
$MODEL_SPACE
 70
     0
 10
0.0
 20
0.0
 30
0.0
  3
$MODEL_SPACE
  1

  0
ENDBLK
  5
21
  8
0
  0
BLOCK
 67
     1
  8
0
  2
$PAPER_SPACE
 70
     0
 10
0.0
 20
0.0
 30
0.0
  3
$PAPER_SPACE
  1

  0
ENDBLK
  5
1D
 67
     1
  8
0
  0
ENDSEC
  0
SECTION
  2
ENTITIES
  0
ATTDEF
  5
829
  8
DEFPOINTS
 10
564.2309737293644503
 20
87.8397097263201516
 30
0.0
 40
0.001
  1
K-77168IN-SS
  3

  2
MODELNUMBER
 70
     0
1001
ACDBATTR
1070
     0
1070
     1
  0
ATTDEF
  5
82A
  8
DEFPOINTS
 10
564.2309737293644503
 20
87.8380430596534865
 30
0.0
 40
0.001
  1
MODERN LIFE
  3

  2
TRADENAME
 70
     0
1001
ACDBATTR
1070
     0
1070
     1
  0
ATTDEF
  5
82B
  8
DEFPOINTS
 10
564.2309737293644503
 20
87.8363763929868213
 30
0.0
 40
0.001
  1
TOILET SEAT
  3

  2
PRODUCT
 70
     0
1001
ACDBATTR
1070
     0
1070
     1
  0
ARC
  5
89E5
  8
0
 10
564.2244018411748812
 20
82.0255100413635603
 30
0.0
 40
12.3710747460737895
 50
270.0428559012697178
 51
281.0284299710942832
  0
ARC
  5
89E6
  8
0
 10
565.7566290676611516
 20
74.8973361704038041
 30
0.0
 40
5.083369810346178
 50
279.446435836041303
 51
325.9908741288882084
  0
ARC
  5
89E7
  8
0
 10
563.9421145786278657
 20
75.8705648321907802
 30
0.0
 40
7.1348967174990321
 50
327.6626045828318183
 51
346.7062521117488814
  0
ARC
  5
89E8
  8
0
 10
549.7735973814759518
 20
78.4319316990974755
 30
0.0
 40
21.5263292661726702
 50
348.7434548079193064
 51
358.9600943525286993
  0
ARC
  5
89E9
  8
0
 10
1067.2122895428690299
 20
78.3922172819724778
 30
0.0
 40
495.916032528407186
 50
179.4017047360736115
 51
180.0405485087322006
  0
LINE
  5
89EA
  8
0
 10
571.3232941122688544
 20
83.5705886037883658
 30
0.0
 11
571.3232941122688544
 21
85.3969117108175908
 31
0.0
  0
LINE
  5
89EB
  8
0
 10
565.8856094427079597
 20
87.8344367559057986
 30
0.0
 11
562.5817007863023491
 21
87.8344367559057986
 31
0.0
  0
LINE
  5
89EC
  8
0
 10
569.0070592258457509
 20
87.8029018292367311
 30
0.0
 11
568.6054405356685493
 21
87.8029018292367311
 31
0.0
  0
ARC
  5
89ED
  8
0
 10
568.9441241035048051
 20
85.4253921099962241
 30
0.0
 40
2.3783425520112011
 50
40.3366209661833608
 51
88.4836760170837096
  0
ARC
  5
89EE
  8
0
 10
568.6498755396314664
 20
85.3176083046582221
 30
0.0
 40
2.6745945290363302
 50
1.699104843195842
 51
38.0159238146790486
  0
LINE
  5
89EF
  8
0
 10
565.8856094427079597
 20
87.8344367559057986
 30
0.0
 11
566.9158268998547783
 21
87.8316888909859443
 31
0.0
  0
ARC
  5
89F0
  8
0
 10
566.8983088168643008
 20
86.6587753339281051
 30
0.0
 40
1.1730443706705089
 50
82.8101051947832048
 51
89.1443209162399626
  0
LINE
  5
89F1
  8
0
 10
567.9344423825992862
 20
87.8225958112772673
 30
0.0
 11
560.5328678464111363
 21
87.8225958112772673
 31
0.0
  0
LINE
  5
89F2
  8
0
 10
569.127081779429318
 20
87.7422843462772732
 30
0.0
 11
559.3402284495811045
 21
87.7422843462772732
 31
0.0
  0
LINE
  5
89F3
  8
0
 10
567.9738124612993033
 20
87.7832257325772645
 30
0.0
 11
567.9738124612993033
 21
87.7433070655369107
 31
0.0
  0
ARC
  5
89F4
  8
0
 10
567.9344423825992862
 20
87.7832257325772645
 30
0.0
 40
0.0393700786999971
 50
0.0
 51
90.0
  0
ARC
  5
89F5
  8
0
 10
568.6038025952846056
 20
87.7240601680173739
 30
0.0
 40
0.0788586735400558
 50
88.8098478447038531
 51
165.9449096326823962
  0
LINE
  5
89F6
  8
0
 10
567.9930801387796464
 20
87.8225958112772673
 30
0.0
 11
568.5057258862188974
 21
87.8225958112772673
 31
0.0
  0
ARC
  5
89F7
  8
0
 10
569.0706919600966103
 20
87.7684470965242411
 30
0.0
 40
1.0789714179491861
 50
177.1233745743984116
 51
178.7168872402147031
  0
ARC
  5
89F8
  8
0
 10
567.0827128363374641
 20
87.8129744231317062
 30
0.0
 40
0.9095063111985338
 50
355.8144892933912047
 51
358.7168872402147031
  0
ARC
  5
89F9
  8
0
 10
567.983438610089479
 20
87.7495973383000347
 30
0.0
 40
0.0070291514756453
 50
306.9327672262994042
 51
334.698478397723477
  0
ARC
  5
89FA
  8
0
 10
567.9253237140238753
 20
88.8864185023383584
 30
0.0
 40
1.14413937768027
 50
270.1731015380307213
 51
273.1233132222297968
  0
ARC
  5
89FB
  8
0
 10
567.4281140649020472
 20
87.7684470965242411
 30
0.0
 40
1.0789714179491861
 50
1.283112759785324
 51
2.8766254256015951
  0
ARC
  5
89FC
  8
0
 10
569.416093188660966
 20
87.8129744231317062
 30
0.0
 40
0.9095063111985338
 50
181.2831127597852969
 51
184.1855107066087953
  0
ARC
  5
89FD
  8
0
 10
568.5153674149089511
 20
87.7495973383000347
 30
0.0
 40
0.0070291514756453
 50
205.3015216022764093
 51
233.0672327737007095
  0
ARC
  5
89FE
  8
0
 10
568.5734823109745548
 20
88.8864185023383584
 30
0.0
 40
1.14413937768027
 50
266.8766867777703169
 51
269.8268984619692219
  0
ARC
  5
89FF
  8
0
 10
568.9406724769825132
 20
85.3634589155558245
 30
0.0
 40
2.386117947186551
 50
41.1243364988508731
 51
85.5193496346533522
  0
ARC
  5
8A00
  8
0
 10
568.5608449656386938
 20
85.2238020801594018
 30
0.0
 40
2.7678678133077388
 50
3.5857668923392638
 51
38.1295088739022816
  0
ARC
  5
8A01
  8
0
 10
564.242908387835655
 20
82.0255100413636455
 30
0.0
 40
12.3710747460738801
 50
258.9715700289056031
 51
269.9571440987302822
  0
ARC
  5
8A02
  8
0
 10
562.7106811613493846
 20
74.8973361704038041
 30
0.0
 40
5.083369810346178
 50
214.0091258711117064
 51
260.553564163958697
  0
ARC
  5
8A03
  8
0
 10
564.5251956503825568
 20
75.8705648321907802
 30
0.0
 40
7.1348967174990321
 50
193.2937478882510902
 51
212.3373954171682101
  0
ARC
  5
8A04
  8
0
 10
578.6937128475344707
 20
78.4319316990974755
 30
0.0
 40
21.5263292661726702
 50
181.0399056474713007
 51
191.2565451920806936
  0
LINE
  5
8A05
  8
0
 10
559.4602510031647853
 20
87.8029018292367311
 30
0.0
 11
559.8618696933417596
 21
87.8029018292367311
 31
0.0
  0
LINE
  5
8A06
  8
0
 10
562.5817007863023491
 20
87.8344367559057986
 30
0.0
 11
561.5514833291556442
 21
87.8316888909859443
 31
0.0
  0
ARC
  5
8A07
  8
0
 10
561.5690014121460081
 20
86.6587753339281051
 30
0.0
 40
1.1730443706705089
 50
90.8556790837600374
 51
97.1898948052167952
  0
LINE
  5
8A08
  8
0
 10
560.4934977677110055
 20
87.7832257325772645
 30
0.0
 11
560.4934977677110055
 21
87.7433070655369107
 31
0.0
  0
ARC
  5
8A09
  8
0
 10
560.5328678464111363
 20
87.7832257325772645
 30
0.0
 40
0.0393700786999971
 50
90.0
 51
180.0
  0
ARC
  5
8A0A
  8
0
 10
559.863507633725817
 20
87.7240601680173739
 30
0.0
 40
0.0788586735400558
 50
14.0550903673176304
 51
91.1901521552961469
  0
LINE
  5
8A0B
  8
0
 10
560.4742300902307761
 20
87.8225958112772673
 30
0.0
 11
559.9615843427915252
 21
87.8225958112772673
 31
0.0
  0
ARC
  5
8A0C
  8
0
 10
559.3966182689139259
 20
87.7684470965242411
 30
0.0
 40
1.0789714179491861
 50
1.283112759785324
 51
2.8766254256015951
  0
ARC
  5
8A0D
  8
0
 10
561.3845973926728448
 20
87.8129744231317062
 30
0.0
 40
0.9095063111985338
 50
181.2831127597852969
 51
184.1855107066087953
  0
ARC
  5
8A0E
  8
0
 10
560.4838716189208299
 20
87.7495973383000347
 30
0.0
 40
0.0070291514756453
 50
205.3015216022764093
 51
233.0672327737007095
  0
ARC
  5
8A0F
  8
0
 10
560.5419865149865473
 20
88.8864185023383584
 30
0.0
 40
1.14413937768027
 50
266.8766867777703169
 51
269.8268984619692219
  0
ARC
  5
8A10
  8
0
 10
561.0391961641083753
 20
87.7684470965242411
 30
0.0
 40
1.0789714179491861
 50
177.1233745743984116
 51
178.7168872402147031
  0
ARC
  5
8A11
  8
0
 10
559.0512170403494565
 20
87.8129744231317062
 30
0.0
 40
0.9095063111985338
 50
355.8144892933912047
 51
358.7168872402147031
  0
ARC
  5
8A12
  8
0
 10
559.9519428141013577
 20
87.7495973383000347
 30
0.0
 40
0.0070291514756453
 50
306.9327672262994042
 51
334.698478397723477
  0
ARC
  5
8A13
  8
0
 10
559.893827918035754
 20
88.8864185023383584
 30
0.0
 40
1.14413937768027
 50
270.1731015380307213
 51
273.1233132222297968
  0
ARC
  5
8A15
  8
0
 10
-163.2420622359468041
 20
77.2995232878069913
 30
0.0
 40
720.4133731022509437
 50
0.0589912810667203
 51
0.4987554741283297
  0
ARC
  5
8A16
  8
0
 10
559.5231861255057311
 20
85.4253921099962241
 30
0.0
 40
2.3783425520112011
 50
91.5163239829163047
 51
139.6633790338165966
  0
ARC
  5
8A17
  8
0
 10
559.8174346893788424
 20
85.3176083046582221
 30
0.0
 40
2.6745945290363302
 50
141.9840761853209017
 51
178.300895156804188
  0
ARC
  5
8A18
  8
0
 10
559.5266377520279093
 20
85.3634589155558245
 30
0.0
 40
2.386117947186551
 50
94.4806503653466621
 51
138.8756635011490914
  0
ARC
  5
8A19
  8
0
 10
559.9064652633717287
 20
85.2238020801594018
 30
0.0
 40
2.7678678133077388
 50
141.8704911260977042
 51
176.4142331076606922
  0
LINE
  5
8A1A
  8
0
 10
557.1440161167414544
 20
83.5705886037996351
 30
0.0
 11
557.1440161167414544
 21
85.3969117108179034
 31
0.0
  0
ENDSEC
  0
EOF
