  0
SECTION
  2
HEADER
  9
$ACADVER
  1
AC1009
  9
$INSBASE
 10
3464.0638459845208672
 20
144.4024866723075036
 30
0.0
  9
$EXTMIN
 10
3441.4518412550128232
 20
136.6372652239367085
 30
-0.0015258207003583
  9
$EXTMAX
 10
3464.1806000205961027
 20
198.1486749814324071
 30
0.0000000349246037
  9
$LIMMIN
 10
0.0
 20
0.0
  9
$LIMMAX
 10
11.6929133858000007
 20
8.2677165353999982
  9
$ORTHOMODE
 70
     0
  9
$REGENMODE
 70
     1
  9
$FILLMODE
 70
     1
  9
$QTEXTMODE
 70
     0
  9
$MIRRTEXT
 70
     0
  9
$DRAGMODE
 70
     2
  9
$LTSCALE
 40
0.6431102362
  9
$OSMODE
 70
  2039
  9
$ATTMODE
 70
     1
  9
$TEXTSIZE
 40
0.2
  9
$TRACEWID
 40
0.05
  9
$TEXTSTYLE
  7
STANDARD
  9
$CLAYER
  8
0
  9
$CELTYPE
  6
BYLAYER
  9
$CECOLOR
 62
   256
  9
$DIMSCALE
 40
1.0
  9
$DIMASZ
 40
0.1875
  9
$DIMEXO
 40
0.0625
  9
$DIMDLI
 40
0.4443307087
  9
$DIMRND
 40
0.0
  9
$DIMDLE
 40
0.0
  9
$DIMEXE
 40
0.125
  9
$DIMTP
 40
0.01
  9
$DIMTM
 40
0.01
  9
$DIMTXT
 40
2.0
  9
$DIMCEN
 40
0.1052362205
  9
$DIMTSZ
 40
0.0
  9
$DIMTOL
 70
     1
  9
$DIMLIM
 70
     0
  9
$DIMTIH
 70
     1
  9
$DIMTOH
 70
     1
  9
$DIMSE1
 70
     0
  9
$DIMSE2
 70
     0
  9
$DIMTAD
 70
     0
  9
$DIMZIN
 70
     0
  9
$DIMBLK
  1

  9
$DIMASO
 70
     1
  9
$DIMSHO
 70
     1
  9
$DIMPOST
  1
\X
  9
$DIMAPOST
  1

  9
$DIMALT
 70
     1
  9
$DIMALTD
 70
     2
  9
$DIMALTF
 40
25.3999999999999986
  9
$DIMLFAC
 40
1.0
  9
$DIMTOFL
 70
     0
  9
$DIMTVP
 40
0.0
  9
$DIMTIX
 70
     0
  9
$DIMSOXD
 70
     0
  9
$DIMSAH
 70
     0
  9
$DIMBLK1
  1

  9
$DIMBLK2
  1

  9
$DIMSTYLE
  2
STANDARD
  9
$DIMCLRD
 70
     0
  9
$DIMCLRE
 70
     0
  9
$DIMCLRT
 70
     0
  9
$DIMTFAC
 40
1.0
  9
$DIMGAP
 40
0.09
  9
$LUNITS
 70
     2
  9
$LUPREC
 70
     4
  9
$SKETCHINC
 40
0.1
  9
$FILLETRAD
 40
0.0
  9
$AUNITS
 70
     0
  9
$AUPREC
 70
     0
  9
$MENU
  1
.
  9
$ELEVATION
 40
0.0
  9
$PELEVATION
 40
0.0
  9
$THICKNESS
 40
0.0
  9
$LIMCHECK
 70
     0
  9
$BLIPMODE
 70
     0
  9
$CHAMFERA
 40
0.0
  9
$CHAMFERB
 40
0.0
  9
$SKPOLY
 70
     0
  9
$TDCREATE
 40
2458060.468368056230247
  9
$TDUPDATE
 40
2459121.7488194447942078
  9
$TDINDWG
 40
0.5754353008999999
  9
$TDUSRTIMER
 40
0.5754353008999999
  9
$USRTIMER
 70
     1
  9
$ANGBASE
 50
0.0
  9
$ANGDIR
 70
     0
  9
$PDMODE
 70
     0
  9
$PDSIZE
 40
0.3125
  9
$PLINEWID
 40
0.0
  9
$COORDS
 70
     1
  9
$SPLFRAME
 70
     0
  9
$SPLINETYPE
 70
     6
  9
$SPLINESEGS
 70
     8
  9
$ATTDIA
 70
     1
  9
$ATTREQ
 70
     1
  9
$HANDLING
 70
     1
  9
$HANDSEED
  5
20DE7
  9
$SURFTAB1
 70
     6
  9
$SURFTAB2
 70
     6
  9
$SURFTYPE
 70
     6
  9
$SURFU
 70
     6
  9
$SURFV
 70
     6
  9
$UCSNAME
  2

  9
$UCSORG
 10
0.0
 20
0.0
 30
0.0
  9
$UCSXDIR
 10
1.0
 20
0.0
 30
0.0
  9
$UCSYDIR
 10
0.0
 20
1.0
 30
0.0
  9
$PUCSNAME
  2

  9
$PUCSORG
 10
0.0
 20
0.0
 30
0.0
  9
$PUCSXDIR
 10
1.0
 20
0.0
 30
0.0
  9
$PUCSYDIR
 10
0.0
 20
1.0
 30
0.0
  9
$USERI1
 70
     0
  9
$USERI2
 70
     0
  9
$USERI3
 70
     0
  9
$USERI4
 70
     0
  9
$USERI5
 70
     0
  9
$USERR1
 40
0.0
  9
$USERR2
 40
0.0
  9
$USERR3
 40
0.0
  9
$USERR4
 40
0.0
  9
$USERR5
 40
0.0
  9
$WORLDVIEW
 70
     1
  9
$SHADEDGE
 70
     3
  9
$SHADEDIF
 70
    70
  9
$TILEMODE
 70
     1
  9
$MAXACTVP
 70
    64
  9
$PLIMCHECK
 70
     0
  9
$PEXTMIN
 10
1.0000000000000000E+20
 20
1.0000000000000000E+20
 30
1.0000000000000000E+20
  9
$PEXTMAX
 10
-1.0000000000000000E+20
 20
-1.0000000000000000E+20
 30
-1.0000000000000000E+20
  9
$PLIMMIN
 10
0.0
 20
0.0
  9
$PLIMMAX
 10
12.0
 20
9.0
  9
$UNITMODE
 70
     0
  9
$VISRETAIN
 70
     1
  9
$PLINEGEN
 70
     0
  9
$PSLTSCALE
 70
     1
  0
ENDSEC
  0
SECTION
  2
TABLES
  0
TABLE
  2
VPORT
 70
     1
  0
VPORT
  2
*ACTIVE
 70
     0
 10
0.0
 20
0.0
 11
1.0
 21
1.0
 12
149.1231054034286956
 22
-27.8685414732031482
 13
0.0
 23
0.0
 14
1.0
 24
1.0
 15
0.0
 25
0.0
 16
0.0
 26
0.0
 36
96.5995694866707311
 17
3303.693115234375
 27
195.2615115758877096
 37
0.0
 40
62.0232938886260428
 41
2.6486111111111108
 42
50.0
 43
0.0
 44
0.0
 50
0.0
 51
0.0
 71
     0
 72
   100
 73
     1
 74
     1
 75
     0
 76
     0
 77
     0
 78
     0
  0
ENDTAB
  0
TABLE
  2
LTYPE
 70
     2
  0
LTYPE
  2
CONTINUOUS
 70
     0
  3
Solid line
 72
    65
 73
     0
 40
0.0
  0
LTYPE
  2
PHANTOM2
 70
     0
  3
___ _ _ ___ _ _ ___ _ _ ___ _ _
 72
    65
 73
     6
 40
1.25
 49
0.625
 49
-0.125
 49
0.125
 49
-0.125
 49
0.125
 49
-0.125
  0
ENDTAB
  0
TABLE
  2
LAYER
 70
     2
  0
LAYER
  2
0
 70
     0
 62
   255
  6
CONTINUOUS
  0
LAYER
  2
DEFPOINTS
 70
     0
 62
     7
  6
CONTINUOUS
  0
ENDTAB
  0
TABLE
  2
STYLE
 70
     1
  0
STYLE
  2
STANDARD
 70
     0
 40
0.0
 41
0.8
 50
0.0
 71
     0
 42
0.2
  3
txt
  4

  0
ENDTAB
  0
TABLE
  2
VIEW
 70
     0
  0
ENDTAB
  0
TABLE
  2
UCS
 70
     0
  0
ENDTAB
  0
TABLE
  2
APPID
 70
     9
  0
APPID
  2
ACAD
 70
     0
  0
APPID
  2
ACAD_MLEADERVER
 70
     0
  0
APPID
  2
ACAD_EXEMPT_FROM_CAD_STANDARDS
 70
     0
  0
APPID
  2
ACAD_NAV_VCDISPLAY
 70
     0
  0
APPID
  2
ACAECLAYERSTANDARD
 70
     0
  0
APPID
  2
ACCMTRANSPARENCY
 70
     0
  0
APPID
  2
ACAD_DSTYLE_DIMJAG
 70
     0
  0
APPID
  2
ACAD_DSTYLE_DIMTALN
 70
     0
  0
APPID
  2
ACDBATTR
 70
     0
  0
ENDTAB
  0
TABLE
  2
DIMSTYLE
 70
     1
  0
DIMSTYLE
  2
STANDARD
 70
     0
  3

  4

  5

  6

  7

 40
1.0
 41
0.1875
 42
0.0625
 43
0.38
 44
0.125
 45
0.0
 46
0.0
 47
0.01
 48
0.01
140
0.15625
141
0.09
142
0.0
143
25.3999999999999986
144
1.0
145
0.0
146
1.0
147
0.09
 71
     1
 72
     0
 73
     1
 74
     1
 75
     0
 76
     0
 77
     0
 78
     4
170
     0
171
     2
172
     0
173
     0
174
     0
175
     0
176
     0
177
     0
178
     0
  0
ENDTAB
  0
ENDSEC
  0
SECTION
  2
BLOCKS
  0
BLOCK
  8
0
  2
$MODEL_SPACE
 70
     0
 10
0.0
 20
0.0
 30
0.0
  3
$MODEL_SPACE
  1

  0
ENDBLK
  5
21
  8
0
  0
BLOCK
 67
     1
  8
0
  2
$PAPER_SPACE
 70
     0
 10
0.0
 20
0.0
 30
0.0
  3
$PAPER_SPACE
  1

  0
ENDBLK
  5
1D
 67
     1
  8
0
  0
BLOCK
  8
0
  2
_FILLED
 70
     0
 10
0.0
 20
0.0
 30
0.0
  3
_FILLED
  1

  0
SOLID
  5
9E2C
  8
0
  6
BYBLOCK
 62
     0
 10
0.0
 20
0.0
 30
0.0
 11
-1.0
 21
0.1666666667
 31
0.0
 12
-1.0
 22
-0.1666666667
 32
0.0
 13
-1.0
 23
-0.1666666667
 33
0.0
  0
ENDBLK
  5
9E2D
  8
0
  6
BYBLOCK
 62
     0
  0
BLOCK
  8
0
  2
A$C6B0F1CD5
 70
     2
 10
0.0
 20
0.0
 30
0.0
  3
A$C6B0F1CD5
  1

  0
ATTDEF
  5
B779
  8
DEFPOINTS
 10
0.0005209962714616
 20
0.000347009907216
 30
0.0
 40
0.001
  1
BATH FAUCET
  3

  2
PRODUCT
 70
     0
1001
ACDBATTR
1070
     0
1070
     1
  0
ATTDEF
  5
B77A
  8
DEFPOINTS
 10
0.0005209962714616
 20
0.0020136765738812
 30
0.0
 40
0.001
  1
SINGULIER
  3

  2
TRADENAME
 70
     0
1001
ACDBATTR
1070
     0
1070
     1
  0
ATTDEF
  5
B77B
  8
DEFPOINTS
 10
0.0005209962714616
 20
0.0036803432405463
 30
0.0
 40
0.001
  1
K-10873W
  3

  2
MODELNUMBER
 70
     0
1001
ACDBATTR
1070
     0
1070
     1
  0
ENDBLK
  5
B77F
  8
0
  0
BLOCK
  8
0
  2
A$C790C4779
 70
     0
 10
0.0
 20
0.0
 30
0.0
  3
A$C790C4779
  1

  0
LINE
  5
135B8
  8
0
 62
     1
 10
0.0000000000000002
 20
-37.3954278042999988
 30
0.0
 11
0.0000000000000019
 21
198.1830139320483966
 31
0.0
  0
LINE
  5
135B9
  8
0
 10
-4.232274871249996
 20
-0.0000000000500009
 30
0.0
 11
-1.6732305542500019
 21
0.0000000000500009
 31
0.0
  0
ARC
  5
135BA
  8
0
 10
-1.673230554249227
 20
-0.019685039349227
 30
0.0
 40
0.0196850393992278
 50
359.9999999977458174
 51
90.0000000022289299
  0
LINE
  5
135BB
  8
0
 10
-1.65354551485
 20
-0.0196850393500014
 30
0.0
 11
-1.6535455148548031
 21
-0.1417322834500041
 31
0.0
  0
ARC
  5
135BC
  8
0
 10
-1.8503959085783681
 20
-0.1417322834422592
 30
0.0
 40
0.1968503937235679
 50
308.0000000051189204
 51
359.9999999977458174
  0
ARC
  5
135BD
  8
0
 10
206402.867126322700642
 20
-264186.1327213866170496
 30
0.0
 40
335256.6379051808035001
 50
128.0000000051190909
 51
128.0001315430347972
  0
ARC
  5
135BE
  8
0
 10
-2.3841858483936611
 20
-0.7086672312258245
 30
0.0
 40
0.0787343436991881
 50
269.9974989648274004
 51
308.0001315430346835
  0
LINE
  5
135BF
  8
0
 10
-2.3841892852500002
 20
-0.7874015748500014
 30
0.0
 11
-3.521326940266623
 21
-0.7873519373147886
 31
0.0
  0
ARC
  5
135C0
  8
0
 10
-3.5213234946367509
 20
-0.7084166022533154
 30
0.0
 40
0.0789353351366763
 50
232.1074321309334039
 51
269.9974989648262067
  0
ARC
  5
135C1
  8
0
 10
122.5627830190684051
 20
161.2970992303251876
 30
0.0
 40
205.3665118602133077
 50
231.8926994283673935
 51
232.1074321309334039
  0
ARC
  5
135C2
  8
0
 10
-4.05438302028411
 20
-0.1413806812727074
 30
0.0
 40
0.1975826044299356
 50
180.1019590338792966
 51
231.894492101153304
  0
LINE
  5
135C3
  8
0
 10
-3.4665376408499968
 20
-0.8464569578199387
 30
0.0
 11
-3.4665376408499968
 21
-0.7873543289388536
 31
0.0
  0
LINE
  5
135C4
  8
0
 10
-2.4389785857499979
 20
-0.8464564280499971
 30
0.0
 11
-2.4389785857499979
 21
-0.7873991832258938
 31
0.0
  0
LINE
  5
135C5
  8
0
 10
-4.1763149515081661
 20
-0.2968525105499964
 30
0.0
 11
-1.729202704762441
 21
-0.2968525105499964
 31
0.0
  0
ARC
  5
135C6
  8
0
 10
-4.2322710507446732
 20
-0.0196942628668566
 30
0.0
 40
0.0196942632874289
 50
90.0111148525494258
 51
179.9731663683137128
  0
LINE
  5
135C7
  8
0
 10
-4.2519653118722616
 20
-0.0196850393500014
 30
0.0
 11
-4.2519653118722616
 21
-0.1417322834500041
 31
0.0
  0
LINE
  5
135C8
  8
0
 10
4.2322748712499969
 20
-0.0000000000500009
 30
0.0
 11
1.6732305542500019
 21
0.0000000000500009
 31
0.0
  0
ARC
  5
135C9
  8
0
 10
1.6732305542492281
 20
-0.019685039349227
 30
0.0
 40
0.0196850393992278
 50
89.9999999977710843
 51
180.0000000022540974
  0
LINE
  5
135CA
  8
0
 10
1.65354551485
 20
-0.0196850393500014
 30
0.0
 11
1.6535455148548031
 21
-0.1417322834500041
 31
0.0
  0
ARC
  5
135CB
  8
0
 10
1.8503959085783681
 20
-0.1417322834422592
 30
0.0
 40
0.1968503937235679
 50
180.0000000022540974
 51
231.999999994881108
  0
ARC
  5
135CC
  8
0
 10
-206402.867126322700642
 20
-264186.1327213866170496
 30
0.0
 40
335256.6379051808035001
 50
51.9998684569652525
 51
51.9999999948808806
  0
ARC
  5
135CD
  8
0
 10
2.3841858483936611
 20
-0.7086672312258245
 30
0.0
 40
0.0787343436991881
 50
231.9998684569652028
 51
270.0025010351724859
  0
LINE
  5
135CE
  8
0
 10
2.3841892852500002
 20
-0.7874015748500014
 30
0.0
 11
3.5213269402666239
 21
-0.7873519373147886
 31
0.0
  0
ARC
  5
135CF
  8
0
 10
3.5213234946367522
 20
-0.7084166022533154
 30
0.0
 40
0.0789353351366763
 50
270.0025010351737933
 51
307.8925678690666246
  0
ARC
  5
135D0
  8
0
 10
-122.5627830190684051
 20
161.2970992303251876
 30
0.0
 40
205.3665118602133077
 50
307.8925678690666246
 51
308.1073005716326065
  0
ARC
  5
135D1
  8
0
 10
4.0543830206346447
 20
-0.1413806814436782
 30
0.0
 40
0.1975826040790903
 50
308.1055078494570125
 51
359.8980410155184018
  0
LINE
  5
135D2
  8
0
 10
3.5236243727499978
 20
-0.8464569872500007
 30
0.0
 11
2.3818920892499991
 21
-0.8464563986499982
 31
0.0
  0
LINE
  5
135D3
  8
0
 10
2.3818920892499991
 20
-0.8464563986499982
 30
0.0
 11
2.3228369407499989
 21
-0.9055114862499991
 31
0.0
  0
LINE
  5
135D4
  8
0
 10
2.3228369407499989
 20
-0.9055114862499991
 30
0.0
 11
2.32283669621774
 21
-1.377952431149992
 31
0.0
  0
LINE
  5
135D5
  8
0
 10
2.32283669621774
 20
-1.377952431149992
 30
0.0
 11
2.3818917848499961
 21
-1.4370075797500019
 31
0.0
  0
LINE
  5
135D6
  8
0
 10
2.3818917848499961
 20
-1.4370075797500019
 30
0.0
 11
3.5236240682500002
 21
-1.4370092896499991
 31
0.0
  0
LINE
  5
135D7
  8
0
 10
3.5236240682500002
 20
-1.4370092896499991
 30
0.0
 11
3.5826792168500021
 21
-1.377954201950004
 31
0.0
  0
LINE
  5
135D8
  8
0
 10
3.5826792168500021
 20
-1.377954201950004
 30
0.0
 11
3.582679460450001
 21
-0.905512135849996
 31
0.0
  0
LINE
  5
135D9
  8
0
 10
3.582679460450001
 20
-0.905512135849996
 30
0.0
 11
3.5236243727499978
 21
-0.8464569872500007
 31
0.0
  0
LINE
  5
135DA
  8
0
 10
3.4665376408499982
 20
-0.8464569578199387
 30
0.0
 11
3.4665376408499982
 21
-0.7873543289388536
 31
0.0
  0
LINE
  5
135DB
  8
0
 10
2.4389785857499979
 20
-0.8464564280499971
 30
0.0
 11
2.4389785857499979
 21
-0.7873991832258938
 31
0.0
  0
LINE
  5
135DC
  8
0
 10
4.176314951508167
 20
-0.2968525105499964
 30
0.0
 11
1.729202704762441
 21
-0.2968525105499964
 31
0.0
  0
ARC
  5
135DD
  8
0
 10
4.2322710507446706
 20
-0.0196942628668637
 30
0.0
 40
0.01969426328744
 50
0.0268336317070377
 51
89.9888851474415361
  0
LINE
  5
135DE
  8
0
 10
4.2519653118722616
 20
-0.0196850393500014
 30
0.0
 11
4.2519653118722616
 21
-0.1417322834500041
 31
0.0
  0
LINE
  5
135DF
  8
0
 10
3.5433038938999988
 20
-0.9055123383000065
 30
0.0
 11
3.543303893900001
 21
-1.3779528689999969
 31
0.0
  0
LINE
  5
135E0
  8
0
 10
3.5826792168507078
 20
-1.377952833859438
 30
0.0
 11
3.4378639481999991
 21
-1.3779529631
 31
0.0
  0
ARC
  5
135E1
  8
0
 10
3.248028303433538
 20
-0.9399295068502055
 30
0.0
 40
0.4773909512347318
 50
246.5685011794114985
 51
293.4314988205883878
  0
LINE
  5
135E2
  8
0
 10
3.0581926583999999
 20
-1.3779529631
 30
0.0
 11
2.8473127671000542
 21
-1.3779527748999949
 31
0.0
  0
ARC
  5
135E3
  8
0
 10
2.6574772525882229
 20
-0.9398586328204601
 30
0.0
 40
0.4774560333709902
 50
246.5718688740558946
 51
293.4280970205315953
  0
LINE
  5
135E4
  8
0
 10
2.4676414772999991
 20
-1.3779529631
 30
0.0
 11
2.322837098936501
 21
-1.3779528338691589
 31
0.0
  0
LINE
  5
135E5
  8
0
 10
2.3622015316999998
 20
-1.3779528689999969
 30
0.0
 11
2.3622015316999989
 21
-0.9055123382999994
 31
0.0
  0
LINE
  5
135E6
  8
0
 10
3.582679460449878
 20
-0.9055123734407715
 30
0.0
 11
3.4378639481999991
 21
-0.9055122441999969
 31
0.0
  0
ARC
  5
135E7
  8
0
 10
3.248028303433538
 20
-1.343535700449791
 30
0.0
 40
0.4773909512347318
 50
66.5685011794114843
 51
113.4314988205885015
  0
LINE
  5
135E8
  8
0
 10
3.0581926583999999
 20
-0.9055122441999969
 30
0.0
 11
2.8473127671000542
 21
-0.9055124324000018
 31
0.0
  0
ARC
  5
135E9
  8
0
 10
2.6574772525882229
 20
-1.3436065744795369
 30
0.0
 40
0.4774560333709902
 50
66.5719029794683621
 51
113.4281311259440059
  0
LINE
  5
135EA
  8
0
 10
2.4676414772999991
 20
-0.9055122441999969
 30
0.0
 11
2.3228369407495402
 21
-0.9055123734309802
 31
0.0
  0
LINE
  5
135EB
  8
0
 10
3.4378639481999982
 20
-0.9055122441999969
 30
0.0
 11
3.4378639481999982
 21
-1.3779529631
 31
0.0
  0
LINE
  5
135EC
  8
0
 10
3.0581926583999999
 20
-0.9055122442336838
 30
0.0
 11
3.058192658399999
 21
-1.377952963066313
 31
0.0
  0
LINE
  5
135ED
  8
0
 10
2.8473127671
 20
-0.9055124324000018
 30
0.0
 11
2.8473127671
 21
-1.3779527748999949
 31
0.0
  0
LINE
  5
135EE
  8
0
 10
2.4676414772999991
 20
-0.9055122441999969
 30
0.0
 11
2.4676414772999999
 21
-1.3779529631
 31
0.0
  0
LINE
  5
135EF
  8
0
 10
-3.6169677232999988
 20
-1.523622219399996
 30
0.0
 11
3.6169677232999988
 21
-1.523622219399996
 31
0.0
  0
LINE
  5
135F0
  8
0
 10
-3.6169677232999988
 20
-1.523622219399996
 30
0.0
 11
-3.6169655664706148
 21
-1.79921328830644
 31
0.0
  0
LINE
  5
135F1
  8
0
 10
3.6169677233000002
 20
-1.523622219399996
 30
0.0
 11
3.6169655664706148
 21
-1.79921328830644
 31
0.0
  0
ARC
  5
135F2
  8
0
 10
2.6574690738000011
 20
-1.7992057790999989
 30
0.0
 40
0.9594964926999981
 50
270.0002677998999729
 51
359.9995515920693947
  0
LINE
  5
135F3
  8
0
 10
2.6574735584770042
 20
-2.7587022717895162
 30
0.0
 11
2.2392906997799491
 21
-2.7587042263720098
 31
0.0
  0
ARC
  5
135F4
  8
0
 10
1.907109920768588
 20
-4.075208196272551
 30
0.0
 40
1.3083373122455031
 50
92.8163441161551788
 51
111.9714302184384991
  0
ARC
  5
135F5
  8
0
 10
1.6844007503543561
 20
-3.5169014528423679
 30
0.0
 40
0.7072586572166115
 50
112.1620754251559049
 51
163.3646549416143046
  0
ARC
  5
135F6
  8
0
 10
2.7186311955143219
 20
-3.8197152938323948
 30
0.0
 40
1.784901853957199
 50
163.5553001483318099
 51
178.3862015974247868
  0
ARC
  5
135F7
  8
0
 10
17.0322942082439717
 20
-4.2229819411431349
 30
0.0
 40
16.1042444656422106
 50
178.3862015974247868
 51
179.0624040412432976
  0
LINE
  5
135F8
  8
0
 10
0.9302059317510785
 20
-3.9594616474315032
 30
0.0
 11
0.9302059317510789
 21
-6.2430797267999969
 31
0.0
  0
ARC
  5
135F9
  8
0
 10
-11.7908390203851798
 20
-5.718937694217189
 30
0.0
 40
12.7318384196702503
 50
355.5078398175591019
 51
357.6405908905456954
  0
ARC
  5
135FA
  8
0
 10
0.2226689771053312
 20
-6.6400791684104936
 30
0.0
 40
0.6834632913349376
 50
333.5756682723919084
 51
353.6113554237957146
  0
ARC
  5
135FB
  8
0
 10
-0.000004227200002
 20
-6.543456277899991
 30
0.0
 40
0.9259561775000049
 50
270.0002615682309965
 51
334.3531834573997799
  0
ARC
  5
135FC
  8
0
 10
-0.0039294877421534
 20
-2.5412034252165361
 30
0.0
 40
0.8186418030565732
 50
2.3872099443528429
 51
89.7249787062001758
  0
ARC
  5
135FD
  8
0
 10
-1.2042913979932119
 20
-4.5679724788304936
 30
0.0
 40
2.0296260080375919
 50
339.3436971396209856
 51
353.942414238114111
  0
ARC
  5
135FE
  8
0
 10
0.004017697323935
 20
-4.9538129150649262
 30
0.0
 40
0.7656678747152985
 50
269.6993498564817742
 51
334.446170457167284
  0
ARC
  5
135FF
  8
0
 10
2.1686245118476162
 20
-7.9508769724150801
 30
0.0
 40
5.192656081247792
 50
89.2201525049801347
 51
93.5971406112717261
  0
LINE
  5
13600
  8
0
 10
10.3808581070999999
 20
0.0000014401000001
 30
0.0
 11
12.3030732488000005
 21
0.0000014401000001
 31
0.0
  0
LINE
  5
13601
  8
0
 10
12.3030732488000005
 20
0.0000014401000001
 30
0.0
 11
12.29657102
 21
-1.033483819499998
 31
0.0
  0
ARC
  5
13602
  8
0
 10
8.1992593507892622
 20
-1.007705359971282
 30
0.0
 40
4.0973927616993393
 50
345.2166835011761918
 51
359.6395252388066979
  0
ARC
  5
13603
  8
0
 10
7.665804588572442
 20
-0.8630059943421527
 30
0.0
 40
4.6501126065208096
 50
341.9974842144903278
 51
345.1699741906389818
  0
ARC
  5
13604
  8
0
 10
12.0028788648755391
 20
-2.2764817731436571
 30
0.0
 40
0.0886059968295827
 50
318.0992830752639975
 51
344.4977818221523762
  0
ARC
  5
13605
  8
0
 10
12.0222500335543199
 20
-2.2924277543286129
 30
0.0
 40
0.0635475594357337
 50
280.4396121136027205
 51
317.1360971380005935
  0
LINE
  5
13606
  8
0
 10
12.0337647944999997
 20
-2.3549233748999958
 30
0.0
 11
11.9798079277565606
 21
-2.3627665272333331
 31
0.0
  0
ARC
  5
13607
  8
0
 10
11.9770126687480296
 20
-2.3433200881157599
 30
0.0
 40
0.0196466119684799
 50
190.154941106188403
 51
277.939795250628606
  0
LINE
  5
13608
  8
0
 10
11.95767382945
 20
-2.3467839957999952
 30
0.0
 11
11.9571443876300005
 21
-2.308943896012607
 31
0.0
  0
LINE
  5
13609
  8
0
 10
10.7521216164000002
 20
-1.210324162899993
 30
0.0
 11
11.9318097393000002
 21
-1.210324196599998
 31
0.0
  0
ARC
  5
1360A
  8
0
 10
11.9318097387331292
 20
-1.230167867049893
 30
0.0
 40
0.0198436704498946
 50
359.8147381281693242
 51
89.9999983632289542
  0
LINE
  5
1360B
  8
0
 10
11.9516533054496605
 20
-1.2302320300503231
 30
0.0
 11
11.9566201102960505
 21
-2.208815112944535
 31
0.0
  0
ARC
  5
1360C
  8
0
 10
11.8551802160073105
 20
-2.2804312542049838
 30
0.0
 40
0.1058756961608776
 50
344.3772049374097719
 51
2.5461677608355711
  0
ARC
  5
1360D
  8
0
 10
10.6067466818612992
 20
-2.3297893135268088
 30
0.0
 40
1.3552833762090479
 50
2.2861042438788921
 51
5.1211050264768181
  0
LINE
  5
1360E
  8
0
 10
11.9443278825999997
 20
-1.214818001299995
 30
0.0
 11
11.9443278825999997
 21
-2.0771530284999988
 31
0.0
  0
ARC
  5
1360F
  8
0
 10
7.7738742757910222
 20
-2.5360116965846942
 30
0.0
 40
4.1956208794196908
 50
4.4909549061469374
 51
6.2787749749526132
  0
ARC
  5
13610
  8
0
 10
8.9328028997891487
 20
-2.4084993214452619
 30
0.0
 40
3.0296985143644992
 50
6.2787749749526123
 51
11.4328692858054399
  0
ARC
  5
13611
  8
0
 10
6.2269925402716213
 20
-2.9813099462674368
 30
0.0
 40
5.7954158466209558
 50
11.6810173414004108
 51
12.6660501549976203
  0
ARC
  5
13612
  8
0
 10
11.3410135079070997
 20
-1.8142682605241871
 30
0.0
 40
0.5503239048216554
 50
10.86426564846942
 51
89.8999399818415554
  0
ARC
  5
13613
  8
0
 10
11.9403624301628604
 20
-1.271832645922472
 30
0.0
 40
0.011990444703853
 50
16.7031499675962891
 51
70.6476770153719542
  0
ARC
  5
13614
  8
0
 10
11.9403908746999896
 20
-1.8779516345999949
 30
0.0
 40
0.011811023600004
 50
289.5118474172356855
 51
0.0
  0
LINE
  5
13615
  8
0
 10
11.9522018983000002
 20
-1.8779516345999949
 30
0.0
 11
11.9528880707079601
 21
-1.4735112468700251
 31
0.0
  0
ARC
  5
13616
  8
0
 10
11.8716683941174104
 20
-2.2845554211270871
 30
0.0
 40
0.0888872497842505
 50
331.9619538346584022
 51
344.0752043370417255
  0
ARC
  5
13617
  8
0
 10
13.6448174646469802
 20
-2.6082002513809708
 30
0.0
 40
1.7179739166623069
 50
170.5569657723497983
 51
176.416341704627996
  0
ARC
  5
13618
  8
0
 10
40.6176326128047194
 20
-4.5165655329799712
 30
0.0
 40
28.7581617563696206
 50
175.9806653773430867
 51
177.8243949032508056
  0
ARC
  5
13619
  8
0
 10
11.3109454596221699
 20
-3.9843821651330771
 30
0.0
 40
2.3739108471967758
 50
270.7487131088689125
 51
304.0721119084967086
  0
ARC
  5
1361A
  8
0
 10
11.9392484018913105
 20
-4.9930688185020671
 30
0.0
 40
1.1872246568299929
 50
306.2278427815676878
 51
341.1817607006785806
  0
ARC
  5
1361B
  8
0
 10
12.2872573453760499
 20
-5.1116643625316414
 30
0.0
 40
0.8195629538895935
 50
341.1817607006785806
 51
357.4079159961017922
  0
ARC
  5
1361C
  8
0
 10
11.8011570714692908
 20
-5.0896579760327496
 30
0.0
 40
1.3061611015833281
 50
357.4079159961017922
 51
1.859337335707236
  0
LINE
  5
1361D
  8
0
 10
13.1066304719000009
 20
-5.0472784519999934
 30
0.0
 11
13.0868023329999996
 21
-4.6459973220999942
 31
0.0
  0
ARC
  5
1361E
  8
0
 10
12.1079914253851406
 20
-4.7028268321022209
 30
0.0
 40
0.9804592730312299
 50
3.322847899046351
 51
30.3415943727762816
  0
ARC
  5
1361F
  8
0
 10
11.7444886779769906
 20
-4.9405605757694451
 30
0.0
 40
1.4144290415860841
 50
31.2144213116060705
 51
59.0490585062247391
  0
ARC
  5
13620
  8
0
 10
10.8464265443629309
 20
-6.5341546809798103
 30
0.0
 40
3.2433612945695489
 50
59.9218854450547767
 51
66.9248125443956212
  0
ARC
  5
13621
  8
0
 10
12.6684623023076401
 20
-2.2204077592796159
 30
0.0
 40
1.4394475239673199
 50
236.7965187613311002
 51
247.5006852366697103
  0
ARC
  5
13622
  8
0
 10
12.0955923033801795
 20
-3.08839684311718
 30
0.0
 40
0.3994826227261367
 50
222.6214766235947025
 51
237.3723914536045925
  0
ARC
  5
13623
  8
0
 10
11.8438483531682408
 20
-3.3152100033849901
 30
0.0
 40
0.0609266116601539
 50
200.1534310629050992
 51
225.9817505718258133
  0
ARC
  5
13624
  8
0
 10
11.9762488603168809
 20
-3.3085488660547631
 30
0.0
 40
0.1916027213839594
 50
177.8119439527129089
 51
188.2980249856892101
  0
LINE
  5
13625
  8
0
 10
11.7847858370215999
 20
-3.3012335704231068
 30
0.0
 11
11.8417615188000003
 21
-1.918661399399987
 31
0.0
  0
ARC
  5
13626
  8
0
 10
12.9657332026160592
 20
-1.9649801770574551
 30
0.0
 40
1.124925675404381
 50
165.616448583165095
 51
177.6401810463889888
  0
ARC
  5
13627
  8
0
 10
11.3471134242308
 20
-3.5432079149980491
 30
0.0
 40
2.3829989295199301
 50
269.8762315409881012
 51
287.8607440399625261
  0
ARC
  5
13628
  8
0
 10
11.51442690145727
 20
-4.062436459526416
 30
0.0
 40
1.837478919699338
 50
287.8607440399622988
 51
310.9111810268066733
  0
ARC
  5
13629
  8
0
 10
11.9834054086248099
 20
-4.6036266166918827
 30
0.0
 40
1.1213590788920349
 50
310.9111810268066733
 51
334.6055649638310001
  0
ARC
  5
1362A
  8
0
 10
12.1240198547220093
 20
-4.6703785286917103
 30
0.0
 40
0.9657048460332601
 50
334.6055649638310001
 51
351.8644030939661889
  0
ARC
  5
1362B
  8
0
 10
12.2224814324441091
 20
-4.6844541034681866
 30
0.0
 40
0.866242269690127
 50
351.8644030939661889
 51
359.9718430927334225
  0
LINE
  5
1362C
  8
0
 10
10.3808581069999999
 20
0.0000014401000001
 30
0.0
 11
10.3873603358000004
 21
-1.033483819499998
 31
0.0
  0
ARC
  5
1362D
  8
0
 10
14.48467200501074
 20
-1.007705359971282
 30
0.0
 40
4.0973927616993393
 50
180.3604747611933021
 51
194.7833164988236945
  0
ARC
  5
1362E
  8
0
 10
15.0181267672275602
 20
-0.8630059943421527
 30
0.0
 40
4.6501126065208096
 50
194.8300258093609898
 51
198.0025157855097007
  0
ARC
  5
1362F
  8
0
 10
10.6810524909244595
 20
-2.2764817731436571
 30
0.0
 40
0.0886059968295827
 50
195.5022181778475101
 51
221.9007169247360025
  0
ARC
  5
13630
  8
0
 10
10.6616813222456894
 20
-2.2924277543286129
 30
0.0
 40
0.0635475594357337
 50
222.8639028619994065
 51
259.5603878863972227
  0
LINE
  5
13631
  8
0
 10
10.6501665613000007
 20
-2.3549233748999958
 30
0.0
 11
10.7041234280434399
 21
-2.3627665272333331
 31
0.0
  0
ARC
  5
13632
  8
0
 10
10.7069186870519708
 20
-2.3433200881157599
 30
0.0
 40
0.0196466119684799
 50
262.0602047493715077
 51
349.845058893811597
  0
LINE
  5
13633
  8
0
 10
10.7262575263500004
 20
-2.3467839957999952
 30
0.0
 11
10.7267869681699999
 21
-2.308943896012607
 31
0.0
  0
ARC
  5
13634
  8
0
 10
10.7521216170668694
 20
-1.230167867049893
 30
0.0
 40
0.0198436704498946
 50
90.0000016367710316
 51
180.1852618718305905
  0
LINE
  5
13635
  8
0
 10
10.7322780503503399
 20
-1.2302320300503231
 30
0.0
 11
10.7273112455039605
 21
-2.208815112944535
 31
0.0
  0
ARC
  5
13636
  8
0
 10
10.8287511397926899
 20
-2.2804312542049838
 30
0.0
 40
0.1058756961608776
 50
177.4538322391643987
 51
195.6227950625901997
  0
ARC
  5
13637
  8
0
 10
12.0771846739387101
 20
-2.3297893135268088
 30
0.0
 40
1.3552833762090479
 50
174.8788949735231881
 51
177.7138957561211043
  0
LINE
  5
13638
  8
0
 10
10.7396034732000007
 20
-1.214818001299995
 30
0.0
 11
10.7396034732000007
 21
-2.0771530284999988
 31
0.0
  0
ARC
  5
13639
  8
0
 10
14.9100570800089791
 20
-2.5360116965846942
 30
0.0
 40
4.1956208794196908
 50
173.7212250250474028
 51
175.5090450938533877
  0
ARC
  5
1363A
  8
0
 10
13.75112845601085
 20
-2.4084993214452619
 30
0.0
 40
3.0296985143644992
 50
168.5671307141944908
 51
173.7212250250474028
  0
ARC
  5
1363B
  8
0
 10
16.4569388155283782
 20
-2.9813099462674368
 30
0.0
 40
5.7954158466209558
 50
167.3339498450023086
 51
168.3189826585995093
  0
ARC
  5
1363C
  8
0
 10
11.3429178478929007
 20
-1.8142682605241871
 30
0.0
 40
0.5503239048216554
 50
90.1000600181584446
 51
169.1357343515306013
  0
ARC
  5
1363D
  8
0
 10
10.7435689256371294
 20
-1.271832645922472
 30
0.0
 40
0.011990444703853
 50
109.3523229846280032
 51
163.2968500324037109
  0
ARC
  5
1363E
  8
0
 10
10.7435404811000108
 20
-1.8779516345999949
 30
0.0
 40
0.011811023600004
 50
180.0
 51
250.4881525827642861
  0
LINE
  5
1363F
  8
0
 10
10.7317294575000002
 20
-1.8779516345999949
 30
0.0
 11
10.7310432850920296
 21
-1.4735112468700251
 31
0.0
  0
ARC
  5
13640
  8
0
 10
10.81226296168259
 20
-2.2845554211270871
 30
0.0
 40
0.0888872497842505
 50
195.9247956629581893
 51
208.0380461653415125
  0
ARC
  5
13641
  8
0
 10
9.0391138911530184
 20
-2.6082002513809708
 30
0.0
 40
1.7179739166623069
 50
3.583658295372016
 51
9.4430342276501467
  0
ARC
  5
13642
  8
0
 10
-17.9337012570047207
 20
-4.5165655329799712
 30
0.0
 40
28.7581617563696206
 50
2.1756050967491292
 51
4.0193346226568458
  0
ARC
  5
13643
  8
0
 10
11.4255435852618508
 20
-3.8167771224841109
 30
0.0
 40
2.5426871789811072
 50
237.0628215887417127
 51
268.1163533938930073
  0
ARC
  5
13644
  8
0
 10
10.7446829539086792
 20
-4.9930688185020671
 30
0.0
 40
1.1872246568299929
 50
198.8182392993213909
 51
233.7721572184323975
  0
ARC
  5
13645
  8
0
 10
10.3966740104239399
 20
-5.1116643625316414
 30
0.0
 40
0.8195629538895935
 50
182.5920840038982078
 51
198.8182392993213909
  0
ARC
  5
13646
  8
0
 10
10.8827742843307096
 20
-5.0896579760327496
 30
0.0
 40
1.3061611015833281
 50
178.1406626642927051
 51
182.5920840038982078
  0
LINE
  5
13647
  8
0
 10
9.5773008839000013
 20
-5.0472784519999934
 30
0.0
 11
9.5971290228000043
 21
-4.6459973220999942
 31
0.0
  0
ARC
  5
13648
  8
0
 10
10.5759399304148705
 20
-4.7028268321022209
 30
0.0
 40
0.9804592730312299
 50
149.6584056272236865
 51
176.6771521009536059
  0
ARC
  5
13649
  8
0
 10
10.9394426778230098
 20
-4.9405605757694451
 30
0.0
 40
1.4144290415860841
 50
120.9509414937752041
 51
148.7855786883939118
  0
ARC
  5
1364A
  8
0
 10
11.8375048114370696
 20
-6.5341546809798103
 30
0.0
 40
3.2433612945695489
 50
113.075187455604393
 51
120.0781145549451026
  0
ARC
  5
1364B
  8
0
 10
10.0154690534923603
 20
-2.2204077592796159
 30
0.0
 40
1.4394475239673199
 50
292.4993147633302897
 51
303.2034812386688145
  0
ARC
  5
1364C
  8
0
 10
10.5883390524198209
 20
-3.08839684311718
 30
0.0
 40
0.3994826227261367
 50
302.6276085463953223
 51
317.378523376405326
  0
ARC
  5
1364D
  8
0
 10
10.8400830026317703
 20
-3.3152100033849901
 30
0.0
 40
0.0609266116601539
 50
314.0182494281742152
 51
339.8465689370949008
  0
ARC
  5
1364E
  8
0
 10
10.7076824954831196
 20
-3.3085488660547631
 30
0.0
 40
0.1916027213839594
 50
351.7019750143107899
 51
2.1880560472870609
  0
LINE
  5
1364F
  8
0
 10
10.8991455187783899
 20
-3.3012335704231068
 30
0.0
 11
10.8421698370000001
 21
-1.918661399399987
 31
0.0
  0
ARC
  5
13650
  8
0
 10
9.7181981531839376
 20
-1.9649801770574551
 30
0.0
 40
1.124925675404381
 50
2.3598189536110099
 51
14.3835514168352994
  0
ARC
  5
13651
  8
0
 10
11.3368179315692004
 20
-3.5432079149980491
 30
0.0
 40
2.3829989295199301
 50
252.1392559600373886
 51
270.1237684590118988
  0
ARC
  5
13652
  8
0
 10
11.1695044543427304
 20
-4.062436459526416
 30
0.0
 40
1.837478919699338
 50
229.088818973193213
 51
252.1392559600375876
  0
ARC
  5
13653
  8
0
 10
10.7005259471751906
 20
-4.6036266166918827
 30
0.0
 40
1.1213590788920349
 50
205.3944350361689999
 51
229.088818973193213
  0
ARC
  5
13654
  8
0
 10
10.559911501078
 20
-4.6703785286917103
 30
0.0
 40
0.9657048460332601
 50
188.1355969060338111
 51
205.3944350361689999
  0
ARC
  5
13655
  8
0
 10
10.4614499233558895
 20
-4.6844541034681866
 30
0.0
 40
0.866242269690127
 50
180.0281569072666059
 51
188.1355969060338111
  0
LINE
  5
13656
  8
0
 10
10.4604561302098205
 20
-1.7786230187561849
 30
0.0
 11
0.9302059317510789
 21
-4.5311086975323072
 31
0.0
  0
LINE
  5
13657
  8
0
 10
0.9302059317510792
 20
-5.1048187572632591
 30
0.0
 11
10.5999036389994501
 21
-2.312061071976216
 31
0.0
  0
LINE
  5
13658
  8
0
 10
11.2336978269000003
 20
-0.1102346034999968
 30
0.0
 11
11.4502333625000006
 21
-0.1102346034999968
 31
0.0
  0
ARC
  5
13659
  8
0
 10
11.4502333625000006
 20
-0.1200771551352986
 30
0.0
 40
0.0098425516353018
 50
0.0048522026362922
 51
90.0000000000394493
  0
LINE
  5
1365A
  8
0
 10
11.4600759141000008
 20
-0.1200763215999956
 30
0.0
 11
11.4600909177550001
 21
-0.2972424812523968
 31
0.0
  0
ARC
  5
1365B
  8
0
 10
11.4502492180850197
 20
-0.2972433147155584
 30
0.0
 40
0.0098416997052721
 50
269.9078786402786818
 51
0.0048522026338495
  0
LINE
  5
1365C
  8
0
 10
11.4502333943999997
 20
-0.3070850016999955
 30
0.0
 11
11.2336979033999995
 21
-0.3070850016000008
 31
0.0
  0
ARC
  5
1365D
  8
0
 10
11.23369796110393
 20
-0.2972424820962374
 30
0.0
 40
0.0098425195039326
 50
179.9999994397452099
 51
269.999664090888075
  0
LINE
  5
1365E
  8
0
 10
11.2238554415999996
 20
-0.2972424819999944
 30
0.0
 11
11.2238554433323703
 21
-0.1200771232158502
 31
0.0
  0
ARC
  5
1365F
  8
0
 10
11.2336979631454099
 20
-0.1200771233120932
 30
0.0
 40
0.0098425198130396
 50
90.0007931187747943
 51
179.9999994397468015
  0
LINE
  5
13660
  8
0
 10
11.2435404810000001
 20
-0.285157346899993
 30
0.0
 11
11.4403908747000003
 21
-0.285157346899993
 31
0.0
  0
LINE
  5
13661
  8
0
 10
11.4403908747000003
 20
-0.285157346899993
 30
0.0
 11
11.4403908747000003
 21
-0.1259827065999985
 31
0.0
  0
LINE
  5
13662
  8
0
 10
11.4403908747000003
 20
-0.1259827065999985
 30
0.0
 11
11.2435404810000001
 21
-0.1259827065999985
 31
0.0
  0
LINE
  5
13663
  8
0
 10
11.2435404810000001
 20
-0.1259827065999985
 30
0.0
 11
11.2435404810000001
 21
-0.285157346899993
 31
0.0
  0
LINE
  5
13664
  8
0
 10
11.2435404810000001
 20
-0.1329247435999932
 30
0.0
 11
11.4403908747000003
 21
-0.1329247435999932
 31
0.0
  0
LINE
  5
13665
  8
0
 10
11.4403908747000003
 20
-0.1758951483000004
 30
0.0
 11
11.2435404810000001
 21
-0.1758951483000004
 31
0.0
  0
LINE
  5
13666
  8
0
 62
     1
 10
2.9527527127499957
 20
0.0
 30
0.0
 11
3465.3914767471924279
 21
0.0
 31
0.0
  0
LINE
  5
13667
  8
0
 10
-3.3740125552999989
 20
-1.437007873999995
 30
0.0
 11
-3.3740125552999989
 21
-1.5236220473000011
 31
0.0
  0
LINE
  5
13668
  8
0
 10
-2.5314928702999988
 20
-1.523622219399996
 30
0.0
 11
-2.5314928702999988
 21
-1.4370080725999941
 31
0.0
  0
LINE
  5
13669
  8
0
 10
2.5315011772
 20
-1.5236210477475041
 30
0.0
 11
2.5315013069151591
 21
-1.4370078038106859
 31
0.0
  0
LINE
  5
1366A
  8
0
 10
3.3740208622000001
 20
-1.5236209259999991
 30
0.0
 11
3.3740208622000001
 21
-1.437009065598772
 31
0.0
  0
ARC
  5
1366B
  8
0
 10
2.271510834839332
 20
-1.5234519131982931
 30
0.0
 40
0.0207238646051601
 50
359.5319609112299872
 51
56.0224196324593322
  0
ARC
  5
1366C
  8
0
 10
2.2754550412557482
 20
-1.5175994482230091
 30
0.0
 40
0.0136663784704072
 50
56.0224196324582806
 51
91.2475798736429198
  0
LINE
  5
1366D
  8
0
 10
2.2751574879000001
 20
-1.503936309399996
 30
0.0
 11
-2.2752329068285522
 21
-1.5039382334107709
 31
0.0
  0
ARC
  5
1366E
  8
0
 10
-2.2740689617853578
 20
-1.521347485033139
 30
0.0
 40
0.0174094494500777
 50
89.727221817396412
 51
153.1828808872606089
  0
ARC
  5
1366F
  8
0
 10
-2.270154145968919
 20
-1.5238287508724959
 30
0.0
 40
0.022027201329863
 50
152.016809705136609
 51
179.4627927975514012
  0
LINE
  5
13670
  8
0
 10
-1.7716502950999991
 20
-1.503936318799993
 30
0.0
 11
-1.7716502967500001
 21
-1.4842512795
 31
0.0
  0
LINE
  5
13671
  8
0
 10
-1.7716502967500001
 20
-1.4842512795
 30
0.0
 11
-1.5354298242999991
 21
-1.484251260299998
 31
0.0
  0
LINE
  5
13672
  8
0
 10
-1.5354298242999991
 20
-1.484251260299998
 30
0.0
 11
-1.5354298226999989
 21
-1.5039362989999949
 31
0.0
  0
LINE
  5
13673
  8
0
 10
-2.3818893597500002
 20
-0.8464569872500007
 30
0.0
 11
-3.5236216432499989
 21
-0.8464563986499982
 31
0.0
  0
LINE
  5
13674
  8
0
 10
-3.5236216432499989
 20
-0.8464563986499982
 30
0.0
 11
-3.5826767917499991
 21
-0.9055114862499991
 31
0.0
  0
LINE
  5
13675
  8
0
 10
-3.5826767917499991
 20
-0.9055114862499991
 30
0.0
 11
-3.5826770362822589
 21
-1.377952431149992
 31
0.0
  0
LINE
  5
13676
  8
0
 10
-3.5826770362822589
 20
-1.377952431149992
 30
0.0
 11
-3.5236219476500028
 21
-1.4370075797500019
 31
0.0
  0
LINE
  5
13677
  8
0
 10
-3.5236219476500028
 20
-1.4370075797500019
 30
0.0
 11
-2.3818896642499992
 21
-1.4370092896499991
 31
0.0
  0
LINE
  5
13678
  8
0
 10
-2.3818896642499992
 20
-1.4370092896499991
 30
0.0
 11
-2.3228345156499959
 21
-1.377954201950004
 31
0.0
  0
LINE
  5
13679
  8
0
 10
-2.3228345156499959
 20
-1.377954201950004
 30
0.0
 11
-2.322834272049997
 21
-0.905512135849996
 31
0.0
  0
LINE
  5
1367A
  8
0
 10
-2.322834272049997
 20
-0.905512135849996
 30
0.0
 11
-2.3818893597500002
 21
-0.8464569872500007
 31
0.0
  0
LINE
  5
1367B
  8
0
 10
-2.3622098386000001
 20
-0.9055123383000065
 30
0.0
 11
-2.3622098385999979
 21
-1.3779528689999969
 31
0.0
  0
LINE
  5
1367C
  8
0
 10
-2.3228345156492902
 20
-1.377952833859438
 30
0.0
 11
-2.4676497842999989
 21
-1.3779529631
 31
0.0
  0
ARC
  5
1367D
  8
0
 10
-2.65748542906646
 20
-0.9399295068502055
 30
0.0
 40
0.4773909512347318
 50
246.5685011794114985
 51
293.4314988205883878
  0
LINE
  5
1367E
  8
0
 10
-2.847321074099999
 20
-1.3779529631
 30
0.0
 11
-3.0582009653999451
 21
-1.3779527748999949
 31
0.0
  0
ARC
  5
1367F
  8
0
 10
-3.248036479911776
 20
-0.9398586328204601
 30
0.0
 40
0.4774560333709902
 50
246.5718688740558946
 51
293.4280970205315953
  0
LINE
  5
13680
  8
0
 10
-3.4378722551999989
 20
-1.3779529631
 30
0.0
 11
-3.582676633563497
 21
-1.3779528338691589
 31
0.0
  0
LINE
  5
13681
  8
0
 10
-3.5433122007999991
 20
-1.3779528689999969
 30
0.0
 11
-3.5433122007999991
 21
-0.9055123382999994
 31
0.0
  0
LINE
  5
13682
  8
0
 10
-2.3228342720501201
 20
-0.9055123734407715
 30
0.0
 11
-2.4676497842999989
 21
-0.9055122441999969
 31
0.0
  0
ARC
  5
13683
  8
0
 10
-2.65748542906646
 20
-1.343535700449791
 30
0.0
 40
0.4773909512347318
 50
66.5685011794115127
 51
113.4314988205885015
  0
LINE
  5
13684
  8
0
 10
-2.847321074099999
 20
-0.9055122441999969
 30
0.0
 11
-3.0582009653999451
 21
-0.9055124324000018
 31
0.0
  0
ARC
  5
13685
  8
0
 10
-3.248036479911776
 20
-1.3436065744795369
 30
0.0
 40
0.4774560333709902
 50
66.5719029794683905
 51
113.4281311259440059
  0
LINE
  5
13686
  8
0
 10
-3.4378722551999989
 20
-0.9055122441999969
 30
0.0
 11
-3.5826767917504578
 21
-0.9055123734309802
 31
0.0
  0
LINE
  5
13687
  8
0
 10
-2.4676497842999998
 20
-0.9055122441999969
 30
0.0
 11
-2.4676497842999998
 21
-1.3779529631
 31
0.0
  0
LINE
  5
13688
  8
0
 10
-2.847321074099999
 20
-0.9055122442336838
 30
0.0
 11
-2.847321074099999
 21
-1.377952963066313
 31
0.0
  0
LINE
  5
13689
  8
0
 10
-3.058200965399998
 20
-0.9055124324000018
 30
0.0
 11
-3.0582009653999989
 21
-1.3779527748999949
 31
0.0
  0
LINE
  5
1368A
  8
0
 10
-3.4378722551999989
 20
-0.9055122441999969
 30
0.0
 11
-3.4378722551999981
 21
-1.3779529631
 31
0.0
  0
LINE
  5
1368B
  8
0
 10
0.8140018595208253
 20
-2.5071048493476691
 30
0.0
 11
0.8140018595208253
 21
-4.7821547824318884
 31
0.0
  0
ARC
  5
1368C
  8
0
 10
-2.6574690738000011
 20
-1.7992057790999989
 30
0.0
 40
0.9594964926999981
 50
180.0004484079302074
 51
269.9997322001000271
  0
LINE
  5
1368D
  8
0
 10
-2.6574735584770042
 20
-2.7587022717895162
 30
0.0
 11
-2.2392906997799491
 21
-2.7587042263720098
 31
0.0
  0
ARC
  5
1368E
  8
0
 10
-1.907109920768588
 20
-4.075208196272551
 30
0.0
 40
1.3083373122455031
 50
68.0285697815615009
 51
87.1836558838448354
  0
ARC
  5
1368F
  8
0
 10
-1.6844007503543561
 20
-3.5169014528423679
 30
0.0
 40
0.7072586572166115
 50
16.635345058385699
 51
67.8379245748440667
  0
ARC
  5
13690
  8
0
 10
-2.718631195514321
 20
-3.8197152938323948
 30
0.0
 40
1.784901853957199
 50
1.6137984025751699
 51
16.4446998516682008
  0
ARC
  5
13691
  8
0
 10
-17.0322942082439717
 20
-4.2229819411431349
 30
0.0
 40
16.1042444656422106
 50
0.9375959587566665
 51
1.6137984025751699
  0
LINE
  5
13692
  8
0
 10
-0.930205931751078
 20
-3.9594616474315032
 30
0.0
 11
-0.9302059317510785
 21
-6.2430797267999969
 31
0.0
  0
ARC
  5
13693
  8
0
 10
11.7908390203851798
 20
-5.718937694217189
 30
0.0
 40
12.7318384196702503
 50
182.3594091094543046
 51
184.4921601824408981
  0
ARC
  5
13694
  8
0
 10
-0.2226689771053307
 20
-6.6400791684104936
 30
0.0
 40
0.6834632913349376
 50
186.3886445762043138
 51
206.4243317276082053
  0
ARC
  5
13695
  8
0
 10
0.0000042272000025
 20
-6.543456277899991
 30
0.0
 40
0.9259561775000049
 50
205.6468165426001065
 51
269.9997384317690035
  0
ARC
  5
13696
  8
0
 10
0.000001751300015
 20
-2.531514959500007
 30
0.0
 40
0.8089439065000162
 50
90.0001240408620333
 51
178.2708212361322921
  0
ARC
  5
13697
  8
0
 10
0.9295205756342417
 20
-4.6520449919252647
 30
0.0
 40
1.742957414251957
 50
184.2810471217289034
 51
201.2565944974953993
  0
ARC
  5
13698
  8
0
 10
-0.0040176973239345
 20
-4.9538129150649262
 30
0.0
 40
0.7656678747152985
 50
205.5538295428326876
 51
270.3006501435182258
  0
ARC
  5
13699
  8
0
 10
-2.1686245118476162
 20
-7.9508769724150801
 30
0.0
 40
5.192656081247792
 50
86.4028593887282739
 51
90.7798474950198369
  0
LINE
  5
1369A
  8
0
 10
-0.8085737803517024
 20
-2.5071048493476691
 30
0.0
 11
-0.8085737803517024
 21
-4.7821547824318884
 31
0.0
  0
ENDBLK
  5
1369E
  8
0
  0
ENDSEC
  0
SECTION
  2
ENTITIES
  0
ATTDEF
  5
1BF3F
  8
DEFPOINTS
 10
3464.0642101126932175
 20
144.4063234827779922
 30
0.0
 40
0.001
  1
K-77232T-4
  3

  2
MODELNUMBER
 70
     0
1001
ACDBATTR
1070
     0
1070
     1
  0
ATTDEF
  5
1BF40
  8
DEFPOINTS
 10
3464.0642101126932175
 20
144.4046568161114124
 30
0.0
 40
0.001
  1
KUMIN
  3

  2
TRADENAME
 70
     0
1001
ACDBATTR
1070
     0
1070
     1
  0
ATTDEF
  5
1BF41
  8
DEFPOINTS
 10
3464.0642101126932175
 20
144.4029901494446904
 30
0.0
 40
0.001
  1
BATH AND SHOWER FAUCET
  3

  2
PRODUCT
 70
     0
1001
ACDBATTR
1070
     0
1070
     1
  0
LINE
  5
2025B
  8
0
 10
3460.8945546459208344
 20
185.918218238118186
 30
0.0
 11
3460.8945546459208344
 21
180.1173356875767979
 31
0.0
  0
LINE
  5
2025C
  8
0
 10
3460.8945646467209372
 20
176.8397837322683017
 30
0.0
 11
3460.8945546459221987
 21
154.9142812302183074
 31
0.0
  0
LINE
  5
2025D
  8
0
 10
3461.8788066144220466
 20
185.918218238118186
 30
0.0
 11
3461.8788066144220466
 21
178.2168418415683959
 31
0.0
  0
LINE
  5
2025E
  8
0
 10
3460.7567743309218713
 20
185.918218238118186
 30
0.0
 11
3462.0165869293218748
 21
185.918218238118186
 31
0.0
  0
LINE
  5
2025F
  8
0
 10
3460.7370743309220416
 20
187.1386947180182858
 30
0.0
 11
3460.7370743309220416
 21
185.9379372377183017
 31
0.0
  0
LINE
  5
20260
  8
0
 10
3462.036286929320795
 20
186.1839553479182996
 30
0.0
 11
3462.036286929320795
 21
185.9379372377183017
 31
0.0
  0
LINE
  5
20261
  8
0
 10
3460.7567743309218713
 20
187.6939622605183047
 30
0.0
 11
3462.0165869293218748
 21
187.6939622605183047
 31
0.0
  0
LINE
  5
20262
  8
0
 10
3460.7567743309218713
 20
187.221521315618304
 30
0.0
 11
3462.0165845570791134
 21
187.221521315618304
 31
0.0
  0
LINE
  5
20263
  8
0
 10
3460.7567743309218713
 20
187.1583757184183128
 30
0.0
 11
3462.0165869293218748
 21
187.1583757184183128
 31
0.0
  0
LINE
  5
20264
  8
0
 10
3460.8354995278209572
 20
187.2215403152183058
 30
0.0
 11
3460.8354995278209572
 21
187.1583757184183128
 31
0.0
  0
LINE
  5
20265
  8
0
 10
3461.9378617325219238
 20
187.1583757184183128
 30
0.0
 11
3461.9378617325219238
 21
187.2215403152183058
 31
0.0
  0
ARC
  5
20266
  8
0
 10
3460.7567419343099573
 20
187.1387081371343868
 30
0.0
 40
0.0196676079658532
 50
89.9056219758472253
 51
180.0390926429572005
  0
ARC
  5
20267
  8
0
 10
3462.0166193259337888
 20
187.1387081371343868
 30
0.0
 40
0.0196676079658374
 50
359.9609073570330224
 51
90.0943780242309629
  0
LINE
  5
20268
  8
0
 10
3460.7370743309220416
 20
187.241240315218306
 30
0.0
 11
3460.7370743309220416
 21
187.6742812601183061
 31
0.0
  0
LINE
  5
20269
  8
0
 10
3462.036286929320795
 20
187.6742812601183061
 30
0.0
 11
3462.036286929320795
 21
187.241240315218306
 31
0.0
  0
ARC
  5
2026A
  8
0
 10
3460.7568068030532231
 20
187.2412537656155962
 30
0.0
 40
0.0197324767157138
 50
180.0390549584273003
 51
269.9057129544530085
  0
ARC
  5
2026B
  8
0
 10
3460.7567419343099573
 20
187.6742946792344071
 30
0.0
 40
0.0196676079658709
 50
89.9056219758732738
 51
180.0390926429556089
  0
ARC
  5
2026C
  8
0
 10
3462.0166193259337888
 20
187.6742946792344071
 30
0.0
 40
0.0196676079658729
 50
359.960907357054225
 51
90.0943780241267547
  0
ARC
  5
2026D
  8
0
 10
3462.0165544636238337
 20
187.2412537629502935
 30
0.0
 40
0.0197324702794467
 50
270.0873802709090796
 51
359.9609527677221195
  0
LINE
  5
2026E
  8
0
 10
3460.9929798427219794
 20
187.6939622605183047
 30
0.0
 11
3460.9929798427219794
 21
195.7804451117183078
 31
0.0
  0
LINE
  5
2026F
  8
0
 10
3461.7803814175208572
 20
187.6939622605183047
 30
0.0
 11
3461.7803814175208572
 21
195.7804466865183031
 31
0.0
  0
LINE
  5
20270
  8
0
 10
3447.6071499215217955
 20
197.3552451117182898
 30
0.0
 11
3459.4181798427212016
 21
197.3552451117182898
 31
0.0
  0
LINE
  5
20271
  8
0
 10
3459.4181814175221916
 20
198.1426276869682965
 30
0.0
 11
3447.6071483467221697
 21
198.1426276869682965
 31
0.0
  0
ARC
  5
20272
  8
0
 10
3447.6071566604578038
 20
195.7804288424869128
 30
0.0
 40
1.574816269245809
 50
90.0002451794661482
 51
180.0001991549374907
  0
ARC
  5
20273
  8
0
 10
3459.4181798427212016
 20
195.7804451117183078
 30
0.0
 40
1.5747999999999991
 50
0.0
 51
90.0
  0
ARC
  5
20274
  8
0
 10
3459.4182138514670442
 20
195.780460121098514
 30
0.0
 40
2.3621675660924848
 50
359.9996741362650141
 51
90.0007867046560364
  0
ARC
  5
20275
  8
0
 10
3447.6071159127759529
 20
195.780460121098514
 30
0.0
 40
2.362167566092483
 50
89.9992132953439636
 51
180.0003258637349859
  0
ARC
  5
20276
  8
0
 10
3460.7568068030532231
 20
185.9379506881155919
 30
0.0
 40
0.0197324767157778
 50
180.0390549584990083
 51
269.9057129542705979
  0
ARC
  5
20277
  8
0
 10
3462.0165544571900682
 20
185.9379506881155919
 30
0.0
 40
0.0197324767157753
 50
270.0942870457294021
 51
359.9609450415010201
  0
LINE
  5
20278
  8
0
 10
3464.0638459845208672
 20
185.2981584975183011
 30
0.0
 11
3464.0638459845208672
 21
187.7784734581182988
 31
0.0
  0
LINE
  5
20279
  8
0
 10
3463.6701451971212009
 20
185.3276588058172081
 30
0.0
 11
3463.6701451971212009
 21
187.7489731498195056
 31
0.0
  0
LINE
  5
2027A
  8
0
 10
3463.6893295112399755
 20
185.3079655565150858
 30
0.0
 11
3464.0638459845208672
 21
185.2981584975183011
 31
0.0
  0
LINE
  5
2027B
  8
0
 10
3463.6893295112399755
 20
187.7686663991215141
 30
0.0
 11
3464.0638459845208672
 21
187.7784734581182988
 31
0.0
  0
LINE
  5
2027C
  8
0
 10
3462.311877480522071
 20
186.0461899936182988
 30
0.0
 11
3463.6701451971212009
 21
186.0461899936182988
 31
0.0
  0
LINE
  5
2027D
  8
0
 10
3462.311877480522071
 20
187.0304419621182888
 30
0.0
 11
3463.6701451971212009
 21
187.0304419621182888
 31
0.0
  0
LINE
  5
2027E
  8
0
 10
3462.311877480522071
 20
187.0304419621182888
 30
0.0
 11
3462.311877480522071
 21
186.0461899936182988
 31
0.0
  0
LINE
  5
2027F
  8
0
 10
3462.311877480522071
 20
186.2233553479183001
 30
0.0
 11
3462.0756869293218188
 21
186.2233553479183001
 31
0.0
  0
LINE
  5
20280
  8
0
 10
3462.311877480522071
 20
186.8532766077182998
 30
0.0
 11
3462.0756869293218188
 21
186.8532766077182998
 31
0.0
  0
ARC
  5
20281
  8
0
 10
3463.6898451971219401
 20
185.3276588058172081
 30
0.0
 40
0.0197
 50
180.0000000000098055
 51
268.4999999998278213
  0
ARC
  5
20282
  8
0
 10
3463.6898451971219401
 20
187.7489731498195056
 30
0.0
 40
0.0197
 50
91.5000000001721503
 51
180.0
  0
ARC
  5
20283
  8
0
 10
3462.0756869293218188
 20
186.1839553479182996
 30
0.0
 40
0.0394
 50
89.9999999999739515
 51
180.0000000000098055
  0
LINE
  5
20284
  8
0
 10
3462.036286929320795
 20
186.8926766077183004
 30
0.0
 11
3462.036286929320795
 21
187.1386947180182858
 31
0.0
  0
ARC
  5
20285
  8
0
 10
3462.0756869293218188
 20
186.8926766077183004
 30
0.0
 40
0.0394
 50
179.9999999999901945
 51
270.0
  0
ARC
  5
20286
  8
0
 10
3462.732531504418148
 20
186.5549330431250894
 30
0.0
 40
0.7889112489321983
 50
181.2069267946189086
 51
208.0498823003850077
  0
ARC
  5
20287
  8
0
 10
3462.7409076464177815
 20
186.5195126561278016
 30
0.0
 40
0.7973341142382361
 50
152.0945075489252929
 51
178.6486833560641116
  0
ARC
  5
20288
  8
0
 10
3461.8690066144208686
 20
154.2941599703183044
 30
0.0
 40
0.0098
 50
270.0
 51
0.0
  0
LINE
  5
20289
  8
0
 10
3464.0638459845208672
 20
154.4320167652682869
 30
0.0
 11
3464.0638459845208672
 21
156.912331725868313
 31
0.0
  0
LINE
  5
2028A
  8
0
 10
3463.6701451971212009
 20
154.4615170735671938
 30
0.0
 11
3463.6701451971212009
 21
156.8828314175694914
 31
0.0
  0
LINE
  5
2028B
  8
0
 10
3463.6893295112399755
 20
154.4418238242651
 30
0.0
 11
3464.0638459845208672
 21
154.4320167652682869
 31
0.0
  0
LINE
  5
2028C
  8
0
 10
3463.6893295112399755
 20
156.9025246668714999
 30
0.0
 11
3464.0638459845208672
 21
156.912331725868313
 31
0.0
  0
ARC
  5
2028D
  8
0
 10
3463.6898451971219401
 20
154.4615170735671938
 30
0.0
 40
0.0197
 50
180.0000000000098055
 51
268.4999999998278213
  0
ARC
  5
2028E
  8
0
 10
3463.6898451971219401
 20
156.8828314175694914
 30
0.0
 40
0.0197
 50
91.5000000001721503
 51
180.0
  0
LINE
  5
2028F
  8
0
 10
3461.9379066144219905
 20
156.1249301510183045
 30
0.0
 11
3462.4300216336828271
 21
156.1249301510183045
 31
0.0
  0
LINE
  5
20290
  8
0
 10
3463.0205713457930869
 20
156.1249301510183045
 30
0.0
 11
3463.6701451971212009
 21
156.1249301510183045
 31
0.0
  0
LINE
  5
20291
  8
0
 10
3461.9379066144219905
 20
155.2194183400183078
 30
0.0
 11
3462.2113074018711814
 21
155.2194183400183078
 31
0.0
  0
ARC
  5
20292
  8
0
 10
3461.9379066144219905
 20
156.1840301510183053
 30
0.0
 40
0.0591
 50
179.9999999999951115
 51
270.0
  0
LINE
  5
20293
  8
0
 10
3461.8788066144220466
 20
155.160318340018307
 30
0.0
 11
3461.8788066144220466
 21
154.9142812302183074
 31
0.0
  0
LINE
  5
20294
  8
0
 10
3461.8788066144220466
 20
154.9044387105182921
 30
0.0
 11
3461.8788066144220466
 21
154.2941599703183044
 31
0.0
  0
ARC
  5
20295
  8
0
 10
3461.9379066144219905
 20
155.160318340018307
 30
0.0
 40
0.0591
 50
90.0
 51
180.0
  0
ARC
  5
20296
  8
0
 10
3461.8689640947218322
 20
154.9044387105182921
 30
0.0
 40
0.0098425197000154
 50
0.0
 51
90.0
  0
ARC
  5
20297
  8
0
 10
3462.0753600782750254
 20
155.4101184158905937
 30
0.0
 40
0.1767696657352118
 50
251.6946429346511991
 51
288.8287399243369009
  0
ARC
  5
20298
  8
0
 10
3462.0751932107959874
 20
155.1841239025764878
 30
0.0
 40
0.0989574870943586
 50
49.9790256705678999
 51
128.4936429949289902
  0
ARC
  5
20299
  8
0
 10
3462.0249594138467728
 20
155.2546017048441911
 30
0.0
 40
0.0133299654871969
 50
148.4542110995554083
 51
247.415245772349806
  0
LINE
  5
2029A
  8
0
 10
3463.6701451971212009
 20
155.2194183400183078
 30
0.0
 11
3463.2371057164468766
 21
155.2194183400183078
 31
0.0
  0
ARC
  5
2029B
  8
0
 10
3464.4247235325078691
 20
157.3436298394213964
 30
0.0
 40
3.3538846219305949
 50
214.2183754713568078
 51
220.6155234689271083
  0
ARC
  5
2029C
  8
0
 10
3462.1507893052230429
 20
155.7967232639524013
 30
0.0
 40
0.603667182887981
 50
199.7201418658476086
 51
214.1810065431930923
  0
ARC
  5
2029D
  8
0
 10
3461.8030594597030358
 20
155.672080023367613
 30
0.0
 40
0.2342731075588794
 50
160.7206165441461962
 51
199.720141865856391
  0
ARC
  5
2029E
  8
0
 10
3463.2228188295130167
 20
154.9472097829892903
 30
0.0
 40
1.8264975929589891
 50
137.3783458728289872
 51
153.9463280043798079
  0
LINE
  5
2029F
  8
0
 10
3461.4818181896212081
 20
187.221521315618304
 30
0.0
 11
3461.4818181896212081
 21
187.6939622605183047
 31
0.0
  0
LINE
  5
202A0
  8
0
 10
3461.880157287754173
 20
187.221521315618304
 30
0.0
 11
3461.880157287754173
 21
187.6939622605183047
 31
0.0
  0
LINE
  5
202A1
  8
0
 10
3460.8945546459708567
 20
154.2843599703182917
 30
0.0
 11
3460.8945546459708567
 21
154.2449898916183031
 31
0.0
  0
LINE
  5
202A2
  8
0
 10
3460.8945546459708567
 20
154.2449898916183031
 30
0.0
 11
3461.8788066144711593
 21
154.2449898916183031
 31
0.0
  0
LINE
  5
202A3
  8
0
 10
3461.8788066144711593
 20
154.2449898916183031
 30
0.0
 11
3461.8788066144711593
 21
154.2843599703182917
 31
0.0
  0
LINE
  5
202A4
  8
0
 10
3459.9166427294208006
 20
154.2843599703182917
 30
0.0
 11
3461.8788066144711593
 21
154.2843599703182917
 31
0.0
  0
ARC
  5
202A5
  8
0
 10
3461.86896409467181
 20
154.2942024900183071
 30
0.0
 40
0.0098425197000047
 50
270.0
 51
0.0
  0
LINE
  5
202A6
  8
0
 10
3460.8945546458721765
 20
154.2253048522183008
 30
0.0
 11
3461.8788066143720243
 21
154.2253048522183008
 31
0.0
  0
LINE
  5
202A7
  8
0
 10
3461.8788066143720243
 20
154.2253048522183008
 30
0.0
 11
3461.8788066143720243
 21
154.1662497341183098
 31
0.0
  0
LINE
  5
202A8
  8
0
 10
3461.8788066143720243
 20
154.1662497341183098
 30
0.0
 11
3460.8945546458721765
 21
154.1662497341183098
 31
0.0
  0
LINE
  5
202A9
  8
0
 10
3460.8945546458721765
 20
154.1662497341183098
 30
0.0
 11
3460.8945546458721765
 21
154.2253048522183008
 31
0.0
  0
LINE
  5
202AA
  8
0
 10
3461.8788066144220466
 20
154.9142812302183074
 30
0.0
 11
3459.9166427294208006
 21
154.9142812302183074
 31
0.0
  0
LINE
  5
202AB
  8
0
 10
3460.9136504962721119
 20
154.2843599703182917
 30
0.0
 11
3460.9136504962721119
 21
154.9142812302183074
 31
0.0
  0
ARC
  5
202AC
  8
0
 10
3462.129430072030118
 20
155.253681101007686
 30
0.0
 40
0.0112741342238066
 50
285.330542011128216
 51
33.5166554790483104
  0
LINE
  5
202AD
  8
0
 10
3463.2174338363861352
 20
144.9733532608682935
 30
0.0
 11
3463.2174344249851856
 21
143.8316209773682885
 31
0.0
  0
LINE
  5
202AE
  8
0
 10
3463.2174344249851856
 20
143.8316209773682885
 30
0.0
 11
3463.1583793373861226
 21
143.7725658288682951
 31
0.0
  0
LINE
  5
202AF
  8
0
 10
3463.1583793373861226
 20
143.7725658288682951
 30
0.0
 11
3462.6859383924847862
 21
143.7725655843360073
 31
0.0
  0
LINE
  5
202B0
  8
0
 10
3462.6859383924847862
 20
143.7725655843360073
 30
0.0
 11
3462.626883243885004
 21
143.8316206729683131
 31
0.0
  0
LINE
  5
202B1
  8
0
 10
3462.626883243885004
 20
143.8316206729683131
 30
0.0
 11
3462.626881533985852
 21
144.9733529563683021
 31
0.0
  0
LINE
  5
202B2
  8
0
 10
3462.626881533985852
 20
144.9733529563683021
 30
0.0
 11
3462.6859366216858689
 21
145.0324081049683116
 31
0.0
  0
LINE
  5
202B3
  8
0
 10
3462.6859366216858689
 20
145.0324081049683116
 30
0.0
 11
3463.1583786877849889
 21
145.0324083485683104
 31
0.0
  0
LINE
  5
202B4
  8
0
 10
3463.1583786877849889
 20
145.0324083485683104
 30
0.0
 11
3463.2174338363861352
 21
144.9733532608682935
 31
0.0
  0
LINE
  5
202B5
  8
0
 10
3463.2174338654099301
 20
144.9170536664308031
 30
0.0
 11
3463.2764889801228492
 21
144.9170536014574964
 31
0.0
  0
LINE
  5
202B6
  8
0
 10
3463.2174343959609359
 20
143.8879199339683055
 30
0.0
 11
3463.2764889801228492
 21
143.8879197431575108
 31
0.0
  0
LINE
  5
202B7
  8
0
 10
3462.6859383924847862
 20
143.7725655843360073
 30
0.0
 11
3462.6859383879032066
 21
143.7814528593683008
 31
0.0
  0
ARC
  5
202B8
  8
0
 10
3462.8188238990478567
 20
143.891054588581909
 30
0.0
 40
0.1722530061244843
 50
140.4848217589955084
 51
219.5152373224831877
  0
LINE
  5
202B9
  8
0
 10
3462.6859382748862117
 20
144.0006561807682886
 30
0.0
 11
3462.6859381807189493
 21
144.1832835237682957
 31
0.0
  0
ARC
  5
202BA
  8
0
 10
3463.2765334230930421
 20
144.4024871495689979
 30
0.0
 40
0.6299626734341635
 50
159.6372928319119922
 51
200.3627662491988985
  0
LINE
  5
202BB
  8
0
 10
3462.685937954685869
 20
144.6216901664683121
 30
0.0
 11
3462.6859378605190614
 21
144.8043175094682908
 31
0.0
  0
ARC
  5
202BC
  8
0
 10
3462.8188234448498406
 20
144.9139192386674893
 30
0.0
 40
0.1722530626053895
 50
140.4848372479659986
 51
219.5152218419578958
  0
LINE
  5
202BD
  8
0
 10
3462.6859377474847861
 20
145.023520830868307
 30
0.0
 11
3462.6859366216858689
 21
145.0324081049683116
 31
0.0
  0
LINE
  5
202BE
  8
0
 10
3463.1583769169851621
 20
143.7725655843360073
 30
0.0
 11
3463.1583769215681059
 21
143.7814528593683008
 31
0.0
  0
ARC
  5
202BF
  8
0
 10
3463.0254914104230011
 20
143.891054588581909
 30
0.0
 40
0.1722530061244843
 50
320.4847626775168123
 51
39.5151782410044703
  0
LINE
  5
202C0
  8
0
 10
3463.1583770345851008
 20
144.0006561807682886
 30
0.0
 11
3463.1583771287519085
 21
144.1832835237682957
 31
0.0
  0
ARC
  5
202C1
  8
0
 10
3462.5677818863791799
 20
144.4024871495689979
 30
0.0
 40
0.6299626734341635
 50
339.6372337508012151
 51
20.362707168087919
  0
LINE
  5
202C2
  8
0
 10
3463.1583773547858982
 20
144.6216901664683121
 30
0.0
 11
3463.1583774489517964
 21
144.8043175094682908
 31
0.0
  0
ARC
  5
202C3
  8
0
 10
3463.0254918646210172
 20
144.9139192386674893
 30
0.0
 40
0.1722530626053895
 50
320.4847781580421042
 51
39.5151627520339304
  0
LINE
  5
202C4
  8
0
 10
3463.1583775619851622
 20
145.023520830868307
 30
0.0
 11
3463.1583786877849889
 21
145.0324081049683116
 31
0.0
  0
LINE
  5
202C5
  8
0
 10
3462.6859377600208063
 20
144.8043176312681055
 30
0.0
 11
3463.1583775494500514
 21
144.8043176312681055
 31
0.0
  0
LINE
  5
202C6
  8
0
 10
3462.6859379998918484
 20
144.6216902882682973
 30
0.0
 11
3463.1583773095790093
 21
144.6216902882682973
 31
0.0
  0
LINE
  5
202C7
  8
0
 10
3462.6859381354761354
 20
144.1832836455683093
 30
0.0
 11
3463.1583771739938129
 21
144.1832836455683093
 31
0.0
  0
LINE
  5
202C8
  8
0
 10
3462.685938375303067
 20
144.0006563025183084
 30
0.0
 11
3463.1583769341677908
 21
144.0006563025183084
 31
0.0
  0
ARC
  5
202C9
  8
0
 10
3462.5402502907008966
 20
144.9730413759442058
 30
0.0
 40
0.0197031061901625
 50
0.0251986215568067
 51
89.9472746963729151
  0
LINE
  5
202CA
  8
0
 10
3462.5599533949848592
 20
144.9730500413486993
 30
0.0
 11
3462.5599582759969053
 21
144.9139871968700106
 31
0.0
  0
LINE
  5
202CB
  8
0
 10
3462.5599582759969053
 20
144.9139871968700106
 30
0.0
 11
3462.5402683752849953
 21
144.9139871864682902
 31
0.0
  0
LINE
  5
202CC
  8
0
 10
3462.54026829748409
 20
144.9927345305800088
 30
0.0
 11
3462.540266572649216
 21
143.3965786310920123
 31
0.0
  0
LINE
  5
202CD
  8
0
 10
3462.559953887986012
 20
143.3965786310920123
 30
0.0
 11
3462.55995494098579
 21
143.9812269376278095
 31
0.0
  0
LINE
  5
202CE
  8
0
 10
3462.6268830198300748
 20
143.9812269721682014
 30
0.0
 11
3462.5402689935849594
 21
143.981226927468299
 31
0.0
  0
LINE
  5
202CF
  8
0
 10
3462.5402670800949636
 20
143.8145543816239069
 30
0.0
 11
3462.5402690232858731
 21
143.8145543616683142
 31
0.0
  0
ARC
  5
202D0
  8
0
 10
3462.5400622838469644
 20
143.8344453582010942
 30
0.0
 40
0.019892070889335
 50
270.5954890571218243
 51
359.6274948217497922
  0
LINE
  5
202D1
  8
0
 10
3462.5402689011862094
 20
143.8933857145682964
 30
0.0
 11
3462.5599549524990834
 21
143.8933857171485897
 31
0.0
  0
LINE
  5
202D2
  8
0
 10
3462.5402689800548615
 20
143.8992747222953881
 30
0.0
 11
3462.5481438267847807
 21
143.8992747263077092
 31
0.0
  0
ARC
  5
202D3
  8
0
 10
3462.548143820767109
 20
143.9110857316258887
 30
0.0
 40
0.0118110053181566
 50
270.0000291930243179
 51
0.0796070308671036
  0
LINE
  5
202D4
  8
0
 10
3462.5402685562849001
 20
144.9076044018682978
 30
0.0
 11
3462.5481449413850896
 21
144.9076043927682917
 31
0.0
  0
ARC
  5
202D5
  8
0
 10
3462.5481449277390311
 20
144.895793383611192
 30
0.0
 40
0.0118110091570637
 50
359.9974825759733221
 51
89.9999338031782941
  0
LINE
  5
202D6
  8
0
 10
3462.5599559368852169
 20
144.8957928646669018
 30
0.0
 11
3462.5599527713648058
 21
144.8237466227753885
 31
0.0
  0
LINE
  5
202D7
  8
0
 10
3462.540268559184824
 20
144.8237466125683
 30
0.0
 11
3462.6268817580407813
 21
144.8237466571677885
 31
0.0
  0
LINE
  5
202D8
  8
0
 10
3462.559953887986012
 20
143.3965786310920123
 30
0.0
 11
3458.3114847647862007
 21
143.3965786310920123
 31
0.0
  0
ARC
  5
202D9
  8
0
 10
3457.6221370097100589
 20
143.0931803727256977
 30
0.0
 40
0.7531605609743485
 50
23.7554303077216495
 51
77.0575952688200232
  0
ARC
  5
202DA
  8
0
 10
3452.3870852052418741
 20
130.4660607339247065
 30
0.0
 40
14.4643589211941102
 50
70.8913450664628613
 51
72.2861479774471434
  0
ARC
  5
202DB
  8
0
 10
3435.2806597228050123
 20
78.6016374625840513
 30
0.0
 40
69.0757966783057782
 50
71.2961932934817639
 51
71.5669726311930532
  0
ARC
  5
202DC
  8
0
 10
3456.4622891960138986
 20
141.3508670971208971
 30
0.0
 40
2.8485940737783619
 50
68.1089870580936605
 51
70.1061572194138733
  0
ARC
  5
202DD
  8
0
 10
3457.0967642012287797
 20
142.9925624333814937
 30
0.0
 40
1.0889652514336781
 50
60.7257711571540568
 51
66.8794224163559221
  0
ARC
  5
202DE
  8
0
 10
3457.1672110520748902
 20
143.123837884069701
 30
0.0
 40
0.9400112637880464
 50
48.4395748682875222
 51
60.5586174730268283
  0
ARC
  5
202DF
  8
0
 10
3458.420203994494841
 20
145.7505025062750974
 30
0.0
 40
2.2207053812117969
 50
215.0212122417514138
 51
222.6956096911652878
  0
ARC
  5
202E0
  8
0
 10
3456.6259325062901553
 20
144.4956045957368929
 30
0.0
 40
0.0314453381313072
 50
140.7404462153905058
 51
179.4733842349619124
  0
ARC
  5
202E1
  8
0
 10
3456.6357617534317797
 20
144.499496032608306
 30
0.0
 40
0.0414301724290034
 50
184.9882608914664957
 51
214.402130934860395
  0
ARC
  5
202E2
  8
0
 10
3457.6096636237721214
 20
143.6892832354222094
 30
0.0
 40
1.3033986943557521
 50
111.9361714225219941
 51
140.6877539704200046
  0
ARC
  5
202E3
  8
0
 10
3457.6902749644441428
 20
143.2155184222287971
 30
0.0
 40
1.7759212213358799
 50
90.6140752868167993
 51
108.6367642283460953
  0
ARC
  5
202E4
  8
0
 10
3457.8710966927501431
 20
131.6954885007511962
 30
0.0
 40
13.2973511100769102
 50
90.2167355389579626
 51
90.8611701224490957
  0
LINE
  5
202E5
  8
0
 10
3457.820796274274926
 20
144.9927444737919018
 30
0.0
 11
3458.7430257238920603
 21
144.9927444737919018
 31
0.0
  0
LINE
  5
202E6
  8
0
 10
3458.7430257238920603
 20
144.9927444737919018
 30
0.0
 11
3458.7548385984860033
 21
144.9910992685682913
 31
0.0
  0
ARC
  5
202E7
  8
0
 10
3458.9772837909408736
 20
146.5849743468293127
 30
0.0
 40
1.6093227236164029
 50
262.0549760528627985
 51
277.9447185657135719
  0
ARC
  5
202E8
  8
0
 10
3461.3649743931728153
 20
129.5037740670682069
 30
0.0
 40
15.6379515809090108
 50
97.9151434160190348
 51
97.9588284436150474
  0
LINE
  5
202E9
  8
0
 10
3459.2115293888850829
 20
144.9927444737919018
 30
0.0
 11
3460.1821553681302248
 21
144.9927444737919018
 31
0.0
  0
ARC
  5
202EA
  8
0
 10
3460.10830324869994
 20
145.6110989184010123
 30
0.0
 40
0.6227490302781109
 50
276.810763364482284
 51
326.3955299303062247
  0
ARC
  5
202EB
  8
0
 10
3460.1036116823061093
 20
145.5916291280929897
 30
0.0
 40
0.6161681049539124
 50
328.1451281776471092
 51
351.7480542656148259
  0
ARC
  5
202EC
  8
0
 10
3459.6179255296019619
 20
145.6546406153026112
 30
0.0
 40
1.1058364733428261
 50
351.796290466721814
 51
1.4028332338267731
  0
LINE
  5
202ED
  8
0
 10
3460.7234305620859232
 20
145.6817132754682973
 30
0.0
 11
3460.7234142509869343
 21
145.9477628221827104
 31
0.0
  0
ARC
  5
202EE
  8
0
 10
3460.7431714912299867
 20
145.9477336214164893
 30
0.0
 40
0.0197572618215962
 50
90.2172404069604141
 51
179.9153181607348984
  0
LINE
  5
202EF
  8
0
 10
3460.7430965805579035
 20
145.9674907412237985
 30
0.0
 11
3462.3216425079231158
 21
145.9674907412237133
 31
0.0
  0
ARC
  5
202F0
  8
0
 10
3461.6389599156868826
 20
145.8477050221680997
 30
0.0
 40
0.8668549322012487
 50
165.9606539468695132
 51
172.0572084218063083
  0
LINE
  5
202F1
  8
0
 10
3462.3273323688717937
 20
146.4222922198682966
 30
0.0
 11
3461.6884851577528934
 21
146.1243926556203121
 31
0.0
  0
ARC
  5
202F2
  8
0
 10
3461.3889711146189256
 20
146.7667215121093989
 30
0.0
 40
0.708727748795516
 50
270.0016558168118763
 51
294.9993536447859128
  0
LINE
  5
202F3
  8
0
 10
3461.3889915964659849
 20
146.0579937636098862
 30
0.0
 11
3460.7417976296860616
 21
146.0579937636098862
 31
0.0
  0
ARC
  5
202F4
  8
0
 10
3460.7418045338790762
 20
146.0776856859324084
 30
0.0
 40
0.01969192353282
 50
180.0089358838843054
 51
269.9799115048542717
  0
LINE
  5
202F5
  8
0
 10
3460.7221126105850999
 20
146.0776826147682925
 30
0.0
 11
3460.722110893802892
 21
146.2296388357760009
 31
0.0
  0
ARC
  5
202F6
  8
0
 10
3457.9627183447919379
 20
146.2296076604934001
 30
0.0
 40
2.7593925491869151
 50
0.0006473207734959
 51
2.8110713878650411
  0
ARC
  5
202F7
  8
0
 10
3460.3839065224328806
 20
146.4324168941645894
 30
0.0
 40
0.3416151841805734
 50
348.6071466126622909
 51
44.0131668254249888
  0
ARC
  5
202F8
  8
0
 10
3469.442046126257992
 20
147.584153265765309
 30
0.0
 40
8.7967134110616367
 50
186.784861260455699
 51
187.6624282400557036
  0
LINE
  5
202F9
  8
0
 10
3458.5516265291848867
 20
146.6937533455248968
 30
0.0
 11
3459.3873355423829707
 21
146.6937567643034015
 31
0.0
  0
LINE
  5
202FA
  8
0
 10
3459.3873355423829707
 20
146.6937567643034015
 30
0.0
 11
3460.3604815776348005
 21
146.6937533455248968
 31
0.0
  0
ARC
  5
202FB
  8
0
 10
3460.3390122531031921
 20
144.930417972885806
 30
0.0
 40
1.763466066669918
 50
80.5157699014252159
 51
89.302435075268761
  0
ARC
  5
202FC
  8
0
 10
3458.5721093749939428
 20
146.9954096837608972
 30
0.0
 40
0.3023509440539739
 50
246.7502187959977107
 51
266.1155069122889927
  0
LINE
  5
202FD
  8
0
 10
3458.4527592581857789
 20
146.7176118382182892
 30
0.0
 11
3458.3734107393229351
 21
146.7520151783780875
 31
0.0
  0
ARC
  5
202FE
  8
0
 10
3458.4036845208420345
 20
146.8031525093720973
 30
0.0
 40
0.0594266646267264
 50
120.6854996832979054
 51
239.3740677416085134
  0
LINE
  5
202FF
  8
0
 10
3458.6918429847851257
 20
145.0501255990683092
 30
0.0
 11
3459.2627097687850437
 21
145.0501250847682968
 31
0.0
  0
ARC
  5
20300
  8
0
 10
3459.2627138599559657
 20
145.0599510108027914
 30
0.0
 40
0.0098259268861859
 50
269.9761440491815847
 51
0.0967002332266318
  0
LINE
  5
20301
  8
0
 10
3459.2725397725348557
 20
145.0596165762183034
 30
0.0
 11
3459.2725508760959201
 21
145.5416349807829022
 31
0.0
  0
ARC
  5
20302
  8
0
 10
3459.3119210897120865
 20
145.5416340738460974
 30
0.0
 40
0.0393702136329174
 50
110.7329837438982025
 51
179.9997447390942966
  0
ARC
  5
20303
  8
0
 10
3459.141743510464039
 20
145.9912130779893005
 30
0.0
 40
0.4413393550725305
 50
290.7329837438982736
 51
296.2798169715143217
  0
ARC
  5
20304
  8
0
 10
3459.3197490346301493
 20
145.630726629967711
 30
0.0
 40
0.0392990015744036
 50
296.2798169715143217
 51
63.7200648178934728
  0
ARC
  5
20305
  8
0
 10
3458.9772770059139475
 20
144.6752399947777974
 30
0.0
 40
1.054059472014842
 50
70.0368796817875818
 51
109.9631302099568018
  0
ARC
  5
20306
  8
0
 10
3458.6348044364222005
 20
145.6307273319198998
 30
0.0
 40
0.0392981527648136
 50
116.2799450738684044
 51
243.7229776755604007
  0
ARC
  5
20307
  8
0
 10
3458.8137755206030306
 20
145.993213711099088
 30
0.0
 40
0.4435592367974607
 50
243.7229776755604007
 51
249.357249724315011
  0
ARC
  5
20308
  8
0
 10
3458.6425335096378149
 20
145.5415753455530137
 30
0.0
 40
0.0394655027976899
 50
0.0916137784252743
 51
67.8658858997409311
  0
LINE
  5
20309
  8
0
 10
3458.6819989619848457
 20
145.5416384493682926
 30
0.0
 11
3458.6820004762857934
 21
145.059968082824895
 31
0.0
  0
ARC
  5
2030A
  8
0
 10
3458.6918428002791188
 20
145.0599676533713023
 30
0.0
 40
0.0098420543047323
 50
179.997281364642987
 51
270.0010741085546897
  0
LINE
  5
2030B
  8
0
 10
3458.7548387557858405
 20
145.0501255423147029
 30
0.0
 11
3458.7548387557858405
 21
144.9910990339396903
 31
0.0
  0
LINE
  5
2030C
  8
0
 10
3459.1997206454861953
 20
145.0501251415157924
 30
0.0
 11
3459.1997206454861953
 21
144.9910981049306997
 31
0.0
  0
LINE
  5
2030D
  8
0
 10
3458.6174073034890171
 20
145.5954897840682918
 30
0.0
 11
3459.3371495005949328
 21
145.5954897840682918
 31
0.0
  0
LINE
  5
2030E
  8
0
 10
3459.2725508761509445
 20
145.5416363493683036
 30
0.0
 11
3458.6819989619921216
 21
145.5416363493683036
 31
0.0
  0
LINE
  5
2030F
  8
0
 10
3458.3736543477189116
 20
146.7519095564630902
 30
0.0
 11
3459.3521693645998312
 21
146.7519095564630902
 31
0.0
  0
ARC
  5
20310
  8
0
 10
3459.3536852371171335
 20
182.4797173231426086
 30
0.0
 40
35.72780779883756
 50
269.9975690336835896
 51
271.7530125879254115
  0
LINE
  5
20311
  8
0
 10
3456.6015520297128205
 20
144.515474562076804
 30
0.0
 11
3462.5402662995070386
 21
144.515474562076804
 31
0.0
  0
LINE
  5
20312
  8
0
 10
3457.605001168185936
 20
143.9252831272964102
 30
0.0
 11
3456.9684760358859421
 21
144.1321046076683103
 31
0.0
  0
ARC
  5
20313
  8
0
 10
3466.6824777090500902
 20
149.0913128943288086
 30
0.0
 40
10.9066757234606104
 50
206.9847034309204901
 51
207.0452961900506068
  0
ARC
  5
20314
  8
0
 10
3456.9983430627180496
 20
144.1602560380607088
 30
0.0
 40
0.039395218751559
 50
162.0149915177246953
 51
206.9847034309204901
  0
LINE
  5
20315
  8
0
 10
3456.9608727992081185
 20
144.1724200264237084
 30
0.0
 11
3456.9655061346738876
 21
144.1866926725076894
 31
0.0
  0
LINE
  5
20316
  8
0
 10
3457.2380625232790408
 20
144.0445098539310038
 30
0.0
 11
3457.2232977722860596
 21
143.9990690347682971
 31
0.0
  0
ARC
  5
20317
  8
0
 10
3457.4546792649980489
 20
144.5429839129257061
 30
0.0
 40
0.5910844185486805
 50
228.2472099836020902
 51
246.9550895346548032
  0
LINE
  5
20318
  8
0
 10
3457.1898055320839376
 20
144.0557975048635058
 30
0.0
 11
3457.2062995176847835
 21
144.0513931059682875
 31
0.0
  0
LINE
  5
20319
  8
0
 10
3457.2062995176847835
 20
144.0513931059682875
 30
0.0
 11
3457.2069991944858884
 21
144.0508301901683126
 31
0.0
  0
LINE
  5
2031A
  8
0
 10
3457.2069991944858884
 20
144.0508301901683126
 30
0.0
 11
3457.2028017837851621
 21
144.0379120054683142
 31
0.0
  0
LINE
  5
2031B
  8
0
 10
3457.2028017837851621
 20
144.0379120054683142
 30
0.0
 11
3457.2020034832680722
 21
144.0381713913803878
 31
0.0
  0
LINE
  5
2031C
  8
0
 10
3457.2020034832680722
 20
144.0381713913803878
 30
0.0
 11
3457.1876432432850379
 21
144.0491427246682861
 31
0.0
  0
LINE
  5
2031D
  8
0
 10
3457.1876432432850379
 20
144.0491427246682861
 30
0.0
 11
3457.1898055320839376
 21
144.0557975048635058
 31
0.0
  0
LINE
  5
2031E
  8
0
 10
3457.2018414263870909
 20
144.0382583185289036
 30
0.0
 11
3457.2062995132528158
 21
144.0513931095345868
 31
0.0
  0
LINE
  5
2031F
  8
0
 10
3457.1843314853858828
 20
144.0388715766036114
 30
0.0
 11
3457.2004924846510221
 21
144.0335207316383901
 31
0.0
  0
LINE
  5
20320
  8
0
 10
3457.2004924846510221
 20
144.0335207316383901
 30
0.0
 11
3457.2012101703849112
 21
144.0330135673683003
 31
0.0
  0
LINE
  5
20321
  8
0
 10
3457.2012101703849112
 20
144.0330135673683003
 30
0.0
 11
3457.1982999652850594
 21
144.024056958468293
 31
0.0
  0
LINE
  5
20322
  8
0
 10
3457.1982999652850594
 20
144.024056958468293
 30
0.0
 11
3457.197508461821144
 21
144.0243356485858897
 31
0.0
  0
LINE
  5
20323
  8
0
 10
3457.197508461821144
 20
144.0243356485858897
 30
0.0
 11
3457.1828097503012032
 21
144.0342668977152982
 31
0.0
  0
LINE
  5
20324
  8
0
 10
3457.1828097503012032
 20
144.0342668977152982
 30
0.0
 11
3457.1843314853858828
 21
144.0388715766036114
 31
0.0
  0
LINE
  5
20325
  8
0
 10
3457.197508461821144
 20
144.0243356485858897
 30
0.0
 11
3457.2004924846510221
 21
144.0335207316383901
 31
0.0
  0
LINE
  5
20326
  8
0
 10
3457.1972641540860423
 20
144.0208690880683093
 30
0.0
 11
3457.1965300946449133
 21
144.021326185669011
 31
0.0
  0
LINE
  5
20327
  8
0
 10
3457.1965300946449133
 20
144.021326185669011
 30
0.0
 11
3457.1806401815861136
 21
144.0275897121682931
 31
0.0
  0
LINE
  5
20328
  8
0
 10
3457.1806401815861136
 20
144.0275897121682931
 30
0.0
 11
3457.1797578770078871
 21
144.0248742828023012
 31
0.0
  0
LINE
  5
20329
  8
0
 10
3457.1797578770078871
 20
144.0248742828023012
 30
0.0
 11
3457.1947729984890429
 21
144.015918449167998
 31
0.0
  0
LINE
  5
2032A
  8
0
 10
3457.1947729984890429
 20
144.015918449167998
 30
0.0
 11
3457.1955507218849561
 21
144.015595734068313
 31
0.0
  0
LINE
  5
2032B
  8
0
 10
3457.1955507218849561
 20
144.015595734068313
 30
0.0
 11
3457.1972641540860423
 21
144.0208690880683093
 31
0.0
  0
LINE
  5
2032C
  8
0
 10
3457.1965300946449133
 20
144.021326185669011
 30
0.0
 11
3457.1947729979460746
 21
144.0159184494920908
 31
0.0
  0
LINE
  5
2032D
  8
0
 10
3457.1950399703850962
 20
144.0140238168683027
 30
0.0
 11
3457.1944740327858199
 21
144.0122820555683063
 31
0.0
  0
LINE
  5
2032E
  8
0
 10
3457.1944740327858199
 20
144.0122820555683063
 30
0.0
 11
3457.1937104499847919
 21
144.0126482909682863
 31
0.0
  0
LINE
  5
2032F
  8
0
 10
3457.1937104499847919
 20
144.0126482909682863
 30
0.0
 11
3457.178396849685214
 21
144.0206855092683043
 31
0.0
  0
LINE
  5
20330
  8
0
 10
3457.178396849685214
 20
144.0206855092683043
 30
0.0
 11
3457.1786882483861518
 21
144.021582334068313
 31
0.0
  0
LINE
  5
20331
  8
0
 10
3457.1786882483861518
 20
144.021582334068313
 30
0.0
 11
3457.1942908068767792
 21
144.0144344294454868
 31
0.0
  0
LINE
  5
20332
  8
0
 10
3457.1942908068767792
 20
144.0144344294454868
 30
0.0
 11
3457.1950399703850962
 21
144.0140238168683027
 31
0.0
  0
LINE
  5
20333
  8
0
 10
3457.1942908068858742
 20
144.0144344294683094
 30
0.0
 11
3457.1937104499847919
 21
144.0126482909682863
 31
0.0
  0
LINE
  5
20334
  8
0
 10
3457.1546895063711418
 20
144.0378101418249912
 30
0.0
 11
3457.1540990702142153
 21
144.035992982451404
 31
0.0
  0
LINE
  5
20335
  8
0
 10
3457.1540990702142153
 20
144.035992982451404
 30
0.0
 11
3457.1690015952349313
 21
144.0266906165581986
 31
0.0
  0
LINE
  5
20336
  8
0
 10
3457.1690015952349313
 20
144.0266906165581986
 30
0.0
 11
3457.1844955054862112
 21
144.0192083295690963
 31
0.0
  0
LINE
  5
20337
  8
0
 10
3457.1844955054862112
 20
144.0192083295690963
 30
0.0
 11
3457.1850792451409689
 21
144.0210048792432076
 31
0.0
  0
LINE
  5
20338
  8
0
 10
3457.1850792451409689
 20
144.0210048792432076
 30
0.0
 11
3457.1701757185360293
 21
144.0303041639097898
 31
0.0
  0
LINE
  5
20339
  8
0
 10
3457.1701757185360293
 20
144.0303041639097898
 30
0.0
 11
3457.1546895063847842
 21
144.0378101418683059
 31
0.0
  0
LINE
  5
2033A
  8
0
 10
3457.1690015953840884
 20
144.0266906164650891
 30
0.0
 11
3457.1701757185360293
 21
144.0303041639097898
 31
0.0
  0
LINE
  5
2033B
  8
0
 10
3457.1575169627722062
 20
144.0465120787249873
 30
0.0
 11
3457.156293642413857
 21
144.0427471199506044
 31
0.0
  0
LINE
  5
2033C
  8
0
 10
3457.156293642413857
 20
144.0427471199506044
 30
0.0
 11
3457.1709091427619569
 21
144.032561390944295
 31
0.0
  0
LINE
  5
2033D
  8
0
 10
3457.1709091427619569
 20
144.032561390944295
 30
0.0
 11
3457.1866900776858529
 21
144.0259624670682967
 31
0.0
  0
LINE
  5
2033E
  8
0
 10
3457.1866900776858529
 20
144.0259624670682967
 30
0.0
 11
3457.1878740145730262
 21
144.0296062169313132
 31
0.0
  0
LINE
  5
2033F
  8
0
 10
3457.1878740145730262
 20
144.0296062169313132
 30
0.0
 11
3457.1732909094898787
 21
144.0398916488238967
 31
0.0
  0
LINE
  5
20340
  8
0
 10
3457.1732909094898787
 20
144.0398916488238967
 30
0.0
 11
3457.1575169627858486
 21
144.046512078768302
 31
0.0
  0
LINE
  5
20341
  8
0
 10
3457.1709091429120235
 20
144.0325613908512139
 30
0.0
 11
3457.1732909094898787
 21
144.0398916488238967
 31
0.0
  0
LINE
  5
20342
  8
0
 10
3457.162128335432044
 20
144.0607042958787929
 30
0.0
 11
3457.16028625960098
 21
144.0550350205938059
 31
0.0
  0
LINE
  5
20343
  8
0
 10
3457.16028625960098
 20
144.0550350205938059
 30
0.0
 11
3457.1745369650370776
 21
144.0437265787614081
 31
0.0
  0
LINE
  5
20344
  8
0
 10
3457.1745369650370776
 20
144.0437265787614081
 30
0.0
 11
3457.1906102697021197
 21
144.0380274679639001
 31
0.0
  0
LINE
  5
20345
  8
0
 10
3457.1906102697021197
 20
144.0380274679639001
 30
0.0
 11
3457.1924297800360364
 21
144.043627294216293
 31
0.0
  0
LINE
  5
20346
  8
0
 10
3457.1924297800360364
 20
144.043627294216293
 30
0.0
 11
3457.1781984996159736
 21
144.0549955195415066
 31
0.0
  0
LINE
  5
20347
  8
0
 10
3457.1781984996159736
 20
144.0549955195415066
 30
0.0
 11
3457.1621283354461411
 21
144.0607042959221076
 31
0.0
  0
LINE
  5
20348
  8
0
 10
3457.17453696518578
 20
144.0437265786682985
 30
0.0
 11
3457.1781984996159736
 21
144.0549955195415066
 31
0.0
  0
LINE
  5
20349
  8
0
 10
3457.1353287738511426
 20
144.0683121451750139
 30
0.0
 11
3457.1337952284288804
 21
144.0635924205338938
 31
0.0
  0
LINE
  5
2034A
  8
0
 10
3457.1337952284288804
 20
144.0635924205338938
 30
0.0
 11
3457.1479356410882247
 21
144.0519445346766076
 31
0.0
  0
LINE
  5
2034B
  8
0
 10
3457.1479356410882247
 20
144.0519445346766076
 30
0.0
 11
3457.16359775618821
 21
144.0449799248756051
 31
0.0
  0
LINE
  5
2034C
  8
0
 10
3457.16359775618821
 20
144.0449799248756051
 30
0.0
 11
3457.1651079714802108
 21
144.0496278472521112
 31
0.0
  0
LINE
  5
2034D
  8
0
 10
3457.1651079714802108
 20
144.0496278472521112
 30
0.0
 11
3457.1509792228689548
 21
144.0613116313166984
 31
0.0
  0
LINE
  5
2034E
  8
0
 10
3457.1509792228689548
 20
144.0613116313166984
 30
0.0
 11
3457.135328773864785
 21
144.0683121452181865
 31
0.0
  0
LINE
  5
2034F
  8
0
 10
3457.147935641236927
 20
144.0519445345834981
 30
0.0
 11
3457.1509792228689548
 21
144.0613116313166984
 31
0.0
  0
LINE
  5
20350
  8
0
 10
3457.1315764395721999
 20
144.0567637524250131
 30
0.0
 11
3457.1306744726889519
 21
144.0539878090391994
 31
0.0
  0
LINE
  5
20351
  8
0
 10
3457.1306744726889519
 20
144.0539878090391994
 30
0.0
 11
3457.1452080232829758
 21
144.0433336726808022
 31
0.0
  0
LINE
  5
20352
  8
0
 10
3457.1452080232829758
 20
144.0433336726808022
 30
0.0
 11
3457.160523238685073
 21
144.0355176187682957
 31
0.0
  0
LINE
  5
20353
  8
0
 10
3457.160523238685073
 20
144.0355176187682957
 30
0.0
 11
3457.1614120087929223
 21
144.038252947049898
 31
0.0
  0
LINE
  5
20354
  8
0
 10
3457.1614120087929223
 20
144.038252947049898
 30
0.0
 11
3457.1469387965371425
 21
144.048876590351
 31
0.0
  0
LINE
  5
20355
  8
0
 10
3457.1469387965371425
 20
144.048876590351
 30
0.0
 11
3457.1315764395858423
 21
144.0567637524682993
 31
0.0
  0
LINE
  5
20356
  8
0
 10
3457.1452080234321329
 20
144.0433336725876927
 30
0.0
 11
3457.1469387965371425
 21
144.048876590351
 31
0.0
  0
LINE
  5
20357
  8
0
 10
3457.109401820363928
 20
144.0786055817752072
 30
0.0
 11
3457.1081699257952096
 21
144.0748142346992893
 31
0.0
  0
LINE
  5
20358
  8
0
 10
3457.1081699257952096
 20
144.0748142346992893
 30
0.0
 11
3457.1223275758311502
 21
144.0627151200727951
 31
0.0
  0
LINE
  5
20359
  8
0
 10
3457.1223275758311502
 20
144.0627151200727951
 30
0.0
 11
3457.1374369462851064
 21
144.0545536320682913
 31
0.0
  0
LINE
  5
2035A
  8
0
 10
3457.1374369462851064
 20
144.0545536320682913
 30
0.0
 11
3457.1386462734858469
 21
144.0582755247683053
 31
0.0
  0
LINE
  5
2035B
  8
0
 10
3457.1386462734858469
 20
144.0582755247683053
 30
0.0
 11
3457.1246301471928746
 21
144.0703059211903962
 31
0.0
  0
LINE
  5
2035C
  8
0
 10
3457.1246301471928746
 20
144.0703059211903962
 30
0.0
 11
3457.1094018203771157
 21
144.0786055818184934
 31
0.0
  0
LINE
  5
2035D
  8
0
 10
3457.1223275759789431
 20
144.062715119979714
 30
0.0
 11
3457.1246301471928746
 21
144.0703059211903962
 31
0.0
  0
LINE
  5
2035E
  8
0
 10
3457.10649492397215
 20
144.0696591558250077
 30
0.0
 11
3457.1058882317847747
 21
144.0677919661683006
 31
0.0
  0
LINE
  5
2035F
  8
0
 10
3457.1058882317847747
 20
144.0677919661683006
 30
0.0
 11
3457.1202354191350423
 21
144.0567804633840865
 31
0.0
  0
LINE
  5
20360
  8
0
 10
3457.1202354191350423
 20
144.0567804633840865
 30
0.0
 11
3457.1351962237818043
 21
144.0476574595583941
 31
0.0
  0
LINE
  5
20361
  8
0
 10
3457.1351962237818043
 20
144.0476574595583941
 30
0.0
 11
3457.1357799634379262
 21
144.0494540092323916
 31
0.0
  0
LINE
  5
20362
  8
0
 10
3457.1357799634379262
 20
144.0494540092323916
 30
0.0
 11
3457.1214378732638579
 21
144.0604812012014122
 31
0.0
  0
LINE
  5
20363
  8
0
 10
3457.1214378732638579
 20
144.0604812012014122
 30
0.0
 11
3457.1064949239857924
 21
144.069659155868294
 31
0.0
  0
LINE
  5
20364
  8
0
 10
3457.1202354192841995
 20
144.0567804632910054
 30
0.0
 11
3457.1214378732638579
 21
144.0604812012014122
 31
0.0
  0
LINE
  5
20365
  8
0
 10
3457.0843560413709383
 20
144.0916109700249876
 30
0.0
 11
3457.0834234443159403
 21
144.0887407575052919
 31
0.0
  0
LINE
  5
20366
  8
0
 10
3457.0834234443159403
 20
144.0887407575052919
 30
0.0
 11
3457.0973085552359407
 21
144.0763071415613865
 31
0.0
  0
LINE
  5
20367
  8
0
 10
3457.0973085552359407
 20
144.0763071415613865
 30
0.0
 11
3457.112132512586868
 21
144.0667629701767112
 31
0.0
  0
LINE
  5
20368
  8
0
 10
3457.112132512586868
 20
144.0667629701767112
 30
0.0
 11
3457.1130449060760839
 21
144.0695710031390888
 31
0.0
  0
LINE
  5
20369
  8
0
 10
3457.1130449060760839
 20
144.0695710031390888
 30
0.0
 11
3457.099153234591995
 21
144.0819844280844109
 31
0.0
  0
LINE
  5
2036A
  8
0
 10
3457.099153234591995
 20
144.0819844280844109
 30
0.0
 11
3457.0843560413850355
 21
144.0916109700683023
 31
0.0
  0
LINE
  5
2036B
  8
0
 10
3457.0973085553850979
 20
144.0763071414683054
 30
0.0
 11
3457.099153234591995
 21
144.0819844280844109
 31
0.0
  0
LINE
  5
2036C
  8
0
 10
3457.0642065290958271
 20
144.1009996028921876
 30
0.0
 11
3457.0733183049551371
 21
144.0925610830142034
 31
0.0
  0
LINE
  5
2036D
  8
0
 10
3457.0733183049551371
 20
144.0925610830142034
 30
0.0
 11
3457.0877021143219281
 21
144.081662288523404
 31
0.0
  0
LINE
  5
2036E
  8
0
 10
3457.0877021143219281
 20
144.081662288523404
 30
0.0
 11
3457.0883171628847776
 21
144.0835551960682892
 31
0.0
  0
LINE
  5
2036F
  8
0
 10
3457.0883171628847776
 20
144.0835551960682892
 30
0.0
 11
3457.0745641041498857
 21
144.0963952239602861
 31
0.0
  0
LINE
  5
20370
  8
0
 10
3457.0745641041498857
 20
144.0963952239602861
 30
0.0
 11
3457.0715877379147969
 21
144.0986012907588076
 31
0.0
  0
LINE
  5
20371
  8
0
 10
3457.0745640955678937
 20
144.096395230321491
 30
0.0
 11
3457.0733183047759667
 21
144.0925610831758092
 31
0.0
  0
LINE
  5
20372
  8
0
 10
3457.0819858889858551
 20
144.0843164573682884
 30
0.0
 11
3457.0822935660858093
 21
144.0852633815682964
 31
0.0
  0
LINE
  5
20373
  8
0
 10
3457.0822935660858093
 20
144.0852633815682964
 30
0.0
 11
3457.0968026508821822
 21
144.0747501395946131
 31
0.0
  0
LINE
  5
20374
  8
0
 10
3457.0968026508821822
 20
144.0747501395946131
 30
0.0
 11
3457.111026823984048
 21
144.063360041465188
 31
0.0
  0
LINE
  5
20375
  8
0
 10
3457.111026823984048
 20
144.063360041465188
 30
0.0
 11
3457.1107256799850802
 21
144.062433223768295
 31
0.0
  0
LINE
  5
20376
  8
0
 10
3457.1107256799850802
 20
144.062433223768295
 30
0.0
 11
3457.1062768157948994
 21
144.0654940981225991
 31
0.0
  0
LINE
  5
20377
  8
0
 10
3457.0819858889858551
 20
144.0843164573682884
 30
0.0
 11
3457.0840550601310497
 21
144.0825292586796138
 31
0.0
  0
LINE
  5
20378
  8
0
 10
3457.07905688917117
 20
144.0961740492465992
 30
0.0
 11
3457.0900155508848002
 21
144.0887822493683075
 31
0.0
  0
LINE
  5
20379
  8
0
 10
3457.0900155508848002
 20
144.0887822493683075
 30
0.0
 11
3457.0911415846358068
 21
144.0922477934834092
 31
0.0
  0
LINE
  5
2037A
  8
0
 10
3457.0938134872722003
 20
144.0913795667478894
 30
0.0
 11
3457.10018068661293
 21
144.085146572258509
 31
0.0
  0
LINE
  5
2037B
  8
0
 10
3457.10018068661293
 20
144.085146572258509
 30
0.0
 11
3457.1152898192372049
 21
144.076480072841008
 31
0.0
  0
LINE
  5
2037C
  8
0
 10
3457.1152898192372049
 20
144.076480072841008
 30
0.0
 11
3457.116841827000826
 21
144.0812566181656962
 31
0.0
  0
LINE
  5
2037D
  8
0
 10
3457.116841827000826
 20
144.0812566181656962
 30
0.0
 11
3457.1127764972570731
 21
144.0852177924753903
 31
0.0
  0
LINE
  5
2037E
  8
0
 10
3457.1001806866411243
 20
144.0851465722309968
 30
0.0
 11
3457.1014536762490934
 21
144.0888971614315892
 31
0.0
  0
LINE
  5
2037F
  8
0
 10
3457.1152283609949336
 20
144.0844221096720901
 30
0.0
 11
3457.1259078411690098
 21
144.0742382227381881
 31
0.0
  0
LINE
  5
20380
  8
0
 10
3457.1259078411690098
 20
144.0742382227381881
 30
0.0
 11
3457.1414425799011951
 21
144.0668815926782997
 31
0.0
  0
LINE
  5
20381
  8
0
 10
3457.1414425799011951
 20
144.0668815926782997
 30
0.0
 11
3457.1433031179722093
 21
144.0726076883267126
 31
0.0
  0
LINE
  5
20382
  8
0
 10
3457.1433031179722093
 20
144.0726076883267126
 30
0.0
 11
3457.1389356400959514
 21
144.076718422710087
 31
0.0
  0
LINE
  5
20383
  8
0
 10
3457.1259078409848371
 20
144.0742382227682867
 30
0.0
 11
3457.1279600581410705
 21
144.080284637797007
 31
0.0
  0
LINE
  5
20384
  8
0
 10
3457.1419656766620392
 20
144.0757338952238058
 30
0.0
 11
3457.1525124578251962
 21
144.0660304005056105
 31
0.0
  0
LINE
  5
20385
  8
0
 10
3457.1525124578251962
 20
144.0660304005056105
 30
0.0
 11
3457.1684687910737921
 21
144.0599712925917117
 31
0.0
  0
LINE
  5
20386
  8
0
 10
3457.1684687910737921
 20
144.0599712925917117
 30
0.0
 11
3457.1706548774232033
 21
144.0664121243150078
 31
0.0
  0
LINE
  5
20387
  8
0
 10
3457.1748377987660206
 20
144.0650527803890952
 30
0.0
 11
3457.1799965490190516
 21
144.0605292970595031
 31
0.0
  0
LINE
  5
20388
  8
0
 10
3457.1799965490190516
 20
144.0605292970595031
 30
0.0
 11
3457.1963770442621353
 21
144.055775614210404
 31
0.0
  0
LINE
  5
20389
  8
0
 10
3457.1963770442621353
 20
144.055775614210404
 30
0.0
 11
3457.1970736665762161
 21
144.0578280615443134
 31
0.0
  0
LINE
  5
2038A
  8
0
 10
3457.1292835059798563
 20
144.0497068926532904
 30
0.0
 11
3457.1295812751418453
 21
144.0506233235998934
 31
0.0
  0
LINE
  5
2038B
  8
0
 10
3457.1295812751418453
 20
144.0506233235998934
 30
0.0
 11
3457.1446569173208445
 21
144.0418537520569089
 31
0.0
  0
LINE
  5
2038C
  8
0
 10
3457.1446569173208445
 20
144.0418537520569089
 30
0.0
 11
3457.1594458579847924
 21
144.0322018118683047
 31
0.0
  0
LINE
  5
2038D
  8
0
 10
3457.1594458579847924
 20
144.0322018118683047
 30
0.0
 11
3457.1591523636320744
 21
144.0312985373541892
 31
0.0
  0
LINE
  5
2038E
  8
0
 10
3457.1591523636320744
 20
144.0312985373541892
 30
0.0
 11
3457.15212203416786
 21
144.0352045199572899
 31
0.0
  0
LINE
  5
2038F
  8
0
 10
3457.1292835059798563
 20
144.0497068926532904
 30
0.0
 11
3457.1344815648549229
 21
144.046139648921411
 31
0.0
  0
LINE
  5
20390
  8
0
 10
3457.1440814180609777
 20
144.0400825634258126
 30
0.0
 11
3457.1446569180411643
 21
144.0418537515870128
 31
0.0
  0
LINE
  5
20391
  8
0
 10
3457.1525124579520707
 20
144.0660304004541103
 30
0.0
 11
3457.1544312013961644
 21
144.0716835639929911
 31
0.0
  0
LINE
  5
20392
  8
0
 10
3457.2855430465378959
 20
144.0250143858291949
 30
0.0
 11
3457.2678420139518494
 21
144.025703909572087
 31
0.0
  0
LINE
  5
20393
  8
0
 10
3457.278954826086192
 20
144.0312228317210952
 30
0.0
 11
3457.2699024702869792
 21
144.0320452844945009
 31
0.0
  0
LINE
  5
20394
  8
0
 10
3457.2699024702869792
 20
144.0320452844945009
 30
0.0
 11
3457.2676054147850664
 21
144.0249757388683065
 31
0.0
  0
LINE
  5
20395
  8
0
 10
3457.2676054147850664
 20
144.0249757388683065
 30
0.0
 11
3457.2584114727860651
 21
144.0281939572682859
 31
0.0
  0
LINE
  5
20396
  8
0
 10
3457.2584114727860651
 20
144.0281939572682859
 30
0.0
 11
3457.2574997064862146
 21
144.0287943134682962
 31
0.0
  0
LINE
  5
20397
  8
0
 10
3457.2574997064862146
 20
144.0287943134682962
 30
0.0
 11
3457.2565680651350704
 21
144.02891980531831
 31
0.0
  0
LINE
  5
20398
  8
0
 10
3457.2565680651350704
 20
144.02891980531831
 30
0.0
 11
3457.2472702694858526
 21
144.0322320933682931
 31
0.0
  0
LINE
  5
20399
  8
0
 10
3457.2472702694858526
 20
144.0322320933682931
 30
0.0
 11
3457.2497191352867958
 21
144.0397688591719998
 31
0.0
  0
LINE
  5
2039A
  8
0
 10
3457.2497191352867958
 20
144.0397688591719998
 30
0.0
 11
3457.2473304219120109
 21
144.0414981691023968
 31
0.0
  0
LINE
  5
2039B
  8
0
 10
3457.2531582537280883
 20
144.0396054516280913
 30
0.0
 11
3457.2595546274860681
 21
144.0351186525682863
 31
0.0
  0
LINE
  5
2039C
  8
0
 10
3457.2595546274860681
 20
144.0351186525682863
 30
0.0
 11
3457.2707230617720597
 21
144.0338977054738905
 31
0.0
  0
LINE
  5
2039D
  8
0
 10
3457.2595546174798073
 20
144.0351186595864021
 30
0.0
 11
3457.2602907147111182
 21
144.0372874112437103
 31
0.0
  0
LINE
  5
2039E
  8
0
 10
3457.2473161293642079
 20
144.0323732342849894
 30
0.0
 11
3457.2364830202809571
 21
144.0396486876047106
 31
0.0
  0
LINE
  5
2039F
  8
0
 10
3457.3354145152970887
 20
144.0128774244203953
 30
0.0
 11
3457.3206492888198227
 21
143.9674367597556
 31
0.0
  0
ARC
  5
203A0
  8
0
 10
3457.4531719696010441
 20
144.5434736760462044
 30
0.0
 40
0.5910844185486805
 50
257.0440056608418899
 51
275.7518852119006851
  0
LINE
  5
203A1
  8
0
 10
3457.3810896522950316
 20
143.9936438568109054
 30
0.0
 11
3457.3651569937560453
 21
143.999775796349212
 31
0.0
  0
LINE
  5
203A2
  8
0
 10
3457.3651569937560453
 20
143.999775796349212
 30
0.0
 11
3457.3642600690309337
 21
143.9997316617690899
 31
0.0
  0
LINE
  5
203A3
  8
0
 10
3457.3642600690309337
 20
143.9997316617690899
 30
0.0
 11
3457.3600625231651975
 21
143.9868135209883064
 31
0.0
  0
LINE
  5
203A4
  8
0
 10
3457.3600625231651975
 20
143.9868135209883064
 30
0.0
 11
3457.3608608209679005
 21
143.986554126721586
 31
0.0
  0
LINE
  5
203A5
  8
0
 10
3457.3608608209679005
 20
143.986554126721586
 30
0.0
 11
3457.3789272939329749
 21
143.986989099218988
 31
0.0
  0
LINE
  5
203A6
  8
0
 10
3457.3789272939329749
 20
143.986989099218988
 30
0.0
 11
3457.3810896522950316
 21
143.9936438568109054
 31
0.0
  0
LINE
  5
203A7
  8
0
 10
3457.3610430218418514
 20
143.9865291947394894
 30
0.0
 11
3457.3651569994381134
 21
143.9997757966287963
 31
0.0
  0
LINE
  5
203A8
  8
0
 10
3457.3755691710362044
 20
143.9767330164596899
 30
0.0
 11
3457.3593495818768133
 21
143.981903545116495
 31
0.0
  0
LINE
  5
203A9
  8
0
 10
3457.3593495818768133
 20
143.981903545116495
 30
0.0
 11
3457.3584708584239706
 21
143.9819150995703012
 31
0.0
  0
LINE
  5
203AA
  8
0
 10
3457.3584708584239706
 20
143.9819150995703012
 30
0.0
 11
3457.3555605597439353
 21
143.9729585210770892
 31
0.0
  0
LINE
  5
203AB
  8
0
 10
3457.3555605597439353
 20
143.9729585210770892
 30
0.0
 11
3457.3563647056530499
 21
143.972718739356111
 31
0.0
  0
LINE
  5
203AC
  8
0
 10
3457.3563647056530499
 20
143.972718739356111
 30
0.0
 11
3457.3740936452850292
 21
143.9721133228453027
 31
0.0
  0
LINE
  5
203AD
  8
0
 10
3457.3740936452850292
 20
143.9721133228453027
 30
0.0
 11
3457.3755691710362044
 21
143.9767330164596899
 31
0.0
  0
LINE
  5
203AE
  8
0
 10
3457.3563647056530499
 20
143.972718739356111
 30
0.0
 11
3457.3593495818768133
 21
143.981903545116495
 31
0.0
  0
LINE
  5
203AF
  8
0
 10
3457.3545247150577779
 20
143.9697706615575896
 30
0.0
 11
3457.35538725587503
 21
143.9697089783500132
 31
0.0
  0
LINE
  5
203B0
  8
0
 10
3457.35538725587503
 20
143.9697089783500132
 30
0.0
 11
3457.3719240066097882
 21
143.9654361600302934
 31
0.0
  0
LINE
  5
203B1
  8
0
 10
3457.3719240066097882
 20
143.9654361600302934
 30
0.0
 11
3457.3710416737899322
 21
143.9627207398411031
 31
0.0
  0
LINE
  5
203B2
  8
0
 10
3457.3710416737899322
 20
143.9627207398411031
 30
0.0
 11
3457.3536301033641394
 21
143.964301260160596
 31
0.0
  0
LINE
  5
203B3
  8
0
 10
3457.3536301033641394
 20
143.964301260160596
 30
0.0
 11
3457.3528112278409026
 21
143.9644973254345928
 31
0.0
  0
LINE
  5
203B4
  8
0
 10
3457.3528112278409026
 20
143.9644973254345928
 30
0.0
 11
3457.3545247150577779
 21
143.9697706615575896
 31
0.0
  0
LINE
  5
203B5
  8
0
 10
3457.35538725587503
 20
143.9697089783500132
 30
0.0
 11
3457.3536301039948739
 21
143.9643012601034116
 31
0.0
  0
LINE
  5
203B6
  8
0
 10
3457.3523004599119304
 20
143.9629254135726057
 30
0.0
 11
3457.3517345039372231
 21
143.9611836582429873
 31
0.0
  0
LINE
  5
203B7
  8
0
 10
3457.3517345039372231
 20
143.9611836582429873
 30
0.0
 11
3457.3525675207570202
 21
143.961031113041912
 31
0.0
  0
LINE
  5
203B8
  8
0
 10
3457.3525675207570202
 20
143.961031113041912
 30
0.0
 11
3457.3696806025668593
 21
143.9585319805713084
 31
0.0
  0
LINE
  5
203B9
  8
0
 10
3457.3696806025668593
 20
143.9585319805713084
 30
0.0
 11
3457.3699720106210407
 21
143.9594288023320985
 31
0.0
  0
LINE
  5
203BA
  8
0
 10
3457.3699720106210407
 20
143.9594288023320985
 30
0.0
 11
3457.3531478962308938
 21
143.9628172454812898
 31
0.0
  0
LINE
  5
203BB
  8
0
 10
3457.3531478962308938
 20
143.9628172454812898
 30
0.0
 11
3457.3523004599119304
 21
143.9629254135726057
 31
0.0
  0
LINE
  5
203BC
  8
0
 10
3457.3531478962381698
 20
143.9628172455047093
 30
0.0
 11
3457.3525675207570202
 21
143.961031113041912
 31
0.0
  0
LINE
  5
203BD
  8
0
 10
3457.3989258513897767
 20
143.9584508107253953
 30
0.0
 11
3457.3983353960979912
 21
143.9566336575688865
 31
0.0
  0
LINE
  5
203BE
  8
0
 10
3457.3983353960979912
 20
143.9566336575688865
 30
0.0
 11
3457.3808112260981034
 21
143.957867646641688
 31
0.0
  0
LINE
  5
203BF
  8
0
 10
3457.3808112260981034
 20
143.957867646641688
 30
0.0
 11
3457.3638784596769256
 21
143.9609217086558033
 31
0.0
  0
LINE
  5
203C0
  8
0
 10
3457.3638784596769256
 20
143.9609217086558033
 30
0.0
 11
3457.3644622181500381
 21
143.9627182522154953
 31
0.0
  0
LINE
  5
203C1
  8
0
 10
3457.3644622181500381
 20
143.9627182522154953
 30
0.0
 11
3457.3819853873001193
 21
143.9614811816778115
 31
0.0
  0
LINE
  5
203C2
  8
0
 10
3457.3819853873001193
 20
143.9614811816778115
 30
0.0
 11
3457.3989258514038738
 21
143.95845081076871
 31
0.0
  0
LINE
  5
203C3
  8
0
 10
3457.3808112259230256
 20
143.9578676466541083
 30
0.0
 11
3457.3819853873001193
 21
143.9614811816778115
 31
0.0
  0
LINE
  5
203C4
  8
0
 10
3457.4017533987071147
 20
143.967152718083895
 30
0.0
 11
3457.4005300389671902
 21
143.9633877721057047
 31
0.0
  0
LINE
  5
203C5
  8
0
 10
3457.4005300389671902
 20
143.9633877721057047
 30
0.0
 11
3457.3827188350451252
 21
143.9637384010707137
 31
0.0
  0
LINE
  5
203C6
  8
0
 10
3457.3827188350451252
 20
143.9637384010707137
 30
0.0
 11
3457.3660731025470341
 21
143.9676758231925078
 31
0.0
  0
LINE
  5
203C7
  8
0
 10
3457.3660731025470341
 20
143.9676758231925078
 30
0.0
 11
3457.3672570774579071
 21
143.9713195607006924
 31
0.0
  0
LINE
  5
203C8
  8
0
 10
3457.3672570774579071
 20
143.9713195607006924
 30
0.0
 11
3457.3851006785212121
 21
143.971068634012596
 31
0.0
  0
LINE
  5
203C9
  8
0
 10
3457.3851006785212121
 20
143.971068634012596
 30
0.0
 11
3457.4017533987212119
 21
143.9671527181272097
 31
0.0
  0
LINE
  5
203CA
  8
0
 10
3457.3827188348700474
 20
143.9637384010831056
 30
0.0
 11
3457.3851006785212121
 21
143.971068634012596
 31
0.0
  0
LINE
  5
203CB
  8
0
 10
3457.4063649199179054
 20
143.9813448869693104
 30
0.0
 11
3457.4045227846390844
 21
143.9756756310011951
 31
0.0
  0
LINE
  5
203CC
  8
0
 10
3457.4045227846390844
 20
143.9756756310011951
 30
0.0
 11
3457.3863467742289686
 21
143.9749035509003932
 31
0.0
  0
LINE
  5
203CD
  8
0
 10
3457.3863467742289686
 20
143.9749035509003932
 30
0.0
 11
3457.3699934207079423
 21
143.9797407830999134
 31
0.0
  0
LINE
  5
203CE
  8
0
 10
3457.3699934207079423
 20
143.9797407830999134
 30
0.0
 11
3457.3718129896437858
 21
143.9853405903110968
 31
0.0
  0
LINE
  5
203CF
  8
0
 10
3457.3718129896437858
 20
143.9853405903110968
 30
0.0
 11
3457.3900084256852097
 21
143.9861724537041994
 31
0.0
  0
LINE
  5
203D0
  8
0
 10
3457.3900084256852097
 20
143.9861724537041994
 30
0.0
 11
3457.406364919932912
 21
143.9813448870125967
 31
0.0
  0
LINE
  5
203D1
  8
0
 10
3457.3863467740538908
 20
143.9749035509126998
 30
0.0
 11
3457.3900084256852097
 21
143.9861724537041994
 31
0.0
  0
LINE
  5
203D2
  8
0
 10
3457.4325178507310738
 20
143.9717469662720077
 30
0.0
 11
3457.4309842559678145
 21
143.9670272576630907
 31
0.0
  0
LINE
  5
203D3
  8
0
 10
3457.4309842559678145
 20
143.9670272576630907
 30
0.0
 11
3457.4126979487368772
 21
143.9659157348525866
 31
0.0
  0
LINE
  5
203D4
  8
0
 10
3457.4126979487368772
 20
143.9659157348525866
 30
0.0
 11
3457.3959333929260538
 21
143.969487472182891
 31
0.0
  0
LINE
  5
203D5
  8
0
 10
3457.3959333929260538
 20
143.969487472182891
 30
0.0
 11
3457.3974436567150406
 21
143.9741353788014919
 31
0.0
  0
LINE
  5
203D6
  8
0
 10
3457.3974436567150406
 20
143.9741353788014919
 30
0.0
 11
3457.4157416285370346
 21
143.9752827996429971
 31
0.0
  0
LINE
  5
203D7
  8
0
 10
3457.4157416285370346
 20
143.9752827996429971
 30
0.0
 11
3457.432517850745171
 21
143.971746966315294
 31
0.0
  0
LINE
  5
203D8
  8
0
 10
3457.4126979485608899
 20
143.9659157348648932
 30
0.0
 11
3457.4157416285370346
 21
143.9752827996429971
 31
0.0
  0
LINE
  5
203D9
  8
0
 10
3457.4287653956162103
 20
143.9601986127848932
 30
0.0
 11
3457.4278633997319048
 21
143.9574226788226952
 31
0.0
  0
LINE
  5
203DA
  8
0
 10
3457.4278633997319048
 20
143.9574226788226952
 30
0.0
 11
3457.4098431648749283
 21
143.9573461927232074
 31
0.0
  0
LINE
  5
203DB
  8
0
 10
3457.4098431648749283
 20
143.9573461927232074
 30
0.0
 11
3457.3928587764257827
 21
143.9600251982429029
 31
0.0
  0
LINE
  5
203DC
  8
0
 10
3457.3928587764257827
 20
143.9600251982429029
 30
0.0
 11
3457.3937475751249622
 21
143.9627605172343863
 31
0.0
  0
LINE
  5
203DD
  8
0
 10
3457.3937475751249622
 20
143.9627605172343863
 30
0.0
 11
3457.411701072041069
 21
143.9628478009717867
 31
0.0
  0
LINE
  5
203DE
  8
0
 10
3457.411701072041069
 20
143.9628478009717867
 30
0.0
 11
3457.428765395631217
 21
143.9601986128282078
 31
0.0
  0
LINE
  5
203DF
  8
0
 10
3457.4098431646998506
 20
143.9573461927355993
 30
0.0
 11
3457.411701072041069
 21
143.9628478009717867
 31
0.0
  0
LINE
  5
203E0
  8
0
 10
3457.4595434177890638
 20
143.96483462373169
 30
0.0
 11
3457.4583114836600544
 21
143.9610432895100018
 31
0.0
  0
LINE
  5
203E1
  8
0
 10
3457.4583114836600544
 20
143.9610432895100018
 30
0.0
 11
3457.4397459998790509
 21
143.9595768512403993
 31
0.0
  0
LINE
  5
203E2
  8
0
 10
3457.4397459998790509
 20
143.9595768512403993
 30
0.0
 11
3457.422725096099839
 21
143.9618554026617119
 31
0.0
  0
LINE
  5
203E3
  8
0
 10
3457.422725096099839
 20
143.9618554026617119
 30
0.0
 11
3457.4239344622587851
 21
143.9655772827030091
 31
0.0
  0
LINE
  5
203E4
  8
0
 10
3457.4239344622587851
 20
143.9655772827030091
 30
0.0
 11
3457.4423450598169438
 21
143.9670713147918093
 31
0.0
  0
LINE
  5
203E5
  8
0
 10
3457.4423450598169438
 20
143.9670713147918093
 30
0.0
 11
3457.459543417803161
 21
143.9648346237750047
 31
0.0
  0
LINE
  5
203E6
  8
0
 10
3457.4397459997030637
 20
143.9595768512527911
 30
0.0
 11
3457.4423450598169438
 21
143.9670713147918093
 31
0.0
  0
LINE
  5
203E7
  8
0
 10
3457.45663642785712
 20
143.9558882281752119
 30
0.0
 11
3457.4560297161160634
 21
143.9540210448724906
 31
0.0
  0
LINE
  5
203E8
  8
0
 10
3457.4560297161160634
 20
143.9540210448724906
 30
0.0
 11
3457.4379501912799242
 21
143.9535459026311059
 31
0.0
  0
LINE
  5
203E9
  8
0
 10
3457.4379501912799242
 20
143.9535459026311059
 30
0.0
 11
3457.4204843012839774
 21
143.9549592536484965
 31
0.0
  0
LINE
  5
203EA
  8
0
 10
3457.4204843012839774
 20
143.9549592536484965
 30
0.0
 11
3457.4210680597561804
 21
143.9567557972081886
 31
0.0
  0
LINE
  5
203EB
  8
0
 10
3457.4210680597561804
 20
143.9567557972081886
 30
0.0
 11
3457.4391526830081602
 21
143.9572466282311893
 31
0.0
  0
LINE
  5
203EC
  8
0
 10
3457.4391526830081602
 20
143.9572466282311893
 30
0.0
 11
3457.4566364278712172
 21
143.9558882282184982
 31
0.0
  0
LINE
  5
203ED
  8
0
 10
3457.4379501911048465
 20
143.9535459026434125
 30
0.0
 11
3457.4391526830081602
 21
143.9572466282311893
 31
0.0
  0
LINE
  5
203EE
  8
0
 10
3457.4874501877161492
 20
143.9606342236210992
 30
0.0
 11
3457.4865175606669254
 21
143.9577640208474065
 31
0.0
  0
LINE
  5
203EF
  8
0
 10
3457.4865175606669254
 20
143.9577640208474065
 30
0.0
 11
3457.467975943915917
 21
143.9558667704781101
 31
0.0
  0
LINE
  5
203F0
  8
0
 10
3457.467975943915917
 20
143.9558667704781101
 30
0.0
 11
3457.4503732029761522
 21
143.9568589551213051
 31
0.0
  0
LINE
  5
203F1
  8
0
 10
3457.4503732029761522
 20
143.9568589551213051
 30
0.0
 11
3457.4512856258447755
 21
143.959666978537399
 31
0.0
  0
LINE
  5
203F2
  8
0
 10
3457.4512856258447755
 20
143.959666978537399
 30
0.0
 11
3457.4698206819139159
 21
143.9615440379465099
 31
0.0
  0
LINE
  5
203F3
  8
0
 10
3457.4698206819139159
 20
143.9615440379465099
 30
0.0
 11
3457.4874501877311559
 21
143.9606342236644139
 31
0.0
  0
LINE
  5
203F4
  8
0
 10
3457.4679759437399298
 20
143.9558667704905019
 30
0.0
 11
3457.4698206819139159
 21
143.9615440379465099
 31
0.0
  0
LINE
  5
203F5
  8
0
 10
3457.5092699184269804
 20
143.9563858564347925
 30
0.0
 11
3457.4969382761419183
 21
143.9549149126569034
 31
0.0
  0
LINE
  5
203F6
  8
0
 10
3457.4969382761419183
 20
143.9549149126569034
 30
0.0
 11
3457.4788953735260293
 21
143.9545524786433077
 31
0.0
  0
LINE
  5
203F7
  8
0
 10
3457.4788953735260293
 20
143.9545524786433077
 30
0.0
 11
3457.4795104418171832
 21
143.9564453797783017
 31
0.0
  0
LINE
  5
203F8
  8
0
 10
3457.4795104418171832
 20
143.9564453797783017
 30
0.0
 11
3457.4981841154731228
 21
143.9587490405619121
 31
0.0
  0
LINE
  5
203F9
  8
0
 10
3457.4981841154731228
 20
143.9587490405619121
 30
0.0
 11
3457.5018887404248744
 21
143.9587842634113883
 31
0.0
  0
LINE
  5
203FA
  8
0
 10
3457.4981841261551381
 20
143.958749040663406
 30
0.0
 11
3457.4969382763820249
 21
143.9549149126823124
 31
0.0
  0
LINE
  5
203FB
  8
0
 10
3457.4850799591199575
 20
143.9533397357272975
 30
0.0
 11
3457.4853876461511391
 21
143.9542866567005888
 31
0.0
  0
LINE
  5
203FC
  8
0
 10
3457.4853876461511391
 20
143.9542866567005888
 30
0.0
 11
3457.4674700217537975
 21
143.9543097742972861
 31
0.0
  0
LINE
  5
203FD
  8
0
 10
3457.4674700217537975
 20
143.9543097742972861
 30
0.0
 11
3457.4492674787970827
 21
143.953456037969886
 31
0.0
  0
LINE
  5
203FE
  8
0
 10
3457.4492674787970827
 20
143.953456037969886
 30
0.0
 11
3457.4489663250001286
 21
143.9525292234565939
 31
0.0
  0
LINE
  5
203FF
  8
0
 10
3457.4489663250001286
 20
143.9525292234565939
 30
0.0
 11
3457.4543646663491927
 21
143.9523904608170994
 31
0.0
  0
LINE
  5
20400
  8
0
 10
3457.4850799591199575
 20
143.9533397357272975
 30
0.0
 11
3457.4823554718409468
 21
143.953110132923797
 31
0.0
  0
LINE
  5
20401
  8
0
 10
3457.4944194116819745
 20
143.961210958688298
 30
0.0
 11
3457.4812088844491882
 21
143.9616724153268024
 31
0.0
  0
LINE
  5
20402
  8
0
 10
3457.4812088844491882
 20
143.9616724153268024
 30
0.0
 11
3457.4823349544581106
 21
143.965137947660196
 31
0.0
  0
LINE
  5
20403
  8
0
 10
3457.479663022656041
 20
143.9660060846364047
 30
0.0
 11
3457.4708481674151699
 21
143.9647061712418861
 31
0.0
  0
LINE
  5
20404
  8
0
 10
3457.4708481674151699
 20
143.9647061712418861
 30
0.0
 11
3457.4535306113320985
 21
143.9665760247387141
 31
0.0
  0
LINE
  5
20405
  8
0
 10
3457.4535306113320985
 20
143.9665760247387141
 30
0.0
 11
3457.4550826690037866
 21
143.971352553846998
 31
0.0
  0
LINE
  5
20406
  8
0
 10
3457.4550826690037866
 20
143.971352553846998
 30
0.0
 11
3457.4606999225670734
 21
143.9721675816051061
 31
0.0
  0
LINE
  5
20407
  8
0
 10
3457.4708481673760616
 20
143.9647061712362017
 30
0.0
 11
3457.4720228979031162
 21
143.9684886876055998
 31
0.0
  0
LINE
  5
20408
  8
0
 10
3457.4582486451117802
 20
143.9729650687509945
 30
0.0
 11
3457.4436227946321196
 21
143.9710036030695903
 31
0.0
  0
LINE
  5
20409
  8
0
 10
3457.4436227946321196
 20
143.9710036030695903
 30
0.0
 11
3457.426730858549945
 21
143.9741833214098108
 31
0.0
  0
LINE
  5
2040A
  8
0
 10
3457.426730858549945
 20
143.9741833214098108
 30
0.0
 11
3457.4285914566330575
 21
143.9799093975587141
 31
0.0
  0
LINE
  5
2040B
  8
0
 10
3457.4285914566330575
 20
143.9799093975587141
 30
0.0
 11
3457.4345410614810135
 21
143.9806678184943109
 31
0.0
  0
LINE
  5
2040C
  8
0
 10
3457.4436227947981024
 20
143.9710036029862863
 30
0.0
 11
3457.4455166061229647
 21
143.9771014885718046
 31
0.0
  0
LINE
  5
2040D
  8
0
 10
3457.4315110352172269
 20
143.9816523776833037
 30
0.0
 11
3457.4172749128579198
 21
143.9800015527922028
 31
0.0
  0
LINE
  5
2040E
  8
0
 10
3457.4172749128579198
 20
143.9800015527922028
 30
0.0
 11
3457.4008045845180277
 21
143.9844787889805957
 31
0.0
  0
LINE
  5
2040F
  8
0
 10
3457.4008045845180277
 20
143.9844787889805957
 30
0.0
 11
3457.4028219319889104
 21
143.9909744487621026
 31
0.0
  0
LINE
  5
20410
  8
0
 10
3457.3986388966850427
 20
143.9923334419592891
 30
0.0
 11
3457.3918065333641607
 21
143.9917062122862887
 31
0.0
  0
LINE
  5
20411
  8
0
 10
3457.3918065333641607
 20
143.9917062122862887
 30
0.0
 11
3457.3757603809799548
 21
143.9974888690036039
 31
0.0
  0
LINE
  5
20412
  8
0
 10
3457.3757603809799548
 20
143.9974888690036039
 30
0.0
 11
3457.3764032326507731
 21
143.9995587879479046
 31
0.0
  0
LINE
  5
20413
  8
0
 10
3457.4264723883161423
 20
143.9531417769632924
 30
0.0
 11
3457.4267701670719362
 21
143.9540582047922896
 31
0.0
  0
LINE
  5
20414
  8
0
 10
3457.4267701670719362
 20
143.9540582047922896
 30
0.0
 11
3457.4094191194240011
 21
143.9558249865274036
 31
0.0
  0
LINE
  5
20415
  8
0
 10
3457.4094191194240011
 20
143.9558249865274036
 30
0.0
 11
3457.3917813609627956
 21
143.9567094026380971
 31
0.0
  0
LINE
  5
20416
  8
0
 10
3457.3917813609627956
 20
143.9567094026380971
 30
0.0
 11
3457.3914878571799818
 21
143.9558061311880977
 31
0.0
  0
LINE
  5
20417
  8
0
 10
3457.3914878571799818
 20
143.9558061311880977
 30
0.0
 11
3457.3994713768070142
 21
143.9548336874414929
 31
0.0
  0
LINE
  5
20418
  8
0
 10
3457.4264723883161423
 20
143.9531417769632924
 30
0.0
 11
3457.4201702997679604
 21
143.9533112580296006
 31
0.0
  0
LINE
  5
20419
  8
0
 10
3457.4088436015790649
 20
143.954053803935011
 30
0.0
 11
3457.4094191185658929
 21
143.9558249865704909
 31
0.0
  0
LINE
  5
2041A
  8
0
 10
3457.4172749127242241
 20
143.980001552825513
 30
0.0
 11
3457.4190455528610073
 21
143.9857028393386997
 31
0.0
  0
LINE
  5
2041B
  8
0
 10
3457.2855430080999213
 20
144.0250143983188877
 30
0.0
 11
3457.3002685806709451
 21
144.0151675962954982
 31
0.0
  0
LINE
  5
2041C
  8
0
 10
3457.2945222415069111
 20
144.026164535935095
 30
0.0
 11
3457.3023291032800444
 21
144.0215089496832093
 31
0.0
  0
LINE
  5
2041D
  8
0
 10
3457.3023291032800444
 20
144.0215089496832093
 30
0.0
 11
3457.3000319739171573
 21
144.0144394280567894
 31
0.0
  0
LINE
  5
2041E
  8
0
 10
3457.3000319739171573
 20
144.0144394280567894
 30
0.0
 11
3457.3093616063288209
 21
144.0116388105838041
 31
0.0
  0
LINE
  5
2041F
  8
0
 10
3457.3093616063288209
 20
144.0116388105838041
 30
0.0
 11
3457.3104521204882076
 21
144.0115885689463937
 31
0.0
  0
LINE
  5
20420
  8
0
 10
3457.3104521204882076
 20
144.0115885689463937
 30
0.0
 11
3457.3112795893871407
 21
144.0111424758725036
 31
0.0
  0
LINE
  5
20421
  8
0
 10
3457.3112795893871407
 20
144.0111424758725036
 30
0.0
 11
3457.320748534158156
 21
144.0083569165010999
 31
0.0
  0
LINE
  5
20422
  8
0
 10
3457.320748534158156
 20
144.0083569165010999
 30
0.0
 11
3457.3231974789159722
 21
144.0158936566492969
 31
0.0
  0
LINE
  5
20423
  8
0
 10
3457.3231974789159722
 20
144.0158936566492969
 30
0.0
 11
3457.3261464514248473
 21
144.0158886007081946
 31
0.0
  0
LINE
  5
20424
  8
0
 10
3457.3203191549418989
 20
144.0177829657243933
 30
0.0
 11
3457.3125071076028689
 21
144.0179128865636926
 31
0.0
  0
LINE
  5
20425
  8
0
 10
3457.3125071076028689
 20
144.0179128865636926
 30
0.0
 11
3457.3027540878388209
 21
144.0234899145989118
 31
0.0
  0
LINE
  5
20426
  8
0
 10
3457.3125071198228397
 20
144.0179128863605058
 30
0.0
 11
3457.3131863994340165
 21
144.0201000996773075
 31
0.0
  0
LINE
  5
20427
  8
0
 10
3457.3207943955148949
 20
144.0084980569374125
 30
0.0
 11
3457.3338349614227809
 21
144.0080162746251915
 31
0.0
  0
LINE
  5
20428
  8
0
 10
3457.605001168185936
 20
143.9252831272964102
 30
0.0
 11
3457.6152796851852145
 21
143.9305168879683094
 31
0.0
  0
ARC
  5
20429
  8
0
 10
3457.5974350700689683
 20
143.9655620566772996
 30
0.0
 40
0.0393267610985004
 50
296.9846948586798021
 51
324.0158611231198051
  0
ARC
  5
2042A
  8
0
 10
3459.9166427294208006
 20
154.7961709940182971
 30
0.0
 40
0.1181102362000015
 50
90.0
 51
179.9999999999984084
  0
LINE
  5
2042B
  8
0
 10
3459.7985324932219555
 20
154.7961709940182971
 30
0.0
 11
3459.7985324932219555
 21
154.4024702066182897
 31
0.0
  0
ARC
  5
2042C
  8
0
 10
3459.9166427294208006
 20
154.4024702066182897
 30
0.0
 40
0.1181102361999962
 50
179.9999999999967031
 51
270.0
  0
LINE
  5
2042D
  8
0
 10
3461.8788066144220466
 20
156.1840301510183053
 30
0.0
 11
3461.8788066144220466
 21
175.4273027008613894
 31
0.0
  0
LINE
  5
2042E
  8
0
 10
3464.0638459845208672
 20
145.6820142313574991
 30
0.0
 11
3464.0638459845208672
 21
143.1229591132575081
 31
0.0
  0
ARC
  5
2042F
  8
0
 10
3464.04423114557585
 20
143.1228856199051052
 30
0.0
 40
0.0196149766289072
 50
269.9251340291691008
 51
0.2146762063661741
  0
LINE
  5
20430
  8
0
 10
3464.0442055155231174
 20
143.1032706600209963
 30
0.0
 11
3463.9221582714230863
 21
143.1032706600209963
 31
0.0
  0
ARC
  5
20431
  8
0
 10
3463.9221691655120594
 20
143.3001402197909897
 30
0.0
 40
0.1968695600713639
 50
218.0014596838510101
 51
269.9968294469724128
  0
LINE
  5
20432
  8
0
 10
3463.7670369230231699
 20
143.1789312637575051
 30
0.0
 11
3463.2931764706518152
 21
143.7854378634785064
 31
0.0
  0
ARC
  5
20433
  8
0
 10
3463.3552062552080315
 20
143.8339014115813086
 30
0.0
 40
0.0787172767999421
 50
179.9880391822580918
 51
218.0003263679805912
  0
LINE
  5
20434
  8
0
 10
3463.2764889801228492
 20
143.8339178442575133
 30
0.0
 11
3463.2764889801228492
 21
144.9710555003576076
 31
0.0
  0
ARC
  5
20435
  8
0
 10
3463.3552291376231551
 20
144.9710555003576076
 30
0.0
 40
0.0787401574999791
 50
142.000000058273514
 51
180.0000000000048885
  0
LINE
  5
20436
  8
0
 10
3463.2931810467230207
 20
145.0195327818283033
 30
0.0
 11
3463.7755170795990125
 21
145.6368947523077111
 31
0.0
  0
ARC
  5
20437
  8
0
 10
3463.9227460682368473
 20
145.5020448447461092
 30
0.0
 40
0.1996518786901575
 50
90.1686852410196451
 51
137.5128228512215003
  0
LINE
  5
20438
  8
0
 10
3463.9221582714230863
 20
145.701695858165607
 30
0.0
 11
3464.044205515505837
 21
145.701695858165607
 31
0.0
  0
ARC
  5
20439
  8
0
 10
3464.0442427409848278
 20
145.68209249375019
 30
0.0
 40
0.0196033997596174
 50
359.7712582124777896
 51
90.1088007242848334
  0
ARC
  5
2043A
  8
0
 10
3458.9930630328758525
 20
145.5309873331831056
 30
0.0
 40
1.461191633150966
 50
97.9166513424575555
 51
115.0943188619922068
  0
ARC
  5
2043B
  8
0
 10
3459.4905653536147838
 20
139.4377745968612885
 30
0.0
 40
7.5727851448050654
 50
91.0471804779975145
 51
95.2943250346401101
  0
LINE
  5
2043C
  8
0
 10
3459.3521671792718735
 20
147.0092949722362903
 30
0.0
 11
3461.2732355490279588
 21
147.0092949722362903
 31
0.0
  0
ARC
  5
2043D
  8
0
 10
3469.9428040807752041
 20
377.9302647202788989
 30
0.0
 40
231.0836551725435868
 50
267.8499289045388991
 51
267.9502971548462824
  0
ARC
  5
2043E
  8
0
 10
3461.6022053290330405
 20
145.4355296591315039
 30
0.0
 40
1.560762772590208
 50
62.7246032844142434
 51
87.225076726164346
  0
ARC
  5
2043F
  8
0
 10
3462.3041637686878857
 20
146.7916968523223886
 30
0.0
 40
0.0337841818181051
 50
14.2190893035502501
 51
66.8367422745904918
  0
LINE
  5
20440
  8
0
 10
3462.3386983805721684
 20
146.7833876282682866
 30
0.0
 11
3462.3386978974717749
 21
146.4401327827683019
 31
0.0
  0
ARC
  5
20441
  8
0
 10
3462.3188201418520293
 20
146.4402557220359995
 30
0.0
 40
0.0198782649886309
 50
295.3545106951826824
 51
359.6456458306300874
  0
ARC
  5
20442
  8
0
 10
3462.321554103786184
 20
145.9477288497357108
 30
0.0
 40
0.0197620892234616
 50
0.092830649807225
 51
89.7436910239993608
  0
LINE
  5
20443
  8
0
 10
3462.3413161670709997
 20
145.9477608682682899
 30
0.0
 11
3462.3413178808118573
 21
145.6817114688736865
 31
0.0
  0
ARC
  5
20444
  8
0
 10
3470.7868417066952134
 20
145.6817658702055098
 30
0.0
 40
8.4455238260578138
 50
180.000369067303609
 51
181.7206412809443918
  0
ARC
  5
20445
  8
0
 10
3464.35729629521893
 20
145.4886230548034121
 30
0.0
 40
2.013078074605076
 50
181.7206412809443918
 51
189.2000882077859103
  0
ARC
  5
20446
  8
0
 10
3462.7549031337239285
 20
145.2290894626013085
 30
0.0
 40
0.3898031350194642
 50
189.2000882077859103
 51
205.8355502249688982
  0
ARC
  5
20447
  8
0
 10
3462.5100266689369164
 20
145.1105240528889055
 30
0.0
 40
0.1177328511096033
 50
205.8355502249704045
 51
235.0371155461793933
  0
ARC
  5
20448
  8
0
 10
3462.4996691041351369
 20
145.0957115041998122
 30
0.0
 40
0.0996582626693933
 50
235.037115546180388
 51
260.515369770848281
  0
ARC
  5
20449
  8
0
 10
3462.5381665685258668
 20
145.326142992776596
 30
0.0
 40
0.3332834447287233
 50
260.515369770848281
 51
268.3454522769289952
  0
ARC
  5
2044A
  8
0
 10
3462.550158432517037
 20
145.7199393280833135
 30
0.0
 40
0.7272621043435255
 50
268.2968694323611771
 51
269.2208127987877901
  0
ARC
  5
2044B
  8
0
 10
3461.904318455556222
 20
156.8388069602279984
 30
0.0
 40
0.0944083665278402
 50
143.8783204197052044
 51
171.1364581915676126
  0
ARC
  5
2044C
  8
0
 10
3461.8451638049978101
 20
156.8819775679014015
 30
0.0
 40
0.021176037262773
 50
122.1622346820614951
 51
143.8783204196820122
  0
ARC
  5
2044D
  8
0
 10
3461.8422148767590443
 20
156.8866672387819108
 30
0.0
 40
0.0156362547106903
 50
85.1021716458804036
 51
122.1622346820897036
  0
ARC
  5
2044E
  8
0
 10
3461.842950561805992
 20
156.895252457043
 30
0.0
 40
0.0070195729201794
 50
40.8085179199605008
 51
85.1021716458805457
  0
ARC
  5
2044F
  8
0
 10
3461.8298204355342023
 20
156.8799912834982138
 30
0.0
 40
0.027094711134336
 50
21.8525594178184299
 51
47.1020466296516034
  0
ARC
  5
20450
  8
0
 10
3461.7423876404059229
 20
156.846584667498206
 30
0.0
 40
0.120689393614454
 50
4.4237913375126103
 51
21.1223897349321916
  0
ARC
  5
20451
  8
0
 10
3461.5396726431558818
 20
156.823692187528394
 30
0.0
 40
0.3246458211268673
 50
354.8318964020568274
 51
5.6925290273590248
  0
ARC
  5
20452
  8
0
 10
3461.7083097784288839
 20
156.8066958330273053
 30
0.0
 40
0.1551729655005348
 50
344.7197664374292003
 51
355.4731791130121223
  0
ARC
  5
20453
  8
0
 10
3461.8180735088199071
 20
156.7755228126870009
 30
0.0
 40
0.0410901367768661
 50
317.8919542513078795
 51
346.3149353404605222
  0
ARC
  5
20454
  8
0
 10
3461.8418560068471379
 20
156.7540276096638081
 30
0.0
 40
0.0090331411998902
 50
266.7618263381198176
 51
317.891954251301911
  0
ARC
  5
20455
  8
0
 10
3461.8421765677881012
 20
156.7596935285905886
 30
0.0
 40
0.0147081210767465
 50
250.0032364279628894
 51
266.7618263381198176
  0
ARC
  5
20456
  8
0
 10
3461.8473480512880087
 20
156.7681601502187902
 30
0.0
 40
0.0245116252917182
 50
218.0973440481070895
 51
245.406535733156602
  0
ARC
  5
20457
  8
0
 10
3461.8789837983290454
 20
156.7939089577295988
 30
0.0
 40
0.0652990462891872
 50
203.3816562703098896
 51
218.7502922164117081
  0
ARC
  5
20458
  8
0
 10
3461.9497923011381317
 20
156.8222531586995103
 30
0.0
 40
0.1415567294408563
 50
179.0091835492621897
 51
202.5381099307498118
  0
ARC
  5
20459
  8
0
 10
3461.9636948225170272
 20
156.8240767644132063
 30
0.0
 40
0.1554393385727788
 50
169.1435680598648901
 51
179.7699106845857955
  0
ARC
  5
2045A
  8
0
 10
3461.7501834214572227
 20
100.9376184824995022
 30
0.0
 40
45.849546327354517
 50
89.2645434463785961
 51
91.6291865157880636
  0
ARC
  5
2045B
  8
0
 10
3462.2804520612257875
 20
146.7855254732506864
 30
0.0
 40
0.0582855393607518
 50
357.8979867450029246
 51
14.3744012547268998
  0
LINE
  5
2045C
  8
0
 10
3463.7670380443228169
 20
145.6260420820341039
 30
0.0
 11
3463.7670380443228169
 21
143.178929828592203
 31
0.0
  0
LINE
  5
2045D
  8
0
 10
3445.2449388165227901
 20
195.7804225565683112
 30
0.0
 11
3445.2449396285228431
 21
194.9930209817682965
 31
0.0
  0
LINE
  5
2045E
  8
0
 10
3445.2449396285228431
 20
194.9930209817682965
 30
0.0
 11
3446.0323412032212218
 21
194.993021793668305
 31
0.0
  0
LINE
  5
2045F
  8
0
 10
3446.0323412032212218
 20
194.993021793668305
 30
0.0
 11
3446.0323403912220783
 21
195.7804233685683073
 31
0.0
  0
LINE
  5
20460
  8
0
 10
3445.2744671875220774
 20
194.9930210122682865
 30
0.0
 11
3445.2744672995859219
 21
194.8843399099064015
 31
0.0
  0
LINE
  5
20461
  8
0
 10
3445.1662000811220423
 20
194.8843402852683084
 30
0.0
 11
3446.1110809747228814
 21
194.8843402852683084
 31
0.0
  0
LINE
  5
20462
  8
0
 10
3446.1110809747228814
 20
194.8843402852683084
 30
0.0
 11
3446.1110817976209546
 21
194.5693792088682983
 31
0.0
  0
LINE
  5
20463
  8
0
 10
3446.1110817976209546
 20
194.5693792088682983
 30
0.0
 11
3446.0717832414948134
 21
194.5693792088682983
 31
0.0
  0
LINE
  5
20464
  8
0
 10
3446.0717832414948134
 20
194.5693792088682983
 30
0.0
 11
3446.0717122661208123
 21
194.0688313459683059
 31
0.0
  0
LINE
  5
20465
  8
0
 10
3446.0717122661208123
 20
194.0688313459683059
 30
0.0
 11
3446.0059244616209071
 21
194.0448811392683126
 31
0.0
  0
ARC
  5
20466
  8
0
 10
3446.0126571606219841
 20
194.0263832599682985
 30
0.0
 40
0.0196850393999983
 50
110.0000592647784003
 51
180.0
  0
LINE
  5
20467
  8
0
 10
3445.9929722527208469
 20
193.8988366921682882
 30
0.0
 11
3445.9929722527208469
 21
193.8988366921668955
 31
0.0
  0
LINE
  5
20468
  8
0
 10
3445.9929721212220102
 20
194.0263832599682985
 30
0.0
 11
3445.9929722527208469
 21
193.8988366921730915
 31
0.0
  0
ARC
  5
20469
  8
0
 10
3446.0126572921208208
 20
193.8988367124682952
 30
0.0
 40
0.0196850394000057
 50
180.0000590717228874
 51
223.5119781748601895
  0
ARC
  5
2046A
  8
0
 10
3445.6384553445500387
 20
193.5435836149173952
 30
0.0
 40
0.496291569455667
 50
28.4403862005381285
 51
43.5119781748602676
  0
LINE
  5
2046B
  8
0
 10
3446.1662007228660514
 20
193.772063407150398
 30
0.0
 11
3446.1662007219028965
 21
193.7799395619682912
 31
0.0
  0
LINE
  5
2046C
  8
0
 10
3446.1662007219028965
 20
193.7799395619682912
 30
0.0
 11
3445.1116117287219822
 21
193.7799395619682912
 31
0.0
  0
LINE
  5
2046D
  8
0
 10
3445.1116117287219822
 20
193.7799395619682912
 30
0.0
 11
3445.1116117296951415
 21
193.772063407150398
 31
0.0
  0
LINE
  5
2046E
  8
0
 10
3444.9844968235261149
 20
193.772063407150398
 30
0.0
 11
3446.2927860586210045
 21
193.772063407150398
 31
0.0
  0
ARC
  5
2046F
  8
0
 10
3446.2927912316858965
 20
193.7130130727227026
 30
0.0
 40
0.0590503346542838
 50
4.4466665626889776
 51
90.0050193576019666
  0
ARC
  5
20470
  8
0
 10
3434.0824466638168815
 20
192.7688565918415122
 30
0.0
 40
12.3058436205825998
 50
0.9498466594275102
 51
4.42167892555661
  0
ARC
  5
20471
  8
0
 10
3444.9844942234158225
 20
193.7130110420158076
 30
0.0
 40
0.0590523651918255
 50
89.9974772347258209
 51
175.5529414853712922
  0
ARC
  5
20472
  8
0
 10
3457.0491590623851152
 20
192.7744946596259865
 30
0.0
 40
12.16016597826248
 50
175.551895368022798
 51
179.0653456014184997
  0
LINE
  5
20473
  8
0
 10
3444.8394299126971418
 20
192.9610411000433032
 30
0.0
 11
3444.8512409242221111
 21
192.9728529477683026
 31
0.0
  0
LINE
  5
20474
  8
0
 10
3444.8512409242221111
 20
192.9728529477683026
 30
0.0
 11
3446.4260440738221405
 21
192.9728529477683026
 31
0.0
  0
LINE
  5
20475
  8
0
 10
3446.4260440738221405
 20
192.9728529477683026
 30
0.0
 11
3446.4378551095969669
 21
192.9610427482932948
 31
0.0
  0
ARC
  5
20476
  8
0
 10
3445.6386419103218941
 20
193.5437190895682988
 30
0.0
 40
0.4960629920999807
 50
136.484839229827486
 51
151.5631098548882107
  0
ARC
  5
20477
  8
0
 10
3445.2646245693658784
 20
193.8988364308260941
 30
0.0
 40
0.0196862661618129
 50
316.4848392298288218
 51
359.9985748782539758
  0
LINE
  5
20478
  8
0
 10
3445.2843108355218646
 20
193.8988359411683007
 30
0.0
 11
3445.2843140079958175
 21
194.0263825089240868
 31
0.0
  0
ARC
  5
20479
  8
0
 10
3445.2646314130611245
 20
194.0263829984905897
 30
0.0
 40
0.0196825949413358
 50
359.9985748782556243
 51
70.0152759160738327
  0
LINE
  5
2047A
  8
0
 10
3445.2713583255617777
 20
194.0448803818682961
 30
0.0
 11
3445.205562402140913
 21
194.0688082753856918
 31
0.0
  0
LINE
  5
2047B
  8
0
 10
3445.205562402140913
 20
194.0688082753856918
 30
0.0
 11
3445.2056415715210278
 21
194.5693792088682983
 31
0.0
  0
LINE
  5
2047C
  8
0
 10
3445.2056415715210278
 20
194.5693792088682983
 30
0.0
 11
3445.1662000854212238
 21
194.5693792088682983
 31
0.0
  0
LINE
  5
2047D
  8
0
 10
3445.1662000854212238
 20
194.5693792088682983
 30
0.0
 11
3445.1662000811220423
 21
194.8843402852683084
 31
0.0
  0
LINE
  5
2047E
  8
0
 10
3445.2713572842289977
 20
194.0448807605683044
 30
0.0
 11
3446.005923421116222
 21
194.0448807605683044
 31
0.0
  0
CIRCLE
  5
2047F
  8
0
 10
3445.6387756125218402
 20
193.9591434351683006
 30
0.0
 40
0.0236220472
  0
LINE
  5
20480
  8
0
 10
3443.9679031297127949
 20
192.4295458611682932
 30
0.0
 11
3444.0604676118618954
 21
192.4295458611682932
 31
0.0
  0
LINE
  5
20481
  8
0
 10
3444.2932205435981814
 20
192.4295458611682932
 30
0.0
 11
3444.385270330747062
 21
192.4295458611682932
 31
0.0
  0
LINE
  5
20482
  8
0
 10
3444.46676733189679
 20
192.4295458611682932
 30
0.0
 11
3444.5593318140468
 21
192.4295458611682932
 31
0.0
  0
LINE
  5
20483
  8
0
 10
3444.9166147268970235
 20
192.4295458611682932
 30
0.0
 11
3445.0348766299471208
 21
192.4295458611682932
 31
0.0
  0
LINE
  5
20484
  8
0
 10
3445.0436923037200359
 20
192.4886009792683126
 30
0.0
 11
3445.0426997476888573
 21
192.4363463936699077
 31
0.0
  0
LINE
  5
20485
  8
0
 10
3445.0267632843069805
 20
192.4886009792683126
 30
0.0
 11
3445.0257707282921729
 21
192.4363463936846017
 31
0.0
  0
LINE
  5
20486
  8
0
 10
3445.0207766747198548
 20
192.4886009792683126
 30
0.0
 11
3445.019784118689131
 21
192.4363463936699077
 31
0.0
  0
LINE
  5
20487
  8
0
 10
3445.0179948828199485
 20
192.4886009792683126
 30
0.0
 11
3445.0170023267892248
 21
192.4363463936699077
 31
0.0
  0
LINE
  5
20488
  8
0
 10
3444.907799053123199
 20
192.4886009792683126
 30
0.0
 11
3444.9087916091539228
 21
192.4363463936699077
 31
0.0
  0
LINE
  5
20489
  8
0
 10
3444.5671549317889912
 20
192.4363463936699077
 30
0.0
 11
3444.5680611930060877
 21
192.4886009792683126
 31
0.0
  0
LINE
  5
2048A
  8
0
 10
3444.4589442141527798
 20
192.4363463936699077
 30
0.0
 11
3444.4579516581238749
 21
192.4886009792683126
 31
0.0
  0
LINE
  5
2048B
  8
0
 10
3444.3930934484901627
 20
192.4363463936699077
 30
0.0
 11
3444.394086004519977
 21
192.4886009792683126
 31
0.0
  0
LINE
  5
2048C
  8
0
 10
3444.2853974258550807
 20
192.4363463936699077
 30
0.0
 11
3444.2844048698239021
 21
192.4886009792683126
 31
0.0
  0
LINE
  5
2048D
  8
0
 10
3444.0682907296040867
 20
192.4363463936699077
 30
0.0
 11
3444.0692832856361747
 21
192.4886009792683126
 31
0.0
  0
LINE
  5
2048E
  8
0
 10
3443.9600800119687847
 20
192.4363463936699077
 30
0.0
 11
3443.9590874559389704
 21
192.4886009792683126
 31
0.0
  0
ARC
  5
2048F
  8
0
 10
3444.5593318140468
 20
192.4374458611682996
 30
0.0
 40
0.0079
 50
269.9999999999478746
 51
351.9999999942613726
  0
ARC
  5
20490
  8
0
 10
3444.46676733189679
 20
192.4374458611682996
 30
0.0
 40
0.0079
 50
188.0000000057530087
 51
269.9999999999739089
  0
ARC
  5
20491
  8
0
 10
3444.385270330747062
 20
192.4374458611682996
 30
0.0
 40
0.0079
 50
269.9999999999739089
 51
351.999999994266318
  0
ARC
  5
20492
  8
0
 10
3444.2932205435981814
 20
192.4374458611682996
 30
0.0
 40
0.0079
 50
188.0000000057385137
 51
270.0000000000521254
  0
ARC
  5
20493
  8
0
 10
3444.0604676118618954
 20
192.4374458611682996
 30
0.0
 40
0.0079
 50
270.0
 51
351.999999994243808
  0
ARC
  5
20494
  8
0
 10
3443.9679031297127949
 20
192.4374458611682996
 30
0.0
 40
0.0079
 50
188.0000000057839884
 51
270.0
  0
ARC
  5
20495
  8
0
 10
3445.009179209046124
 20
192.4374458611682996
 30
0.0
 40
0.0079
 50
269.9999999999739089
 51
351.9999999941869078
  0
ARC
  5
20496
  8
0
 10
3445.0119610009460303
 20
192.4374458611682996
 30
0.0
 40
0.0079
 50
270.0
 51
351.999999994243808
  0
ARC
  5
20497
  8
0
 10
3445.0179476105458889
 20
192.4374458611682996
 30
0.0
 40
0.0079
 50
270.0000000000782165
 51
352.0000001016401825
  0
ARC
  5
20498
  8
0
 10
3445.0348766299471208
 20
192.4374458611682996
 30
0.0
 40
0.0079
 50
269.9999999999739089
 51
351.9999999942405111
  0
ARC
  5
20499
  8
0
 10
3444.9166147268970235
 20
192.4374458611682996
 30
0.0
 40
0.0079
 50
188.000000005756192
 51
270.0
  0
LINE
  5
2049A
  8
0
 10
3445.5840953292540689
 20
192.4363463936699077
 30
0.0
 11
3445.5831027732237999
 21
192.4886009792683126
 31
0.0
  0
LINE
  5
2049B
  8
0
 10
3445.6923060468889162
 20
192.4363463936699077
 30
0.0
 11
3445.6932986029200947
 21
192.4886009792683126
 31
0.0
  0
LINE
  5
2049C
  8
0
 10
3445.6844829291458154
 20
192.4295458611682932
 30
0.0
 11
3445.5919184469971697
 21
192.4295458611682932
 31
0.0
  0
ARC
  5
2049D
  8
0
 10
3445.6844829291458154
 20
192.4374458611682996
 30
0.0
 40
0.0079
 50
269.999999999895806
 51
351.9999999942551199
  0
ARC
  5
2049E
  8
0
 10
3445.5919184469971697
 20
192.4374458611682996
 30
0.0
 40
0.0079
 50
188.0000000057594889
 51
270.0000000000259774
  0
LINE
  5
2049F
  8
0
 10
3444.5882091000189575
 20
192.4295458611682932
 30
0.0
 11
3444.7100223498910054
 21
192.4295458611682932
 31
0.0
  0
LINE
  5
204A0
  8
0
 10
3444.6885966999111588
 20
192.4363463936699077
 30
0.0
 11
3444.6895892559418826
 21
192.4886009792683126
 31
0.0
  0
LINE
  5
204A1
  8
0
 10
3444.5803859822758568
 20
192.4363463936699077
 30
0.0
 11
3444.579393426245133
 21
192.4886009792683126
 31
0.0
  0
ARC
  5
204A2
  8
0
 10
3444.6807735821680581
 20
192.4374458611682996
 30
0.0
 40
0.0079
 50
269.9999999999478746
 51
351.9999999942613726
  0
ARC
  5
204A3
  8
0
 10
3444.5882091000189575
 20
192.4374458611682996
 30
0.0
 40
0.0079
 50
188.0000000057530087
 51
269.9999999999739089
  0
LINE
  5
204A4
  8
0
 10
3444.7178454676341062
 20
192.4363463936699077
 30
0.0
 11
3444.71883802366483
 21
192.4886009792683126
 31
0.0
  0
ARC
  5
204A5
  8
0
 10
3444.7100223498910054
 20
192.4374458611682996
 30
0.0
 40
0.0079
 50
269.9999999999478746
 51
351.9999999942613726
  0
LINE
  5
204A6
  8
0
 10
3444.0987872183368381
 20
192.4295458611682932
 30
0.0
 11
3444.1913517004859386
 21
192.4295458611682932
 31
0.0
  0
LINE
  5
204A7
  8
0
 10
3444.1991748182290394
 20
192.4363463936699077
 30
0.0
 11
3444.2001673742602179
 21
192.4886009792683126
 31
0.0
  0
LINE
  5
204A8
  8
0
 10
3444.0909641005941921
 20
192.4363463936699077
 30
0.0
 11
3444.0899715445639231
 21
192.4886009792683126
 31
0.0
  0
ARC
  5
204A9
  8
0
 10
3444.1913517004859386
 20
192.4374458611682996
 30
0.0
 40
0.0079
 50
269.9999999999478746
 51
351.9999999942613726
  0
ARC
  5
204AA
  8
0
 10
3444.0987872183368381
 20
192.4374458611682996
 30
0.0
 40
0.0079
 50
188.0000000057530087
 51
269.9999999999739089
  0
LINE
  5
204AB
  8
0
 10
3443.8610153096051363
 20
192.4363463936699077
 30
0.0
 11
3443.8620078656349506
 21
192.4886009792683126
 31
0.0
  0
LINE
  5
204AC
  8
0
 10
3443.7467312522690008
 20
192.4363463936699077
 30
0.0
 11
3443.7457386962391865
 21
192.4886009792683126
 31
0.0
  0
LINE
  5
204AD
  8
0
 10
3443.8549419699052123
 20
192.4363463936699077
 30
0.0
 11
3443.8559345259350266
 21
192.4886009792683126
 31
0.0
  0
LINE
  5
204AE
  8
0
 10
3443.519621027373887
 20
192.4363463936699077
 30
0.0
 11
3443.5206135834041561
 21
192.4886009792683126
 31
0.0
  0
LINE
  5
204AF
  8
0
 10
3443.1824200417049724
 20
192.4363463936699077
 30
0.0
 11
3443.1834125977347867
 21
192.4886009792683126
 31
0.0
  0
LINE
  5
204B0
  8
0
 10
3443.0645933684049851
 20
192.4363463936699077
 30
0.0
 11
3443.0655859244347994
 21
192.4886009792683126
 31
0.0
  0
LINE
  5
204B1
  8
0
 10
3442.7250816275050056
 20
192.4363463936699077
 30
0.0
 11
3442.7260741835361841
 21
192.4886009792683126
 31
0.0
  0
LINE
  5
204B2
  8
0
 10
3442.5159240967741425
 20
192.4363463936699077
 30
0.0
 11
3442.5169166528048663
 21
192.4886009792683126
 31
0.0
  0
LINE
  5
204B3
  8
0
 10
3442.4070411143698038
 20
192.4363463936699077
 30
0.0
 11
3442.40604855833908
 21
192.4886009792683126
 31
0.0
  0
LINE
  5
204B4
  8
0
 10
3442.3360638332701456
 20
192.4363463936699077
 30
0.0
 11
3442.335071277238967
 21
192.4886009792683126
 31
0.0
  0
LINE
  5
204B5
  8
0
 10
3442.6168709098701584
 20
192.4363463936699077
 30
0.0
 11
3442.6158783538389798
 21
192.4886009792683126
 31
0.0
  0
LINE
  5
204B6
  8
0
 10
3442.9563826507701378
 20
192.4363463936699077
 30
0.0
 11
3442.9553900947389593
 21
192.4886009792683126
 31
0.0
  0
LINE
  5
204B7
  8
0
 10
3443.3337930990701352
 20
192.4363463936699077
 30
0.0
 11
3443.3328005430389567
 21
192.4886009792683126
 31
0.0
  0
LINE
  5
204B8
  8
0
 10
3443.4107380449700031
 20
192.4363463936699077
 30
0.0
 11
3443.4097454889388246
 21
192.4886009792683126
 31
0.0
  0
LINE
  5
204B9
  8
0
 10
3443.6352764317698529
 20
192.4363463936699077
 30
0.0
 11
3443.6342838757391291
 21
192.4886009792683126
 31
0.0
  0
LINE
  5
204BA
  8
0
 10
3443.7545543700130111
 20
192.4295458611682932
 30
0.0
 11
3443.8531921918620355
 21
192.4295458611682932
 31
0.0
  0
LINE
  5
204BB
  8
0
 10
3443.7356640316620542
 20
192.4295458611682932
 30
0.0
 11
3443.6430995495120442
 21
192.4295458611682932
 31
0.0
  0
LINE
  5
204BC
  8
0
 10
3443.5117979096307863
 20
192.4295458611682932
 30
0.0
 11
3443.3416162168118717
 21
192.4295458611682932
 31
0.0
  0
LINE
  5
204BD
  8
0
 10
3443.1745969239618717
 20
192.4295458611682932
 30
0.0
 11
3443.0820324418118616
 21
192.4295458611682932
 31
0.0
  0
LINE
  5
204BE
  8
0
 10
3443.0567702506618843
 20
192.4295458611682932
 30
0.0
 11
3442.9642057685118743
 21
192.4295458611682932
 31
0.0
  0
LINE
  5
204BF
  8
0
 10
3442.7172585097619049
 20
192.4295458611682932
 30
0.0
 11
3442.6246940276128043
 21
192.4295458611682932
 31
0.0
  0
LINE
  5
204C0
  8
0
 10
3442.5081009790310418
 20
192.4295458611682932
 30
0.0
 11
3442.343886951011882
 21
192.4295458611682932
 31
0.0
  0
ARC
  5
204C1
  8
0
 10
3442.5081009790310418
 20
192.4374458611682996
 30
0.0
 40
0.0079
 50
269.9999999999739089
 51
351.9999999942111231
  0
ARC
  5
204C2
  8
0
 10
3442.4148642321129046
 20
192.4374458611682996
 30
0.0
 40
0.0079
 50
188.0000000057337104
 51
270.0000000000259774
  0
ARC
  5
204C3
  8
0
 10
3442.343886951011882
 20
192.4374458611682996
 30
0.0
 40
0.0079
 50
188.000000005735302
 51
270.0000000000259774
  0
ARC
  5
204C4
  8
0
 10
3442.6246940276128043
 20
192.4374458611682996
 30
0.0
 40
0.0079
 50
188.0000000057337104
 51
270.0000000000259774
  0
ARC
  5
204C5
  8
0
 10
3442.7172585097619049
 20
192.4374458611682996
 30
0.0
 40
0.0079
 50
269.9999999999739089
 51
351.9999999942143063
  0
ARC
  5
204C6
  8
0
 10
3442.9642057685118743
 20
192.4374458611682996
 30
0.0
 40
0.0079
 50
188.0000000057337104
 51
270.0000000000259774
  0
ARC
  5
204C7
  8
0
 10
3443.0567702506618843
 20
192.4374458611682996
 30
0.0
 40
0.0079
 50
269.9999999999739089
 51
351.9999999942127147
  0
ARC
  5
204C8
  8
0
 10
3443.1745969239618717
 20
192.4374458611682996
 30
0.0
 40
0.0079
 50
269.9999999999739089
 51
351.9999999942421027
  0
ARC
  5
204C9
  8
0
 10
3443.4185611627121943
 20
192.4374458611682996
 30
0.0
 40
0.0079
 50
188.0000000057337104
 51
270.0000000000259774
  0
ARC
  5
204CA
  8
0
 10
3443.3416162168118717
 20
192.4374458611682996
 30
0.0
 40
0.0079
 50
188.0000000057094951
 51
270.0000000000259774
  0
ARC
  5
204CB
  8
0
 10
3443.5117979096307863
 20
192.4374458611682996
 30
0.0
 40
0.0079
 50
269.9999999999739089
 51
351.9999999942127147
  0
ARC
  5
204CC
  8
0
 10
3443.6430995495120442
 20
192.4374458611682996
 30
0.0
 40
0.0079
 50
188.0000000057110867
 51
270.0000000000259774
  0
ARC
  5
204CD
  8
0
 10
3443.8471188521621116
 20
192.4374458611682996
 30
0.0
 40
0.0079
 50
269.9999999999739089
 51
351.9999999942647264
  0
ARC
  5
204CE
  8
0
 10
3443.8531921918620355
 20
192.4374458611682996
 30
0.0
 40
0.0079
 50
269.9999999999739089
 51
351.999999994266318
  0
ARC
  5
204CF
  8
0
 10
3443.7545543700130111
 20
192.4374458611682996
 30
0.0
 40
0.0079
 50
188.000000005735302
 51
270.0000000000259774
  0
LINE
  5
204D0
  8
0
 10
3443.7434871494110666
 20
192.436346393717713
 30
0.0
 11
3443.7451092008009255
 21
192.4478879311351136
 31
0.0
  0
ARC
  5
204D1
  8
0
 10
3443.7356640316620542
 20
192.4374458611682996
 30
0.0
 40
0.0079
 50
270.0
 51
352.000000344207308
  0
LINE
  5
204D2
  8
0
 10
3443.0735276962850548
 20
192.4886009792683126
 30
0.0
 11
3443.0742093240719441
 21
192.4363463936564926
 31
0.0
  0
ARC
  5
204D3
  8
0
 10
3443.0820324418118616
 20
192.4374458611682996
 30
0.0
 40
0.0079
 50
188.0000001042145925
 51
269.9999999999739089
  0
LINE
  5
204D4
  8
0
 10
3445.3675028974048473
 20
192.4363463936687992
 30
0.0
 11
3445.3684954534360259
 21
192.4886009792683126
 31
0.0
  0
LINE
  5
204D5
  8
0
 10
3445.3538971968050646
 20
192.4363463936699077
 30
0.0
 11
3445.3548897528357884
 21
192.4886009792683126
 31
0.0
  0
LINE
  5
204D6
  8
0
 10
3445.3527943061048973
 20
192.4363463936699077
 30
0.0
 11
3445.3537868621351663
 21
192.4886009792683126
 31
0.0
  0
LINE
  5
204D7
  8
0
 10
3445.24458358847005
 20
192.4363463936699077
 30
0.0
 11
3445.2435910324388715
 21
192.4886009792683126
 31
0.0
  0
LINE
  5
204D8
  8
0
 10
3445.2524067062117865
 20
192.4295458611682932
 30
0.0
 11
3445.3596797796622013
 21
192.4295458611682932
 31
0.0
  0
ARC
  5
204D9
  8
0
 10
3445.2524067062117865
 20
192.4374458611682996
 30
0.0
 40
0.0079
 50
188.0000000057368936
 51
270.0000000000521254
  0
ARC
  5
204DA
  8
0
 10
3445.3449711883617965
 20
192.4374458611682996
 30
0.0
 40
0.0079
 50
269.9999999999739089
 51
351.9999999942888849
  0
ARC
  5
204DB
  8
0
 10
3445.3460740790619639
 20
192.4374458611682996
 30
0.0
 40
0.0079
 50
269.9999999999478746
 51
351.9999999942647264
  0
ARC
  5
204DC
  8
0
 10
3445.3596797796622013
 20
192.4374458611682996
 30
0.0
 40
0.0079
 50
269.9999999999478746
 51
351.9999999863230755
  0
LINE
  5
204DD
  8
0
 10
3447.3084982466621113
 20
192.4295458611682932
 30
0.0
 11
3447.2159337645130108
 21
192.4295458611682932
 31
0.0
  0
LINE
  5
204DE
  8
0
 10
3446.9831808327758154
 20
192.4295458611682932
 30
0.0
 11
3446.8911310456278443
 21
192.4295458611682932
 31
0.0
  0
LINE
  5
204DF
  8
0
 10
3446.8096340444772068
 20
192.4295458611682932
 30
0.0
 11
3446.7170695623281063
 21
192.4295458611682932
 31
0.0
  0
LINE
  5
204E0
  8
0
 10
3446.3597866494769733
 20
192.4295458611682932
 30
0.0
 11
3446.2415247464277854
 21
192.4295458611682932
 31
0.0
  0
LINE
  5
204E1
  8
0
 10
3446.2327090726548704
 20
192.4886009792683126
 30
0.0
 11
3446.2337016286851394
 21
192.4363463936699077
 31
0.0
  0
LINE
  5
204E2
  8
0
 10
3446.2496380920670163
 20
192.4886009792683126
 30
0.0
 11
3446.2506306480840976
 21
192.4363463936846017
 31
0.0
  0
LINE
  5
204E3
  8
0
 10
3446.2556247016550515
 20
192.4886009792683126
 30
0.0
 11
3446.2566172576848658
 21
192.4363463936699077
 31
0.0
  0
LINE
  5
204E4
  8
0
 10
3446.2584064935549577
 20
192.4886009792683126
 30
0.0
 11
3446.2593990495861362
 21
192.4363463936699077
 31
0.0
  0
LINE
  5
204E5
  8
0
 10
3446.3686023232507978
 20
192.4886009792683126
 30
0.0
 11
3446.367609767220074
 21
192.4363463936699077
 31
0.0
  0
LINE
  5
204E6
  8
0
 10
3446.7092464445850055
 20
192.4363463936699077
 30
0.0
 11
3446.7083401833688185
 21
192.4886009792683126
 31
0.0
  0
LINE
  5
204E7
  8
0
 10
3446.817457162221217
 20
192.4363463936699077
 30
0.0
 11
3446.8184497182510313
 21
192.4886009792683126
 31
0.0
  0
LINE
  5
204E8
  8
0
 10
3446.8833079278851983
 20
192.4363463936699077
 30
0.0
 11
3446.8823153718549293
 21
192.4886009792683126
 31
0.0
  0
LINE
  5
204E9
  8
0
 10
3446.9910039505198256
 20
192.4363463936699077
 30
0.0
 11
3446.9919965065500946
 21
192.4886009792683126
 31
0.0
  0
LINE
  5
204EA
  8
0
 10
3447.2081106467699101
 20
192.4363463936699077
 30
0.0
 11
3447.2071180907391863
 21
192.4886009792683126
 31
0.0
  0
LINE
  5
204EB
  8
0
 10
3447.3163213644052121
 20
192.4363463936699077
 30
0.0
 11
3447.3173139204350264
 21
192.4886009792683126
 31
0.0
  0
ARC
  5
204EC
  8
0
 10
3446.7170695623281063
 20
192.4374458611682996
 30
0.0
 40
0.0079
 50
188.0000000057385137
 51
270.0000000000521254
  0
ARC
  5
204ED
  8
0
 10
3446.8096340444772068
 20
192.4374458611682996
 30
0.0
 40
0.0079
 50
270.0000000000259774
 51
351.9999999942469913
  0
ARC
  5
204EE
  8
0
 10
3446.8911310456278443
 20
192.4374458611682996
 30
0.0
 40
0.0079
 50
188.0000000057337104
 51
270.0000000000259774
  0
ARC
  5
204EF
  8
0
 10
3446.9831808327758154
 20
192.4374458611682996
 30
0.0
 40
0.0079
 50
269.9999999999478746
 51
351.9999999942613726
  0
ARC
  5
204F0
  8
0
 10
3447.2159337645130108
 20
192.4374458611682996
 30
0.0
 40
0.0079
 50
188.000000005756192
 51
270.0
  0
ARC
  5
204F1
  8
0
 10
3447.3084982466621113
 20
192.4374458611682996
 30
0.0
 40
0.0079
 50
270.0
 51
351.9999999942158979
  0
ARC
  5
204F2
  8
0
 10
3446.2672221673278727
 20
192.4374458611682996
 30
0.0
 40
0.0079
 50
188.0000000058130922
 51
270.0000000000259774
  0
ARC
  5
204F3
  8
0
 10
3446.2644403754279665
 20
192.4374458611682996
 30
0.0
 40
0.0079
 50
188.000000005756192
 51
270.0
  0
ARC
  5
204F4
  8
0
 10
3446.2584537658281079
 20
192.4374458611682996
 30
0.0
 40
0.0079
 50
187.9999998983597891
 51
269.9999999999218971
  0
ARC
  5
204F5
  8
0
 10
3446.2415247464277854
 20
192.4374458611682996
 30
0.0
 40
0.0079
 50
188.0000000057594889
 51
270.0000000000259774
  0
ARC
  5
204F6
  8
0
 10
3446.3597866494769733
 20
192.4374458611682996
 30
0.0
 40
0.0079
 50
270.0
 51
351.999999994243808
  0
LINE
  5
204F7
  8
0
 10
3446.6881922763559487
 20
192.4295458611682932
 30
0.0
 11
3446.5663790264839008
 21
192.4295458611682932
 31
0.0
  0
LINE
  5
204F8
  8
0
 10
3446.5878046764642022
 20
192.4363463936699077
 30
0.0
 11
3446.5868121204330237
 21
192.4886009792683126
 31
0.0
  0
LINE
  5
204F9
  8
0
 10
3446.6960153940990494
 20
192.4363463936699077
 30
0.0
 11
3446.6970079501297732
 21
192.4886009792683126
 31
0.0
  0
ARC
  5
204FA
  8
0
 10
3446.5956277942059387
 20
192.4374458611682996
 30
0.0
 40
0.0079
 50
188.0000000057385137
 51
270.0000000000521254
  0
ARC
  5
204FB
  8
0
 10
3446.6881922763559487
 20
192.4374458611682996
 30
0.0
 40
0.0079
 50
270.0000000000259774
 51
351.9999999942469913
  0
LINE
  5
204FC
  8
0
 10
3446.5585559087398906
 20
192.4363463936699077
 30
0.0
 11
3446.5575633527100763
 21
192.4886009792683126
 31
0.0
  0
ARC
  5
204FD
  8
0
 10
3446.5663790264839008
 20
192.4374458611682996
 30
0.0
 40
0.0079
 50
188.0000000057385137
 51
270.0000000000521254
  0
LINE
  5
204FE
  8
0
 10
3447.1776141580371586
 20
192.4295458611682932
 30
0.0
 11
3447.0850496758880581
 21
192.4295458611682932
 31
0.0
  0
LINE
  5
204FF
  8
0
 10
3447.0772265581449574
 20
192.4363463936699077
 30
0.0
 11
3447.0762340021151431
 21
192.4886009792683126
 31
0.0
  0
LINE
  5
20500
  8
0
 10
3447.1854372757811689
 20
192.4363463936699077
 30
0.0
 11
3447.1864298318100737
 21
192.4886009792683126
 31
0.0
  0
ARC
  5
20501
  8
0
 10
3447.0850496758880581
 20
192.4374458611682996
 30
0.0
 40
0.0079
 50
188.0000000057385137
 51
270.0000000000521254
  0
ARC
  5
20502
  8
0
 10
3447.1776141580371586
 20
192.4374458611682996
 30
0.0
 40
0.0079
 50
270.0000000000259774
 51
351.9999999942469913
  0
LINE
  5
20503
  8
0
 10
3447.4153860667688605
 20
192.4363463936699077
 30
0.0
 11
3447.4143935107390462
 21
192.4886009792683126
 31
0.0
  0
LINE
  5
20504
  8
0
 10
3447.5296701241049959
 20
192.4363463936699077
 30
0.0
 11
3447.5306626801361745
 21
192.4886009792683126
 31
0.0
  0
LINE
  5
20505
  8
0
 10
3447.4214594064687844
 20
192.4363463936699077
 30
0.0
 11
3447.4204668504389701
 21
192.4886009792683126
 31
0.0
  0
LINE
  5
20506
  8
0
 10
3447.7567803490010192
 20
192.4363463936699077
 30
0.0
 11
3447.7557877929698407
 21
192.4886009792683126
 31
0.0
  0
LINE
  5
20507
  8
0
 10
3448.0939813346699339
 20
192.4363463936699077
 30
0.0
 11
3448.0929887786392101
 21
192.4886009792683126
 31
0.0
  0
LINE
  5
20508
  8
0
 10
3448.2118080079699212
 20
192.4363463936699077
 30
0.0
 11
3448.2108154519391974
 21
192.4886009792683126
 31
0.0
  0
LINE
  5
20509
  8
0
 10
3448.5513197488689912
 20
192.4363463936699077
 30
0.0
 11
3448.5503271928391769
 21
192.4886009792683126
 31
0.0
  0
LINE
  5
2050A
  8
0
 10
3448.7604772796012185
 20
192.4363463936699077
 30
0.0
 11
3448.7594847235700399
 21
192.4886009792683126
 31
0.0
  0
LINE
  5
2050B
  8
0
 10
3448.8693602620051024
 20
192.4363463936699077
 30
0.0
 11
3448.8703528180358262
 21
192.4886009792683126
 31
0.0
  0
LINE
  5
2050C
  8
0
 10
3448.9403375431052154
 20
192.4363463936699077
 30
0.0
 11
3448.9413300984529087
 21
192.4886009792683126
 31
0.0
  0
LINE
  5
2050D
  8
0
 10
3448.6595304665052026
 20
192.4363463936699077
 30
0.0
 11
3448.6605230225350169
 21
192.4886009792683126
 31
0.0
  0
LINE
  5
2050E
  8
0
 10
3448.3200187256052232
 20
192.4363463936699077
 30
0.0
 11
3448.3210112816350374
 21
192.4886009792683126
 31
0.0
  0
LINE
  5
2050F
  8
0
 10
3447.9426082773052258
 20
192.4363463936699077
 30
0.0
 11
3447.9436008333350401
 21
192.4886009792683126
 31
0.0
  0
LINE
  5
20510
  8
0
 10
3447.8656633314049031
 20
192.4363463936699077
 30
0.0
 11
3447.8666558874351722
 21
192.4886009792683126
 31
0.0
  0
LINE
  5
20511
  8
0
 10
3447.6411249446050533
 20
192.4363463936699077
 30
0.0
 11
3447.6421175006348676
 21
192.4886009792683126
 31
0.0
  0
LINE
  5
20512
  8
0
 10
3447.5218470063618952
 20
192.4295458611682932
 30
0.0
 11
3447.4232091845119612
 21
192.4295458611682932
 31
0.0
  0
LINE
  5
20513
  8
0
 10
3447.5407373447128521
 20
192.4295458611682932
 30
0.0
 11
3447.6333018268619526
 21
192.4295458611682932
 31
0.0
  0
LINE
  5
20514
  8
0
 10
3447.7646034667432104
 20
192.4295458611682932
 30
0.0
 11
3447.934785159562125
 21
192.4295458611682932
 31
0.0
  0
LINE
  5
20515
  8
0
 10
3448.1018044524130346
 20
192.4295458611682932
 30
0.0
 11
3448.1943689345621351
 21
192.4295458611682932
 31
0.0
  0
LINE
  5
20516
  8
0
 10
3448.2196311257130219
 20
192.4295458611682932
 30
0.0
 11
3448.3121956078621224
 21
192.4295458611682932
 31
0.0
  0
LINE
  5
20517
  8
0
 10
3448.5591428666130014
 20
192.4295458611682932
 30
0.0
 11
3448.6517073487621019
 21
192.4295458611682932
 31
0.0
  0
LINE
  5
20518
  8
0
 10
3448.7683003973438645
 20
192.4295458611682932
 30
0.0
 11
3448.9325144253621147
 21
192.4295458611682932
 31
0.0
  0
ARC
  5
20519
  8
0
 10
3448.7683003973438645
 20
192.4374458611682996
 30
0.0
 40
0.0079
 50
188.0000000057889054
 51
270.0000000000259774
  0
ARC
  5
2051A
  8
0
 10
3448.8615371442610922
 20
192.4374458611682996
 30
0.0
 40
0.0079
 50
269.9999999999739089
 51
351.999999994266318
  0
ARC
  5
2051B
  8
0
 10
3448.9325144253621147
 20
192.4374458611682996
 30
0.0
 40
0.0079
 50
269.9999999999478746
 51
351.9999999942647264
  0
ARC
  5
2051C
  8
0
 10
3448.6517073487621019
 20
192.4374458611682996
 30
0.0
 40
0.0079
 50
269.9999999999739089
 51
351.999999994266318
  0
ARC
  5
2051D
  8
0
 10
3448.5591428666130014
 20
192.4374458611682996
 30
0.0
 40
0.0079
 50
188.0000000057856937
 51
270.0
  0
ARC
  5
2051E
  8
0
 10
3448.3121956078621224
 20
192.4374458611682996
 30
0.0
 40
0.0079
 50
269.9999999999739089
 51
351.999999994266318
  0
ARC
  5
2051F
  8
0
 10
3448.2196311257130219
 20
192.4374458611682996
 30
0.0
 40
0.0079
 50
188.0000000057873137
 51
270.0000000000259774
  0
ARC
  5
20520
  8
0
 10
3448.1018044524130346
 20
192.4374458611682996
 30
0.0
 40
0.0079
 50
188.000000005757812
 51
270.0
  0
ARC
  5
20521
  8
0
 10
3447.8578402136618024
 20
192.4374458611682996
 30
0.0
 40
0.0079
 50
269.9999999999739089
 51
351.999999994266318
  0
ARC
  5
20522
  8
0
 10
3447.934785159562125
 20
192.4374458611682996
 30
0.0
 40
0.0079
 50
269.9999999999739089
 51
351.9999999942904765
  0
ARC
  5
20523
  8
0
 10
3447.7646034667432104
 20
192.4374458611682996
 30
0.0
 40
0.0079
 50
188.0000000057873137
 51
270.0000000000259774
  0
ARC
  5
20524
  8
0
 10
3447.6333018268619526
 20
192.4374458611682996
 30
0.0
 40
0.0079
 50
269.9999999999739089
 51
351.9999999942888849
  0
ARC
  5
20525
  8
0
 10
3447.4292825242118852
 20
192.4374458611682996
 30
0.0
 40
0.0079
 50
188.000000005735302
 51
270.0000000000259774
  0
ARC
  5
20526
  8
0
 10
3447.4232091845119612
 20
192.4374458611682996
 30
0.0
 40
0.0079
 50
188.0000000057337104
 51
270.0000000000259774
  0
ARC
  5
20527
  8
0
 10
3447.5218470063618952
 20
192.4374458611682996
 30
0.0
 40
0.0079
 50
269.9999999999739089
 51
351.9999999942647264
  0
LINE
  5
20528
  8
0
 10
3447.5329142269629301
 20
192.436346393717713
 30
0.0
 11
3447.5312921755730713
 21
192.4478879311351136
 31
0.0
  0
ARC
  5
20529
  8
0
 10
3447.5407373447128521
 20
192.4374458611682996
 30
0.0
 40
0.0079
 50
187.999999655792692
 51
270.0
  0
LINE
  5
2052A
  8
0
 10
3448.2028736800889419
 20
192.4886009792683126
 30
0.0
 11
3448.2021920523029621
 21
192.4363463936564926
 31
0.0
  0
ARC
  5
2052B
  8
0
 10
3448.1943689345621351
 20
192.4374458611682996
 30
0.0
 40
0.0079
 50
270.0
 51
351.9999998957853791
  0
LINE
  5
2052C
  8
0
 10
3445.9088984789700589
 20
192.4363463936687992
 30
0.0
 11
3445.9079059229379709
 21
192.4886009792683126
 31
0.0
  0
LINE
  5
2052D
  8
0
 10
3445.9225041795698417
 20
192.4363463936699077
 30
0.0
 11
3445.9215116235391179
 21
192.4886009792683126
 31
0.0
  0
LINE
  5
2052E
  8
0
 10
3445.923607070270009
 20
192.4363463936699077
 30
0.0
 11
3445.9226145142388305
 21
192.4886009792683126
 31
0.0
  0
LINE
  5
2052F
  8
0
 10
3446.0318177879048562
 20
192.4363463936699077
 30
0.0
 11
3446.0328103439351253
 21
192.4886009792683126
 31
0.0
  0
LINE
  5
20530
  8
0
 10
3446.0239946701622102
 20
192.4295458611682932
 30
0.0
 11
3445.9167215967117954
 21
192.4295458611682932
 31
0.0
  0
ARC
  5
20531
  8
0
 10
3446.0239946701622102
 20
192.4374458611682996
 30
0.0
 40
0.0079
 50
269.9999999999478746
 51
351.999999994263078
  0
ARC
  5
20532
  8
0
 10
3445.9314301880122002
 20
192.4374458611682996
 30
0.0
 40
0.0079
 50
188.0000000057110867
 51
270.0000000000259774
  0
ARC
  5
20533
  8
0
 10
3445.9303272973120329
 20
192.4374458611682996
 30
0.0
 40
0.0079
 50
188.000000005735302
 51
270.0000000000259774
  0
ARC
  5
20534
  8
0
 10
3445.9167215967117954
 20
192.4374458611682996
 30
0.0
 40
0.0079
 50
188.0000000136768108
 51
270.0000000000521254
  0
LINE
  5
20535
  8
0
 10
3441.7080300532970796
 20
192.4886009792683126
 30
0.0
 11
3449.5679838899368406
 21
192.4886009792683126
 31
0.0
  0
ARC
  5
20536
  8
0
 10
3441.7084197998287891
 20
192.5476571419308982
 30
0.0
 40
0.0590574487324771
 50
181.0009337566677061
 51
269.6218767661039237
  0
LINE
  5
20537
  8
0
 10
3441.6493713626368844
 20
192.546625485012413
 30
0.0
 11
3441.6424111905362224
 21
192.9450189851675077
 31
0.0
  0
ARC
  5
20538
  8
0
 10
3441.6612735029848409
 20
192.9420781000829095
 30
0.0
 40
0.0190901973795494
 50
96.5973812831509946
 51
171.1381744202743107
  0
LINE
  5
20539
  8
0
 10
3441.6590801968368396
 20
192.9610418825151044
 30
0.0
 11
3449.6182048255059271
 21
192.9610418825151044
 31
0.0
  0
ARC
  5
2053A
  8
0
 10
3449.6182384488588468
 20
192.9452939687313915
 30
0.0
 40
0.0157479496782309
 50
359.9998744939322251
 51
90.1223319685868205
  0
LINE
  5
2053B
  8
0
 10
3449.6339863985381271
 20
192.9452939342355933
 30
0.0
 11
3449.6270300137371123
 21
192.546625485010594
 31
0.0
  0
ARC
  5
2053C
  8
0
 10
3449.567983817682034
 20
192.5476561702392928
 30
0.0
 40
0.0590551909710138
 50
270.0000701028986896
 51
358.9999708567477228
  0
ARC
  5
2053D
  8
0
 10
3452.5595968624529633
 20
175.1654798111279945
 30
0.0
 40
9.6950399540742733
 50
22.0174198592318504
 51
33.7009160837029711
  0
ARC
  5
2053E
  8
0
 10
3461.4929341733250112
 20
178.7779164487351125
 30
0.0
 40
0.0589508159875698
 50
310.4231447613166779
 51
22.0405803828856293
  0
ARC
  5
2053F
  8
0
 10
247.5370777289404032
 20
4100.1078737301813817
 30
0.0
 40
5070.201036981507059
 50
309.3376627660543932
 51
309.3383543258357804
  0
LINE
  5
20540
  8
0
 10
3461.4838282928208173
 20
178.6942459744682878
 30
0.0
 11
3461.152182927920876
 21
178.5638767435683008
 31
0.0
  0
ARC
  5
20541
  8
0
 10
3460.5343386839331288
 20
180.1421598307956913
 30
0.0
 40
1.6949452291816489
 50
286.1453604001370081
 51
291.3786403306839929
  0
ARC
  5
20542
  8
0
 10
3460.5255164169038835
 20
180.1726347187999124
 30
0.0
 40
1.7266714201663631
 50
279.7509720991628797
 51
286.1453604001370081
  0
ARC
  5
20543
  8
0
 10
3460.5202634782917812
 20
180.203201913531899
 30
0.0
 40
1.75768668669511
 50
274.6484223178907769
 51
279.7509720991628797
  0
ARC
  5
20544
  8
0
 10
3460.22304936545288
 20
183.858578758429104
 30
0.0
 40
5.425126680353026
 50
274.2895243659727953
 51
274.6484223178907769
  0
ARC
  5
20545
  8
0
 10
3460.6406380395378619
 20
178.3522275855017938
 30
0.0
 40
0.0971416325055197
 50
96.9822381630344097
 51
108.0216594017621929
  0
ARC
  5
20546
  8
0
 10
3460.6355288985869265
 20
178.3786405603937055
 30
0.0
 40
0.0705217057888029
 50
110.7143731988121971
 51
117.2936995081169016
  0
ARC
  5
20547
  8
0
 10
3460.608615722138893
 20
178.4307979562412072
 30
0.0
 40
0.0118300282855333
 50
117.2936995081154947
 51
136.7602633851585949
  0
ARC
  5
20548
  8
0
 10
3460.6086270255477757
 20
178.4307873268718083
 30
0.0
 40
0.0118455444238088
 50
136.7602633851597886
 51
151.0474890493416069
  0
ARC
  5
20549
  8
0
 10
3460.6021073218989841
 20
178.4349246284020012
 30
0.0
 40
0.0041638111847194
 50
157.4475363038027922
 51
199.4492596978647043
  0
ARC
  5
2054A
  8
0
 10
3461.7344172845869252
 20
178.8860514637642041
 30
0.0
 40
1.2230293940534731
 50
201.7152336344234129
 51
201.9127461374274048
  0
LINE
  5
2054B
  8
0
 10
3460.5997477829168929
 20
178.4296240098387045
 30
0.0
 11
3460.6307968367918875
 21
178.3623701510558135
 31
0.0
  0
LINE
  5
2054C
  8
0
 10
3461.4728269630709292
 20
178.6899213703873954
 30
0.0
 11
3461.5477424228311065
 21
178.484392505971897
 31
0.0
  0
ARC
  5
2054D
  8
0
 10
3461.5292563314969811
 20
178.4776543087095888
 30
0.0
 40
0.019675844967613
 50
289.9636479652588719
 51
20.0268445399123785
  0
LINE
  5
2054E
  8
0
 10
3461.5359741347210729
 20
178.4591607964682964
 30
0.0
 11
3460.747483345422097
 21
178.1721726982682981
 31
0.0
  0
ARC
  5
2054F
  8
0
 10
3460.7407475387690283
 20
178.1906694466865133
 30
0.0
 40
0.0196850398350895
 50
200.0000597059087966
 51
290.0096844127068039
  0
LINE
  5
20550
  8
0
 10
3460.7222496591120944
 20
178.1839367472647098
 30
0.0
 11
3460.6565214009219744
 21
178.3645230732682876
 31
0.0
  0
LINE
  5
20551
  8
0
 10
3461.4740282011798627
 20
178.686625800884002
 30
0.0
 11
3460.6566272720219786
 21
178.3645691451683035
 31
0.0
  0
LINE
  5
20552
  8
0
 10
3460.6566272720219786
 20
178.3645691451683035
 30
0.0
 11
3460.6307968367918875
 21
178.3623701510558135
 31
0.0
  0
ARC
  5
20553
  8
0
 10
3460.5132489615621125
 20
179.9267045459245935
 30
0.0
 40
1.5687445942348479
 50
272.4955102282900157
 51
274.2972677771886083
  0
ARC
  5
20554
  8
0
 10
3460.5789306068068072
 20
178.4196375586450074
 30
0.0
 40
0.0602470030301531
 50
227.585135889618499
 51
272.4955102282900157
  0
ARC
  5
20555
  8
0
 10
3461.0958231233139486
 20
178.8204938519324116
 30
0.0
 40
0.7135558820695505
 50
207.917658546699812
 51
218.6166995907261992
  0
ARC
  5
20556
  8
0
 10
3453.5405427929949838
 20
175.8795664763030118
 30
0.0
 40
7.3991897402188522
 50
20.6289220399026796
 51
33.4449530017312782
  0
LINE
  5
20557
  8
0
 10
3454.3923055754489724
 20
183.6194875536399138
 30
0.0
 11
3454.6449346878798679
 21
184.1246687372830877
 31
0.0
  0
ARC
  5
20558
  8
0
 10
3454.6981577395649765
 20
184.09807544515769
 30
0.0
 40
0.0594970286385213
 50
90.0000000000260485
 51
153.4506541713712124
  0
ARC
  5
20559
  8
0
 10
3454.6827628452479075
 20
183.9486775783005896
 30
0.0
 40
0.2094614048820151
 50
79.0079026157648769
 51
85.7851015990082857
  0
ARC
  5
2055A
  8
0
 10
3453.1025754649808732
 20
174.7899046691048
 30
0.0
 40
9.5035064866154642
 50
69.8484896338529353
 51
80.1844651858690014
  0
ARC
  5
2055B
  8
0
 10
3452.7278232813218892
 20
173.7998833039482918
 30
0.0
 40
10.5620326354890004
 50
58.388091992887837
 51
69.7901983241602437
  0
ARC
  5
2055C
  8
0
 10
3452.2253918899527889
 20
172.9498510855574125
 30
0.0
 40
11.5493048122873194
 50
55.3003154954460783
 51
58.4757808794663276
  0
ARC
  5
2055D
  8
0
 10
3454.4455384533830511
 20
183.5929474547097016
 30
0.0
 40
0.0594835225965616
 50
153.4820732008365098
 51
217.2675812434729039
  0
ARC
  5
2055E
  8
0
 10
3454.4530847263231408
 20
183.598689429375014
 30
0.0
 40
0.0689659541589708
 50
217.2675812434742113
 51
240.7633023323622012
  0
ARC
  5
2055F
  8
0
 10
3455.5590849918589811
 20
185.5746709668472079
 30
0.0
 40
2.3334172395249499
 50
240.7633023323622012
 51
241.891867684682893
  0
ARC
  5
20560
  8
0
 10
3463.6278689372797999
 20
201.4232773704551107
 30
0.0
 40
20.1173822811038789
 50
242.8879305991920887
 51
245.6662849485653908
  0
ARC
  5
20561
  8
0
 10
3513.3601896972509167
 20
308.3535908298310915
 30
0.0
 40
138.0460331626941866
 50
245.1460352144596015
 51
245.6766258921284987
  0
ARC
  5
20562
  8
0
 10
3488.1623417600221728
 20
252.5145939922508944
 30
0.0
 40
76.7849321823355382
 50
245.6481666994594946
 51
246.1428214310942906
  0
ARC
  5
20563
  8
0
 10
3464.9883660699451866
 20
200.0856740596260011
 30
0.0
 40
19.4628222922932714
 50
246.1092738848822137
 51
246.9668334292641134
  0
ARC
  5
20564
  8
0
 10
3458.1994902120109145
 20
184.0975346504721131
 30
0.0
 40
2.09305392561589
 50
246.7498823390795053
 51
249.4238403610740136
  0
ARC
  5
20565
  8
0
 10
3453.2201112696830023
 20
175.5973719855703905
 30
0.0
 40
7.8223236686927624
 50
33.8809998401281192
 51
54.4708539871145589
  0
ARC
  5
20566
  8
0
 10
3456.7151846521801417
 20
180.4956276764625045
 30
0.0
 40
1.804979763981043
 50
54.4042229671425872
 51
65.493567644604255
  0
ARC
  5
20567
  8
0
 10
3454.4661297215748164
 20
183.5181076448272108
 30
0.0
 40
0.0056572837978265
 50
203.7480528836804865
 51
215.7855627221047996
  0
ARC
  5
20568
  8
0
 10
3454.481796907431999
 20
183.5281194253051069
 30
0.0
 40
0.0242434093052181
 50
213.3274630958366913
 51
224.4926534731193897
  0
ARC
  5
20569
  8
0
 10
3457.7719285906678124
 20
186.7671450706077962
 30
0.0
 40
4.6411962470947357
 50
224.5512271350162905
 51
226.5481313624513859
  0
LINE
  5
2056A
  8
0
 10
3454.5799691638289914
 20
183.3978576650185914
 30
0.0
 11
3454.6139141297508104
 21
183.3660201942522008
 31
0.0
  0
LINE
  5
2056B
  8
0
 10
3454.5799691638289914
 20
183.3978576650183072
 30
0.0
 11
3454.5552251137569328
 21
183.3501825613352025
 31
0.0
  0
ARC
  5
2056C
  8
0
 10
3454.5727328275661421
 20
183.3410958113609013
 30
0.0
 40
0.0197253407556411
 50
152.5700518860784882
 51
229.0573585406056054
  0
LINE
  5
2056D
  8
0
 10
3454.5598067493569943
 20
183.3261959600181115
 30
0.0
 11
3454.6748641965118622
 21
183.2563391008197868
 31
0.0
  0
ARC
  5
2056E
  8
0
 10
3454.6871995181318198
 20
183.2740099749140086
 30
0.0
 40
0.021550404885302
 50
235.0826667619371904
 51
320.6840241626543957
  0
LINE
  5
2056F
  8
0
 10
3454.7038722813849745
 20
183.2603557112489057
 30
0.0
 11
3454.7204247256599956
 21
183.2834681496215978
 31
0.0
  0
ARC
  5
20570
  8
0
 10
3454.7200608463131175
 20
183.2837118871536859
 30
0.0
 40
0.000438759749946
 50
325.8376509739783842
 51
4.7083558818020208
  0
ARC
  5
20571
  8
0
 10
3454.7187811612261612
 20
183.2836064899979931
 30
0.0
 40
0.0017227778513397
 50
4.7083558818198741
 51
31.9448147836927596
  0
ARC
  5
20572
  8
0
 10
3454.6702610580628061
 20
183.2533527056889966
 30
0.0
 40
0.0589022486068381
 50
31.9448147836913812
 51
48.95597941399582
  0
ARC
  5
20573
  8
0
 10
3454.065476416970796
 20
182.6626260504451977
 30
0.0
 40
0.9041351495298054
 50
44.6275778965124772
 51
50.1515693416196271
  0
ARC
  5
20574
  8
0
 10
3454.5019947833220613
 20
183.1918977401689972
 30
0.0
 40
0.2181246437456469
 50
49.1002940906879104
 51
56.9870323837889927
  0
ARC
  5
20575
  8
0
 10
3454.6180024152949954
 20
183.3698460640831058
 30
0.0
 40
0.0057115978679174
 50
60.2641586503240703
 51
78.1902911686467519
  0
ARC
  5
20576
  8
0
 10
3454.6190650340681714
 20
183.374928230968095
 30
0.0
 40
0.000519529021525
 50
78.1902911690452953
 51
140.5810708387321029
  0
LINE
  5
20577
  8
0
 10
3454.618663685518186
 20
183.3752581245045121
 30
0.0
 11
3454.5940632355950584
 21
183.3274100200281964
 31
0.0
  0
ARC
  5
20578
  8
0
 10
3454.6124098942032106
 20
183.3182158598353055
 30
0.0
 40
0.0205215122190159
 50
153.3829293294236891
 51
235.0372160409469018
  0
LINE
  5
20579
  8
0
 10
3454.7427484028821709
 20
183.3117774705258967
 30
0.0
 11
3454.719334909679219
 21
183.2648636883170923
 31
0.0
  0
ARC
  5
2057A
  8
0
 10
3454.7373225355318027
 20
183.2558865149611051
 30
0.0
 40
0.0201033411482146
 50
153.4773659791551097
 51
232.1507609444647926
  0
ARC
  5
2057B
  8
0
 10
3454.9682306605641315
 20
183.5570509517426103
 30
0.0
 40
0.399600740418618
 50
232.5033012453494052
 51
245.6586487203616969
  0
ARC
  5
2057C
  8
0
 10
3454.8132032526659714
 20
183.2111920237107086
 30
0.0
 40
0.0206300618374572
 50
242.0263830436774128
 51
324.1927937617014095
  0
LINE
  5
2057D
  8
0
 10
3454.8299340314861183
 20
183.1991222063346072
 30
0.0
 11
3454.8467391523868173
 21
183.2231823468345908
 31
0.0
  0
ARC
  5
2057E
  8
0
 10
3454.8451500091300659
 20
183.2244797883952003
 30
0.0
 40
0.0020515191680834
 50
320.7703935453575923
 51
10.3348338100050299
  0
ARC
  5
2057F
  8
0
 10
3454.7059270729519085
 20
183.1376682189477947
 30
0.0
 40
0.1659799791681932
 50
31.6845183501529704
 51
50.6868288913843514
  0
ARC
  5
20580
  8
0
 10
3454.5819904310660604
 20
183.0208905846560015
 30
0.0
 40
0.3355669717468924
 50
46.9442742502717181
 51
59.5926849430716103
  0
ARC
  5
20581
  8
0
 10
3454.7424889983972207
 20
183.2935561561928068
 30
0.0
 40
0.0191759054499212
 50
60.82925932209438
 51
84.3040772243305838
  0
ARC
  5
20582
  8
0
 10
3454.7442803850372002
 20
183.3108501231724858
 30
0.0
 40
0.0017907534780714
 50
86.4205392417614462
 51
148.7939918084472879
  0
ARC
  5
20583
  8
0
 10
3454.7422057887670235
 20
183.206278856091302
 30
0.0
 40
0.0211126015922903
 50
59.134319366541078
 51
72.6892825710311001
  0
ARC
  5
20584
  8
0
 10
3454.94133319647608
 20
183.5394492318586117
 30
0.0
 40
0.3670294133841568
 50
239.1343193665410922
 51
241.6302785501216022
  0
ARC
  5
20585
  8
0
 10
3454.7176168983919524
 20
183.1251714674037032
 30
0.0
 40
0.1037943839652021
 50
54.1286299731564498
 51
61.6302785501216235
  0
ARC
  5
20586
  8
0
 10
3454.7443679895868627
 20
183.1621655543492864
 30
0.0
 40
0.0581415269997667
 50
49.3511134977380408
 51
54.128629973157409
  0
ARC
  5
20587
  8
0
 10
3454.7580880322238954
 20
183.2346597799918015
 30
0.0
 40
0.0126414596830024
 50
220.5873356399389991
 51
239.7282663535951883
  0
ARC
  5
20588
  8
0
 10
3454.9148683099451773
 20
183.469218786426012
 30
0.0
 40
0.2947502007541409
 50
236.3905270977085138
 51
239.709901256273497
  0
ARC
  5
20589
  8
0
 10
3454.8758894037691789
 20
183.3972484022380058
 30
0.0
 40
0.2129612960618453
 50
238.9988837138444921
 51
243.30081476224521
  0
ARC
  5
2058A
  8
0
 10
3454.837719866498901
 20
183.367663003852698
 30
0.0
 40
0.1706537331508444
 50
250.3040121319494062
 51
251.0291867962143897
  0
LINE
  5
2058B
  8
0
 10
3454.9460695898637823
 20
183.2144606589010891
 30
0.0
 11
3454.9226560966608304
 21
183.1675468766921995
 31
0.0
  0
ARC
  5
2058C
  8
0
 10
3454.9406437225147783
 20
183.1585697033362976
 30
0.0
 40
0.0201033411482146
 50
153.4773659791551097
 51
232.1507609444647926
  0
ARC
  5
2058D
  8
0
 10
3455.1715518475461977
 20
183.4597341401178028
 30
0.0
 40
0.399600740418618
 50
232.5033012453494052
 51
245.6586487203616969
  0
ARC
  5
2058E
  8
0
 10
3455.0165244396480375
 20
183.113875212085901
 30
0.0
 40
0.0206300618374572
 50
242.0263830436774128
 51
324.1927937617014095
  0
LINE
  5
2058F
  8
0
 10
3455.0332552184681845
 20
183.1018053947097997
 30
0.0
 11
3455.0500603393697929
 21
183.1258655352098117
 31
0.0
  0
ARC
  5
20590
  8
0
 10
3455.0484711961130415
 20
183.1271629767703075
 30
0.0
 40
0.0020515191680834
 50
320.7703935453575923
 51
10.3348338100050299
  0
ARC
  5
20591
  8
0
 10
3454.9092482599339746
 20
183.0403514073229871
 30
0.0
 40
0.1659799791681932
 50
31.6845183501529704
 51
50.6868288913843514
  0
ARC
  5
20592
  8
0
 10
3454.7853116180481265
 20
182.9235737730311939
 30
0.0
 40
0.3355669717468924
 50
46.9442742502717181
 51
59.5926849430716103
  0
ARC
  5
20593
  8
0
 10
3454.9458101853788321
 20
183.1962393445679993
 30
0.0
 40
0.0191759054499212
 50
60.82925932209438
 51
84.3040772243305838
  0
ARC
  5
20594
  8
0
 10
3454.9476015720188116
 20
183.2135333115477067
 30
0.0
 40
0.0017907534780714
 50
86.4205392417614462
 51
148.7939918084472879
  0
ARC
  5
20595
  8
0
 10
3454.9455269757499991
 20
183.1089620444664945
 30
0.0
 40
0.0211126015922903
 50
59.134319366541078
 51
72.6892825710311001
  0
ARC
  5
20596
  8
0
 10
3455.1446543834590557
 20
183.4421324202338042
 30
0.0
 40
0.3670294133841568
 50
239.1343193665410922
 51
241.6302785501216022
  0
ARC
  5
20597
  8
0
 10
3454.9209380853740186
 20
183.0278546557788957
 30
0.0
 40
0.1037943839652021
 50
54.1286299731564498
 51
61.6302785501216235
  0
ARC
  5
20598
  8
0
 10
3454.9476891765698383
 20
183.0648487427245072
 30
0.0
 40
0.0581415269997667
 50
49.3511134977380408
 51
54.128629973157409
  0
ARC
  5
20599
  8
0
 10
3454.9614092192068711
 20
183.137342968366994
 30
0.0
 40
0.0126414596830024
 50
220.5873356399389991
 51
239.7282663535951883
  0
ARC
  5
2059A
  8
0
 10
3455.1181894969281529
 20
183.3719019748010908
 30
0.0
 40
0.2947502007541409
 50
236.3905270977085138
 51
239.709901256273497
  0
ARC
  5
2059B
  8
0
 10
3455.0792105907521545
 20
183.2999315906131983
 30
0.0
 40
0.2129612960618453
 50
238.9988837138444921
 51
243.30081476224521
  0
ARC
  5
2059C
  8
0
 10
3455.0410410534818766
 20
183.2703461922278052
 30
0.0
 40
0.1706537331508444
 50
250.3040121319494062
 51
251.0291867962143897
  0
LINE
  5
2059D
  8
0
 10
3455.2147681545579871
 20
183.0890823354367001
 30
0.0
 11
3455.1913546613550352
 21
183.0421685532278104
 31
0.0
  0
ARC
  5
2059E
  8
0
 10
3455.2093422872089832
 20
183.0331913798719086
 30
0.0
 40
0.0201033411482146
 50
153.4773659791551097
 51
232.1507609444647926
  0
ARC
  5
2059F
  8
0
 10
3455.4402504122408573
 20
183.3343558166533001
 30
0.0
 40
0.399600740418618
 50
232.5033012453494052
 51
245.6586487203616969
  0
ARC
  5
205A0
  8
0
 10
3455.2852230043417876
 20
182.9884968886213983
 30
0.0
 40
0.0206300618374572
 50
242.0263830436774128
 51
324.1927937617014095
  0
LINE
  5
205A1
  8
0
 10
3455.301953783162844
 20
182.9764270712454106
 30
0.0
 11
3455.3187589040649073
 21
183.000487211745309
 31
0.0
  0
ARC
  5
205A2
  8
0
 10
3455.3171697608067916
 20
183.0017846533058901
 30
0.0
 40
0.0020515191680834
 50
320.7703935453575923
 51
10.3348338100050299
  0
ARC
  5
205A3
  8
0
 10
3455.177946824629089
 20
182.9149730838585981
 30
0.0
 40
0.1659799791681932
 50
31.6845183501529704
 51
50.6868288913843514
  0
ARC
  5
205A4
  8
0
 10
3455.0540101827418766
 20
182.7981954495666912
 30
0.0
 40
0.3355669717468924
 50
46.9442742502717181
 51
59.5926849430716103
  0
ARC
  5
205A5
  8
0
 10
3455.2145087500730369
 20
183.0708610211034966
 30
0.0
 40
0.0191759054499212
 50
60.82925932209438
 51
84.3040772243305838
  0
ARC
  5
205A6
  8
0
 10
3455.2163001367139259
 20
183.088154988083204
 30
0.0
 40
0.0017907534780714
 50
86.4205392417614462
 51
148.7939918084472879
  0
ARC
  5
205A7
  8
0
 10
3455.2142255404428397
 20
182.9835837210021054
 30
0.0
 40
0.0211126015922903
 50
59.134319366541078
 51
72.6892825710311001
  0
ARC
  5
205A8
  8
0
 10
3455.4133529481518963
 20
183.3167540967693867
 30
0.0
 40
0.3670294133841568
 50
239.1343193665410922
 51
241.6302785501216022
  0
ARC
  5
205A9
  8
0
 10
3455.1896366500682234
 20
182.9024763323143929
 30
0.0
 40
0.1037943839652021
 50
54.1286299731564498
 51
61.6302785501216235
  0
ARC
  5
205AA
  8
0
 10
3455.2163877412640431
 20
182.9394704192600898
 30
0.0
 40
0.0581415269997667
 50
49.3511134977380408
 51
54.128629973157409
  0
ARC
  5
205AB
  8
0
 10
3455.2301077839010759
 20
183.0119646449024913
 30
0.0
 40
0.0126414596830024
 50
220.5873356399389991
 51
239.7282663535951883
  0
ARC
  5
205AC
  8
0
 10
3455.386888061621903
 20
183.2465236513367017
 30
0.0
 40
0.2947502007541409
 50
236.3905270977085138
 51
239.709901256273497
  0
ARC
  5
205AD
  8
0
 10
3455.3479091554468141
 20
183.1745532671488093
 30
0.0
 40
0.2129612960618453
 50
238.9988837138444921
 51
243.30081476224521
  0
ARC
  5
205AE
  8
0
 10
3455.3097396181760814
 20
183.1449678687633877
 30
0.0
 40
0.1706537331508444
 50
250.3040121319494062
 51
251.0291867962143897
  0
LINE
  5
205AF
  8
0
 10
3455.0722369372638241
 20
183.0820779180376974
 30
0.0
 11
3455.0488234440608721
 21
183.035164135828893
 31
0.0
  0
ARC
  5
205B0
  8
0
 10
3455.0668110699161844
 20
183.0261869624729911
 30
0.0
 40
0.0201033411482146
 50
153.4773659791551097
 51
232.1507609444647926
  0
ARC
  5
205B1
  8
0
 10
3455.2977191949471489
 20
183.3273513992542973
 30
0.0
 40
0.399600740418618
 50
231.3368675026428036
 51
245.6586487203616969
  0
ARC
  5
205B2
  8
0
 10
3455.1426917870480793
 20
182.9814924712225093
 30
0.0
 40
0.0206300618374572
 50
242.0263830436774128
 51
324.1927937617014095
  0
LINE
  5
205B3
  8
0
 10
3455.1594225658691357
 20
182.9694226538464932
 30
0.0
 11
3455.1762276867711989
 21
182.9934827943463915
 31
0.0
  0
ARC
  5
205B4
  8
0
 10
3455.1746385435130833
 20
182.994780235907001
 30
0.0
 40
0.0020515191680834
 50
320.7703935453575923
 51
10.3348338100050299
  0
ARC
  5
205B5
  8
0
 10
3455.0354156073349259
 20
182.9079686664597091
 30
0.0
 40
0.1659799791681932
 50
31.6845183501529704
 51
50.6868288913843514
  0
ARC
  5
205B6
  8
0
 10
3454.9114789654481683
 20
182.7911910321678022
 30
0.0
 40
0.3355669717468924
 50
46.9442742502717181
 51
59.5926849430716103
  0
ARC
  5
205B7
  8
0
 10
3455.0719775327788739
 20
183.0638566037046076
 30
0.0
 40
0.0191759054499212
 50
60.82925932209438
 51
84.3040772243305838
  0
ARC
  5
205B8
  8
0
 10
3455.0737689194188533
 20
183.0811505706842865
 30
0.0
 40
0.0017907534780714
 50
86.4205392417614462
 51
148.7939918084472879
  0
ARC
  5
205B9
  8
0
 10
3455.0716943231500409
 20
182.9765793036031027
 30
0.0
 40
0.0211126015922903
 50
59.134319366541078
 51
72.6892825710311001
  0
ARC
  5
205BA
  8
0
 10
3455.2708217308590974
 20
183.3097496793704977
 30
0.0
 40
0.3670294133841568
 50
239.1343193665410922
 51
241.6302785501216022
  0
ARC
  5
205BB
  8
0
 10
3455.0471054327740603
 20
182.8954719149155039
 30
0.0
 40
0.1037943839652021
 50
54.1286299731564498
 51
61.6302785501216235
  0
ARC
  5
205BC
  8
0
 10
3455.0738565239698801
 20
182.9324660018612008
 30
0.0
 40
0.0581415269997667
 50
49.3511134977380408
 51
54.128629973157409
  0
ARC
  5
205BD
  8
0
 10
3455.0875765666069128
 20
183.0049602275036023
 30
0.0
 40
0.0126414596830024
 50
220.5873356399389991
 51
239.7282663535951883
  0
ARC
  5
205BE
  8
0
 10
3455.2443568443281947
 20
183.2395192339378127
 30
0.0
 40
0.2947502007541409
 50
236.3905270977085138
 51
239.709901256273497
  0
ARC
  5
205BF
  8
0
 10
3455.2053779381531058
 20
183.1675488497498918
 30
0.0
 40
0.2129612960618453
 50
238.9988837138444921
 51
243.30081476224521
  0
ARC
  5
205C0
  8
0
 10
3455.1672084008819184
 20
183.1379634513644987
 30
0.0
 40
0.1706537331508444
 50
250.3040121319494062
 51
251.0291867962143897
  0
LINE
  5
205C1
  8
0
 10
3455.2922128342679571
 20
182.96908705273799
 30
0.0
 11
3455.2728632837429359
 21
182.9303162212640075
 31
0.0
  0
ARC
  5
205C2
  8
0
 10
3455.2908509095968839
 20
182.9213390479081056
 30
0.0
 40
0.0201033411482146
 50
153.4773659791551097
 51
199.1092195230748985
  0
ARC
  5
205C3
  8
0
 10
3455.5217590346278485
 20
183.2225034846894971
 30
0.0
 40
0.399600740418618
 50
234.6716870916206972
 51
245.6586487203616969
  0
ARC
  5
205C4
  8
0
 10
3455.366731626730143
 20
182.876644556657709
 30
0.0
 40
0.0206300618374572
 50
242.0263830436774128
 51
324.1927937617014095
  0
LINE
  5
205C5
  8
0
 10
3455.3834624055498352
 20
182.8645747392816077
 30
0.0
 11
3455.4002675264518984
 21
182.8886348797815913
 31
0.0
  0
ARC
  5
205C6
  8
0
 10
3455.3986783831937828
 20
182.8899323213420871
 30
0.0
 40
0.0020515191680834
 50
320.7703935453575923
 51
10.3348338100050299
  0
ARC
  5
205C7
  8
0
 10
3455.2594554470160801
 20
182.8031207518949088
 30
0.0
 40
0.1659799791681932
 50
31.6845183501529704
 51
50.6868288913843514
  0
ARC
  5
205C8
  8
0
 10
3455.1355188051297773
 20
182.6863431176028882
 30
0.0
 40
0.3355669717468924
 50
46.9442742502717181
 51
59.5926849430716103
  0
ARC
  5
205C9
  8
0
 10
3455.2960173724609376
 20
182.9590086891398073
 30
0.0
 40
0.0191759054499212
 50
60.82925932209438
 51
70.5135026350178435
  0
ARC
  5
205CA
  8
0
 10
3455.2957341628311951
 20
182.8717313890383025
 30
0.0
 40
0.0211126015922903
 50
59.134319366541078
 51
72.6892825710311001
  0
ARC
  5
205CB
  8
0
 10
3455.4948615705411612
 20
183.2049017648056122
 30
0.0
 40
0.3670294133841568
 50
239.1343193665410922
 51
241.6302785501216022
  0
ARC
  5
205CC
  8
0
 10
3455.2711452724561241
 20
182.7906240003507037
 30
0.0
 40
0.1037943839652021
 50
54.1286299731564498
 51
61.6302785501216235
  0
ARC
  5
205CD
  8
0
 10
3455.2978963636519438
 20
182.8276180872962868
 30
0.0
 40
0.0581415269997667
 50
49.3511134977380408
 51
54.128629973157409
  0
ARC
  5
205CE
  8
0
 10
3455.3116164062880671
 20
182.900112312938802
 30
0.0
 40
0.0126414596830024
 50
220.5873356399389991
 51
239.7282663535951883
  0
ARC
  5
205CF
  8
0
 10
3455.4683966840098037
 20
183.1346713193728988
 30
0.0
 40
0.2947502007541409
 50
236.3905270977085138
 51
239.709901256273497
  0
ARC
  5
205D0
  8
0
 10
3455.4294177778328958
 20
183.0627009351850063
 30
0.0
 40
0.2129612960618453
 50
238.9988837138444921
 51
243.30081476224521
  0
ARC
  5
205D1
  8
0
 10
3455.3912482405630726
 20
183.0331155367996985
 30
0.0
 40
0.1706537331508444
 50
250.3040121319494062
 51
251.0291867962143897
  0
LINE
  5
205D2
  8
0
 10
3455.2028752602391251
 20
182.9609787762420012
 30
0.0
 11
3455.1794617670361731
 21
182.9140649940331969
 31
0.0
  0
ARC
  5
205D3
  8
0
 10
3455.1974493928901211
 20
182.905087820677295
 30
0.0
 40
0.0201033411482146
 50
153.4773659791551097
 51
232.1507609444647926
  0
ARC
  5
205D4
  8
0
 10
3455.4283575179210857
 20
183.2062522574586865
 30
0.0
 40
0.399600740418618
 50
232.5033012453494052
 51
245.6586487203616969
  0
LINE
  5
205D5
  8
0
 10
3455.2900608888430725
 20
182.848323512050797
 30
0.0
 11
3455.3068660097451357
 21
182.8723836525506954
 31
0.0
  0
ARC
  5
205D6
  8
0
 10
3455.3052768664879295
 20
182.8736810941113049
 30
0.0
 40
0.0020515191680834
 50
320.7703935453575923
 51
10.3348338100050299
  0
ARC
  5
205D7
  8
0
 10
3455.1660539303102269
 20
182.7868695246640129
 30
0.0
 40
0.1659799791681932
 50
31.6845183501529704
 51
50.6868288913843514
  0
ARC
  5
205D8
  8
0
 10
3455.0421172884230145
 20
182.670091890372106
 30
0.0
 40
0.3355669717468924
 50
46.9442742502717181
 51
59.5926849430716103
  0
ARC
  5
205D9
  8
0
 10
3455.2026158557550843
 20
182.9427574619089114
 30
0.0
 40
0.0191759054499212
 50
60.82925932209438
 51
84.3040772243305838
  0
ARC
  5
205DA
  8
0
 10
3455.2044072423941543
 20
182.9600514288885904
 30
0.0
 40
0.0017907534780714
 50
86.4205392417614462
 51
148.7939918084472879
  0
ARC
  5
205DB
  8
0
 10
3455.2023326461248871
 20
182.8554801618074919
 30
0.0
 40
0.0211126015922903
 50
59.134319366541078
 51
72.6892825710311001
  0
ARC
  5
205DC
  8
0
 10
3455.4014600538339437
 20
183.1886505375748015
 30
0.0
 40
0.3670294133841568
 50
239.1343193665410922
 51
241.6302785501216022
  0
ARC
  5
205DD
  8
0
 10
3455.177743755749816
 20
182.7743727731198078
 30
0.0
 40
0.1037943839652021
 50
54.1286299731564498
 51
61.6302785501216235
  0
ARC
  5
205DE
  8
0
 10
3455.2044948469451811
 20
182.8113668600655046
 30
0.0
 40
0.0581415269997667
 50
49.3511134977380408
 51
54.128629973157409
  0
ARC
  5
205DF
  8
0
 10
3455.2182148895822138
 20
182.8838610857079061
 30
0.0
 40
0.0126414596830024
 50
220.5873356399389991
 51
239.7282663535951883
  0
ARC
  5
205E0
  8
0
 10
3455.3749951673030409
 20
183.1184200921420882
 30
0.0
 40
0.2947502007541409
 50
236.3905270977085138
 51
239.709901256273497
  0
ARC
  5
205E1
  8
0
 10
3455.3360162611270425
 20
183.0464497079541957
 30
0.0
 40
0.2129612960618453
 50
238.9988837138444921
 51
243.30081476224521
  0
ARC
  5
205E2
  8
0
 10
3455.2978467238572193
 20
183.0168643095688026
 30
0.0
 40
0.1706537331508444
 50
250.3040121319494062
 51
251.0291867962143897
  0
LINE
  5
205E3
  8
0
 10
3454.9029936840679511
 20
183.1635679977273981
 30
0.0
 11
3454.8795801908649992
 21
183.1166542155185084
 31
0.0
  0
ARC
  5
205E4
  8
0
 10
3454.8975678167189471
 20
183.1076770421626065
 30
0.0
 40
0.0201033411482146
 50
153.4773659791551097
 51
232.1507609444647926
  0
ARC
  5
205E5
  8
0
 10
3455.1284759417499117
 20
183.4088414789441117
 30
0.0
 40
0.399600740418618
 50
232.5033012453494052
 51
245.6586487203616969
  0
ARC
  5
205E6
  8
0
 10
3454.9734485338508421
 20
183.0629825509122099
 30
0.0
 40
0.0206300618374572
 50
242.0263830436774128
 51
324.1927937617014095
  0
LINE
  5
205E7
  8
0
 10
3454.9901793126718985
 20
183.0509127335361086
 30
0.0
 11
3455.0069844335739617
 21
183.0749728740360922
 31
0.0
  0
ARC
  5
205E8
  8
0
 10
3455.0053952903158461
 20
183.0762703155967017
 30
0.0
 40
0.0020515191680834
 50
320.7703935453575923
 51
10.3348338100050299
  0
ARC
  5
205E9
  8
0
 10
3454.8661723541381434
 20
182.9894587461494098
 30
0.0
 40
0.1659799791681932
 50
31.6845183501529704
 51
50.6868288913843514
  0
ARC
  5
205EA
  8
0
 10
3454.7422357122509311
 20
182.8726811118575029
 30
0.0
 40
0.3355669717468924
 50
46.9442742502717181
 51
59.5926849430716103
  0
ARC
  5
205EB
  8
0
 10
3454.9027342795830009
 20
183.1453466833943082
 30
0.0
 40
0.0191759054499212
 50
60.82925932209438
 51
84.3040772243305838
  0
ARC
  5
205EC
  8
0
 10
3454.9045256662220709
 20
183.1626406503739872
 30
0.0
 40
0.0017907534780714
 50
86.4205392417614462
 51
148.7939918084472879
  0
ARC
  5
205ED
  8
0
 10
3454.9024510699528037
 20
183.0580693832928034
 30
0.0
 40
0.0211126015922903
 50
59.134319366541078
 51
72.6892825710311001
  0
ARC
  5
205EE
  8
0
 10
3455.1015784776618602
 20
183.3912397590601131
 30
0.0
 40
0.3670294133841568
 50
239.1343193665410922
 51
241.6302785501216022
  0
ARC
  5
205EF
  8
0
 10
3454.8778621795781874
 20
182.9769619946052046
 30
0.0
 40
0.1037943839652021
 50
54.1286299731564498
 51
61.6302785501216235
  0
ARC
  5
205F0
  8
0
 10
3454.9046132707730976
 20
183.0139560815507878
 30
0.0
 40
0.0581415269997667
 50
49.3511134977380408
 51
54.128629973157409
  0
ARC
  5
205F1
  8
0
 10
3454.9183333134101304
 20
183.0864503071933029
 30
0.0
 40
0.0126414596830024
 50
220.5873356399389991
 51
239.7282663535951883
  0
ARC
  5
205F2
  8
0
 10
3455.0751135911309575
 20
183.3210093136273997
 30
0.0
 40
0.2947502007541409
 50
236.3905270977085138
 51
239.709901256273497
  0
ARC
  5
205F3
  8
0
 10
3455.0361346849558686
 20
183.2490389294395072
 30
0.0
 40
0.2129612960618453
 50
238.9988837138444921
 51
243.30081476224521
  0
ARC
  5
205F4
  8
0
 10
3454.9979651476851359
 20
183.2194535310541994
 30
0.0
 40
0.1706537331508444
 50
250.3040121319494062
 51
251.0291867962143897
  0
LINE
  5
205F5
  8
0
 10
3454.7560066126870879
 20
183.218463141498404
 30
0.0
 11
3454.7405976415079749
 21
183.1847579992370072
 31
0.0
  0
ARC
  5
205F6
  8
0
 10
3454.7586127643407963
 20
183.1765514822409102
 30
0.0
 40
0.0198005588954419
 50
155.5348895545076005
 51
238.6329335758206014
  0
LINE
  5
205F7
  8
0
 10
3454.7483061987031761
 20
183.1596447724095924
 30
0.0
 11
3454.8594819026729965
 21
183.0972447821091009
 31
0.0
  0
ARC
  5
205F8
  8
0
 10
3454.8692990685299264
 20
183.1145544027174878
 30
0.0
 40
0.0198997414819123
 50
240.4402238316014007
 51
302.7090888807193778
  0
ARC
  5
205F9
  8
0
 10
3453.9216584328519275
 20
182.0281143354764026
 30
0.0
 40
1.4753698709135801
 50
48.9125283406835081
 51
52.2323092388388019
  0
LINE
  5
205FA
  8
0
 10
3454.9683474870312239
 20
183.0429930843673105
 30
0.0
 11
3454.956721471018227
 21
183.016582544443196
 31
0.0
  0
ARC
  5
205FB
  8
0
 10
3454.9747469629278385
 20
183.0086476571530056
 30
0.0
 40
0.0196946895102852
 50
156.2407306437366117
 51
246.0998877163509064
  0
LINE
  5
205FC
  8
0
 10
3454.966767789881942
 20
182.9906417250080892
 30
0.0
 11
3455.0458411422778227
 21
182.9487337591843925
 31
0.0
  0
ARC
  5
205FD
  8
0
 10
3455.0542794790148946
 20
182.9663625252941017
 30
0.0
 40
0.0195442810416991
 50
244.4210255452721015
 51
327.9884822280109233
  0
LINE
  5
205FE
  8
0
 10
3455.0708518870342232
 20
182.9560023026193107
 30
0.0
 11
3455.0897054359838876
 21
182.9861607958885088
 31
0.0
  0
ARC
  5
205FF
  8
0
 10
3455.0617844609428175
 20
182.9693870106563054
 30
0.0
 40
0.0197566940985952
 50
278.5998826481214792
 51
327.8337052422727993
  0
LINE
  5
20600
  8
0
 10
3455.0785086307860183
 20
182.9588689735419109
 30
0.0
 11
3455.0909153356828938
 21
182.9785962132959014
 31
0.0
  0
ARC
  5
20601
  8
0
 10
3457.4375475512938465
 20
186.294402620431498
 30
0.0
 40
4.0621769347700596
 50
234.6413975903317919
 51
236.2514848430897985
  0
ARC
  5
20602
  8
0
 10
3454.2019890675951501
 20
181.8875501380233004
 30
0.0
 40
1.411894854867854
 50
53.1487575913963965
 51
55.8781022302507608
  0
LINE
  5
20603
  8
0
 10
3455.1731943158879403
 20
182.9218685769139938
 30
0.0
 11
3455.1644645812889394
 21
182.9005897404227028
 31
0.0
  0
LINE
  5
20604
  8
0
 10
3455.1644645812889394
 20
182.9005897404227028
 30
0.0
 11
3455.1551385086067967
 21
182.8778561003065875
 31
0.0
  0
ARC
  5
20605
  8
0
 10
3455.1734125571501863
 20
182.8703594959767997
 30
0.0
 40
0.0197519600707279
 50
157.694979062608212
 51
246.7060301203665915
  0
LINE
  5
20606
  8
0
 10
3455.1656016674901366
 20
182.8522175575643018
 30
0.0
 11
3455.2458316380880206
 21
182.8123005556824978
 31
0.0
  0
ARC
  5
20607
  8
0
 10
3455.2533490477230771
 20
182.8305083698118949
 30
0.0
 40
0.0196986279468885
 50
247.5658741214537031
 51
329.243804717298417
  0
LINE
  5
20608
  8
0
 10
3455.2702770857367796
 20
182.820434767082304
 30
0.0
 11
3455.2837406775920499
 21
182.843059462620289
 31
0.0
  0
ARC
  5
20609
  8
0
 10
3460.6686261747368007
 20
191.3676899729842944
 30
0.0
 40
10.0777685705776694
 50
237.7325039286970139
 51
238.0052494699162935
  0
ARC
  5
2060A
  8
0
 10
3455.2728155849849827
 20
182.8626026941018097
 30
0.0
 40
0.0223896303050819
 50
245.8440722888599907
 51
320.3751045163909907
  0
ARC
  5
2060B
  8
0
 10
3455.5256541894800648
 20
182.9308813443778945
 30
0.0
 40
0.0065991633149204
 50
121.3986842366465027
 51
155.9011740073460999
  0
ARC
  5
2060C
  8
0
 10
3455.5286830738577919
 20
182.9259189789505058
 30
0.0
 40
0.0124128722182428
 50
87.955313848215269
 51
121.3986842366481937
  0
ARC
  5
2060D
  8
0
 10
3455.5261135744440253
 20
182.8539475570001969
 30
0.0
 40
0.0844301472624744
 50
70.1709749870832695
 51
87.955313848215269
  0
ARC
  5
2060E
  8
0
 10
3455.4822353622921582
 20
182.7322645805026013
 30
0.0
 40
0.2137825506841652
 50
57.1714925202292719
 51
70.1709749870832695
  0
ARC
  5
2060F
  8
0
 10
3455.4966182865450719
 20
182.7545581424012084
 30
0.0
 40
0.1872519756395322
 50
45.6742713107501572
 51
57.1714925202292719
  0
ARC
  5
20610
  8
0
 10
3455.5961664580790966
 20
182.8564773426818988
 30
0.0
 40
0.0447831655735924
 50
24.2842874351804703
 51
45.6742713107513012
  0
ARC
  5
20611
  8
0
 10
3455.6284510642990426
 20
182.8710437440898886
 30
0.0
 40
0.0093645850154597
 50
335.9700727278233785
 51
24.2842874351789888
  0
LINE
  5
20612
  8
0
 10
3455.6370040477240764
 20
182.8672303562219099
 30
0.0
 11
3455.6180702769211166
 21
182.8353490445678062
 31
0.0
  0
ARC
  5
20613
  8
0
 10
3455.6006150702919513
 20
182.8457305501237897
 30
0.0
 40
0.0203091086978401
 50
292.3274090327333283
 51
329.2578824793623085
  0
ARC
  5
20614
  8
0
 10
3455.5994783702008135
 20
182.8484983391890069
 30
0.0
 40
0.0233012222322879
 50
254.949816924100702
 51
292.3274090327327031
  0
ARC
  5
20615
  8
0
 10
3455.686179077997167
 20
183.1173489859434937
 30
0.0
 40
0.3057599237316503
 50
235.1811905338327051
 51
252.3412838300893952
  0
ARC
  5
20616
  8
0
 10
3455.5249360773709668
 20
182.8853462790710012
 30
0.0
 40
0.0232277277975665
 50
161.4943592283657949
 51
234.9461583522480908
  0
LINE
  5
20617
  8
0
 10
3455.5029093993530296
 20
182.8927187138218926
 30
0.0
 11
3455.519657544103211
 21
182.9336361947702869
 31
0.0
  0
ARC
  5
20618
  8
0
 10
3455.5352136382070967
 20
182.856255718033708
 30
0.0
 40
0.0005558525089569
 50
95.7571775033436836
 51
132.3646180360618132
  0
ARC
  5
20619
  8
0
 10
3455.5349848050900619
 20
182.856506633275302
 30
0.0
 40
0.0002162600268667
 50
132.3646180372940933
 51
201.9991247398598091
  0
ARC
  5
2061A
  8
0
 10
3455.536833218981883
 20
182.8572534081181118
 30
0.0
 40
0.0022098263243829
 50
201.9991247400060956
 51
234.0793382665061131
  0
ARC
  5
2061B
  8
0
 10
3455.5573019291491619
 20
182.8812949719140022
 30
0.0
 40
0.0337782380829639
 50
229.882755768484202
 51
238.9969857741079977
  0
ARC
  5
2061C
  8
0
 10
3455.6174562475339371
 20
182.9793336818873968
 30
0.0
 40
0.1487994289860933
 50
238.5878259387756088
 51
243.9631513011568131
  0
ARC
  5
2061D
  8
0
 10
3455.613607711910845
 20
182.9687664106301099
 30
0.0
 40
0.1376203620089869
 50
243.4716489385504019
 51
249.0337419933198078
  0
ARC
  5
2061E
  8
0
 10
3455.5733708865918743
 20
182.8625847022520077
 30
0.0
 40
0.0240750214669978
 50
248.0319054916334096
 51
259.7159836568691844
  0
ARC
  5
2061F
  8
0
 10
3455.5349386631642119
 20
182.8467342099781945
 30
0.0
 40
0.0100769415401969
 50
66.6905090086751358
 51
88.7534768287766553
  0
ARC
  5
20620
  8
0
 10
3455.4983166941287891
 20
182.7429230441518087
 30
0.0
 40
0.1201372576082277
 50
63.7112283448440593
 51
70.2434107963440226
  0
ARC
  5
20621
  8
0
 10
3455.4826015437251954
 20
182.7073221437208019
 30
0.0
 40
0.1590250916687702
 50
59.2878142734438072
 51
64.3157029701988705
  0
ARC
  5
20622
  8
0
 10
3455.5432844415140607
 20
182.8084457935532896
 30
0.0
 40
0.041095710754583
 50
51.2736843428714266
 51
60.0201844555873691
  0
ARC
  5
20623
  8
0
 10
3455.5657847554448381
 20
182.8364517170055876
 30
0.0
 40
0.0051709664032276
 50
36.090174721852442
 51
51.6385727630738103
  0
ARC
  5
20624
  8
0
 10
3455.5694364114260679
 20
182.8391584506391041
 30
0.0
 40
0.0006267231265204
 50
1.9345151357884851
 51
32.7742657979134933
  0
ARC
  5
20625
  8
0
 10
3455.5698593127299318
 20
182.8391727347627125
 30
0.0
 40
0.0002035806577469
 50
285.0280537138568775
 51
1.9345151373461491
  0
ARC
  5
20626
  8
0
 10
3455.5692570886371868
 20
182.8414158718703106
 30
0.0
 40
0.0025261520648431
 50
265.8170494614839185
 51
285.0280537141254058
  0
ARC
  5
20627
  8
0
 10
3455.5124385007438832
 20
182.6437136775296892
 30
0.0
 40
0.2137825506841652
 50
57.1714925202292719
 51
61.3521101084692333
  0
ARC
  5
20628
  8
0
 10
3455.5268214249967968
 20
182.66600723942841
 30
0.0
 40
0.1872519756395322
 50
45.6742713107501572
 51
57.1714925202292719
  0
ARC
  5
20629
  8
0
 10
3455.6263695965308216
 20
182.7679264397091004
 30
0.0
 40
0.0447831655735924
 50
24.2842874351804703
 51
45.6742713107513012
  0
ARC
  5
2062A
  8
0
 10
3455.6586542027512223
 20
182.7824928411170902
 30
0.0
 40
0.0093645850154597
 50
335.9700727278233785
 51
24.2842874351789888
  0
LINE
  5
2062B
  8
0
 10
3455.6672071861758013
 20
182.7786794532491115
 30
0.0
 11
3455.6482734153728416
 21
182.7467981415950078
 31
0.0
  0
ARC
  5
2062C
  8
0
 10
3455.630818208744131
 20
182.7571796471509913
 30
0.0
 40
0.0203091086978401
 50
292.3274090327333283
 51
329.2578824793623085
  0
ARC
  5
2062D
  8
0
 10
3455.6296815086539027
 20
182.7599474362160947
 30
0.0
 40
0.0233012222322879
 50
254.949816924100702
 51
292.3274090327327031
  0
ARC
  5
2062E
  8
0
 10
3455.7163822164498015
 20
183.02879808297061
 30
0.0
 40
0.3057599237316503
 50
235.1811905338327051
 51
252.3412838300893952
  0
ARC
  5
2062F
  8
0
 10
3455.5551392158231465
 20
182.7967953760982027
 30
0.0
 40
0.0232277277975665
 50
161.4943592283657949
 51
234.9461583522480908
  0
LINE
  5
20630
  8
0
 10
3455.5331125378061188
 20
182.8041678108490942
 30
0.0
 11
3455.5493757912699948
 21
182.8439006513337119
 31
0.0
  0
ARC
  5
20631
  8
0
 10
3455.5654167766588216
 20
182.7677048150607959
 30
0.0
 40
0.0005558525089569
 50
95.7571775033436836
 51
132.3646180360618132
  0
ARC
  5
20632
  8
0
 10
3455.5651879435417868
 20
182.7679557303023898
 30
0.0
 40
0.0002162600268667
 50
132.3646180372940933
 51
201.9991247398598091
  0
ARC
  5
20633
  8
0
 10
3455.5670363574349722
 20
182.7687025051451997
 30
0.0
 40
0.0022098263243829
 50
201.9991247400060956
 51
234.0793382665061131
  0
ARC
  5
20634
  8
0
 10
3455.5875050676008868
 20
182.7927440689410901
 30
0.0
 40
0.0337782380829639
 50
229.882755768484202
 51
238.9969857741079977
  0
ARC
  5
20635
  8
0
 10
3455.6476593859861168
 20
182.8907827789145983
 30
0.0
 40
0.1487994289860933
 50
238.5878259387756088
 51
243.9631513011568131
  0
ARC
  5
20636
  8
0
 10
3455.6438108503630247
 20
182.8802155076571978
 30
0.0
 40
0.1376203620089869
 50
243.4716489385504019
 51
249.0337419933198078
  0
ARC
  5
20637
  8
0
 10
3455.603574025044054
 20
182.7740337992790955
 30
0.0
 40
0.0240750214669978
 50
248.0319054916334096
 51
259.7159836568691844
  0
ARC
  5
20638
  8
0
 10
3455.5651418016159369
 20
182.7581833070053108
 30
0.0
 40
0.0100769415401969
 50
66.6905090086751358
 51
88.7534768287766553
  0
ARC
  5
20639
  8
0
 10
3455.5285198325809688
 20
182.6543721411788965
 30
0.0
 40
0.1201372576082277
 50
63.7112283448440593
 51
70.2434107963440226
  0
ARC
  5
2063A
  8
0
 10
3455.5128046821769203
 20
182.6187712407478898
 30
0.0
 40
0.1590250916687702
 50
59.2878142734438072
 51
64.3157029701988705
  0
ARC
  5
2063B
  8
0
 10
3455.5734875799657857
 20
182.7198948905804912
 30
0.0
 40
0.041095710754583
 50
51.2736843428714266
 51
60.0201844555873691
  0
ARC
  5
2063C
  8
0
 10
3455.5959878938970178
 20
182.7479008140327892
 30
0.0
 40
0.0051709664032276
 50
36.090174721852442
 51
51.6385727630738103
  0
ARC
  5
2063D
  8
0
 10
3455.5996395498777929
 20
182.7506075476663057
 30
0.0
 40
0.0006267231265204
 50
1.9345151357884851
 51
32.7742657979134933
  0
ARC
  5
2063E
  8
0
 10
3455.6000624511821115
 20
182.7506218317898004
 30
0.0
 40
0.0002035806577469
 50
285.0280537138568775
 51
1.9345151373461491
  0
ARC
  5
2063F
  8
0
 10
3455.5994602270898213
 20
182.7528649688973985
 30
0.0
 40
0.0025261520648431
 50
265.8170494614839185
 51
285.0280537141254058
  0
ARC
  5
20640
  8
0
 10
3455.5465938457618904
 20
182.5668984250928872
 30
0.0
 40
0.2137825506841652
 50
57.1714925202292719
 51
60.4837352001333173
  0
ARC
  5
20641
  8
0
 10
3455.5609767700148041
 20
182.589191986991608
 30
0.0
 40
0.1872519756395322
 50
45.6742713107501572
 51
57.1714925202292719
  0
ARC
  5
20642
  8
0
 10
3455.6605249415479193
 20
182.6911111872722984
 30
0.0
 40
0.0447831655735924
 50
24.2842874351804703
 51
45.6742713107513012
  0
ARC
  5
20643
  8
0
 10
3455.6928095477678653
 20
182.7056775886802029
 30
0.0
 40
0.0093645850154597
 50
335.9700727278233785
 51
24.2842874351789888
  0
LINE
  5
20644
  8
0
 10
3455.7013625311938085
 20
182.7018642008123095
 30
0.0
 11
3455.6824287603899393
 21
182.6699828891582058
 31
0.0
  0
ARC
  5
20645
  8
0
 10
3455.6649735537607739
 20
182.6803643947141893
 30
0.0
 40
0.0203091086978401
 50
292.3274090327333283
 51
329.2578824793623085
  0
ARC
  5
20646
  8
0
 10
3455.6638368536710004
 20
182.6831321837792927
 30
0.0
 40
0.0233012222322879
 50
254.949816924100702
 51
292.3274090327327031
  0
ARC
  5
20647
  8
0
 10
3455.7505375614668992
 20
182.9519828305338081
 30
0.0
 40
0.3057599237316503
 50
235.1811905338327051
 51
252.3412838300893952
  0
ARC
  5
20648
  8
0
 10
3455.5892945608411537
 20
182.7199801236614007
 30
0.0
 40
0.0232277277975665
 50
161.4943592283657949
 51
234.9461583522480908
  0
LINE
  5
20649
  8
0
 10
3455.5672678828232165
 20
182.7273525584122069
 30
0.0
 11
3455.57887265272484
 21
182.7557042330865045
 31
0.0
  0
ARC
  5
2064A
  8
0
 10
3455.5995721216768288
 20
182.6908895626239939
 30
0.0
 40
0.0005558525089569
 50
95.7571775033436836
 51
132.3646180360618132
  0
ARC
  5
2064B
  8
0
 10
3455.599343288559794
 20
182.6911404778655879
 30
0.0
 40
0.0002162600268667
 50
132.3646180372940933
 51
201.9991247398598091
  0
ARC
  5
2064C
  8
0
 10
3455.6011917024520699
 20
182.6918872527083977
 30
0.0
 40
0.0022098263243829
 50
201.9991247400060956
 51
234.0793382665061131
  0
ARC
  5
2064D
  8
0
 10
3455.6216604126179845
 20
182.7159288165042881
 30
0.0
 40
0.0337782380829639
 50
229.882755768484202
 51
238.9969857741079977
  0
ARC
  5
2064E
  8
0
 10
3455.6818147310032145
 20
182.8139675264777111
 30
0.0
 40
0.1487994289860933
 50
238.5878259387756088
 51
243.9631513011568131
  0
ARC
  5
2064F
  8
0
 10
3455.6779661953810319
 20
182.8034002552203958
 30
0.0
 40
0.1376203620089869
 50
243.4716489385504019
 51
249.0337419933198078
  0
ARC
  5
20650
  8
0
 10
3455.6377293700611517
 20
182.6972185468422936
 30
0.0
 40
0.0240750214669978
 50
248.0319054916334096
 51
259.7159836568691844
  0
ARC
  5
20651
  8
0
 10
3455.5992971466339441
 20
182.6813680545685088
 30
0.0
 40
0.0100769415401969
 50
66.6905090086751358
 51
88.7534768287766553
  0
ARC
  5
20652
  8
0
 10
3455.5626751775980665
 20
182.5775568887420945
 30
0.0
 40
0.1201372576082277
 50
63.7112283448440593
 51
70.2434107963440226
  0
ARC
  5
20653
  8
0
 10
3455.5469600271949275
 20
182.5419559883110878
 30
0.0
 40
0.1590250916687702
 50
59.2878142734438072
 51
64.3157029701988705
  0
ARC
  5
20654
  8
0
 10
3455.6076429249837929
 20
182.6430796381436892
 30
0.0
 40
0.041095710754583
 50
51.2736843428714266
 51
60.0201844555873691
  0
ARC
  5
20655
  8
0
 10
3455.6301432389141155
 20
182.6710855615959872
 30
0.0
 40
0.0051709664032276
 50
36.090174721852442
 51
51.6385727630738103
  0
ARC
  5
20656
  8
0
 10
3455.6337948948958001
 20
182.6737922952295037
 30
0.0
 40
0.0006267231265204
 50
1.9345151357884851
 51
32.7742657979134933
  0
ARC
  5
20657
  8
0
 10
3455.6342177961992093
 20
182.6738065793529984
 30
0.0
 40
0.0002035806577469
 50
285.0280537138568775
 51
1.9345151373461491
  0
ARC
  5
20658
  8
0
 10
3455.6336155721060095
 20
182.6760497164605965
 30
0.0
 40
0.0025261520648431
 50
265.8170494614839185
 51
285.0280537141254058
  0
ARC
  5
20659
  8
0
 10
3455.3417559699519188
 20
182.8376876240508011
 30
0.0
 40
0.0065991633149204
 50
121.3986842366465027
 51
155.9011740073460999
  0
ARC
  5
2065A
  8
0
 10
3455.3447848543301006
 20
182.8327252586234124
 30
0.0
 40
0.0124128722182428
 50
87.955313848215269
 51
121.3986842366481937
  0
ARC
  5
2065B
  8
0
 10
3455.3422153549149698
 20
182.7607538366731035
 30
0.0
 40
0.0844301472624744
 50
70.1709749870832695
 51
87.955313848215269
  0
ARC
  5
2065C
  8
0
 10
3455.2983371427631027
 20
182.639070860175508
 30
0.0
 40
0.2137825506841652
 50
57.1714925202292719
 51
70.1709749870832695
  0
ARC
  5
2065D
  8
0
 10
3455.3127200670160164
 20
182.6613644220742003
 30
0.0
 40
0.1872519756395322
 50
45.6742713107501572
 51
57.1714925202292719
  0
ARC
  5
2065E
  8
0
 10
3455.4122682385500411
 20
182.7632836223548907
 30
0.0
 40
0.0447831655735924
 50
24.2842874351804703
 51
45.6742713107513012
  0
ARC
  5
2065F
  8
0
 10
3455.4445528447699871
 20
182.7778500237629089
 30
0.0
 40
0.0093645850154597
 50
335.9700727278233785
 51
24.2842874351789888
  0
LINE
  5
20660
  8
0
 10
3455.4531058281959304
 20
182.7740366358949018
 30
0.0
 11
3455.4341720573929706
 21
182.7421553242407981
 31
0.0
  0
ARC
  5
20661
  8
0
 10
3455.4167168507628958
 20
182.7525368297966963
 30
0.0
 40
0.0203091086978401
 50
292.3274090327333283
 51
329.2578824793623085
  0
ARC
  5
20662
  8
0
 10
3455.4155801506731223
 20
182.7553046188619135
 30
0.0
 40
0.0233012222322879
 50
254.949816924100702
 51
292.3274090327327031
  0
ARC
  5
20663
  8
0
 10
3455.502280858469021
 20
183.0241552656164004
 30
0.0
 40
0.3057599237316503
 50
235.1811905338327051
 51
252.3412838300893952
  0
ARC
  5
20664
  8
0
 10
3455.3410378578428208
 20
182.7921525587439078
 30
0.0
 40
0.0232277277975665
 50
161.4943592283657949
 51
234.9461583522480908
  0
LINE
  5
20665
  8
0
 10
3455.3190111798248836
 20
182.7995249934947992
 30
0.0
 11
3455.335759324575065
 21
182.8404424744431935
 31
0.0
  0
ARC
  5
20666
  8
0
 10
3455.3513154186789507
 20
182.7630619977065862
 30
0.0
 40
0.0005558525089569
 50
95.7571775033436836
 51
132.3646180360618132
  0
ARC
  5
20667
  8
0
 10
3455.3510865855619159
 20
182.7633129129482086
 30
0.0
 40
0.0002162600268667
 50
132.3646180372940933
 51
201.9991247398598091
  0
ARC
  5
20668
  8
0
 10
3455.3529349994541917
 20
182.76405968779099
 30
0.0
 40
0.0022098263243829
 50
201.9991247400060956
 51
234.0793382665061131
  0
ARC
  5
20669
  8
0
 10
3455.3734037096201064
 20
182.7881012515869088
 30
0.0
 40
0.0337782380829639
 50
229.882755768484202
 51
238.9969857741079977
  0
ARC
  5
2066A
  8
0
 10
3455.4335580280048816
 20
182.8861399615603034
 30
0.0
 40
0.1487994289860933
 50
238.5878259387756088
 51
243.9631513011568131
  0
ARC
  5
2066B
  8
0
 10
3455.4297094923831537
 20
182.8755726903029881
 30
0.0
 40
0.1376203620089869
 50
243.4716489385504019
 51
249.0337419933198078
  0
ARC
  5
2066C
  8
0
 10
3455.3894726670628188
 20
182.7693909819248859
 30
0.0
 40
0.0240750214669978
 50
248.0319054916334096
 51
259.7159836568691844
  0
ARC
  5
2066D
  8
0
 10
3455.3510404436360659
 20
182.7535404896511011
 30
0.0
 40
0.0100769415401969
 50
66.6905090086751358
 51
88.7534768287766553
  0
ARC
  5
2066E
  8
0
 10
3455.3144184746001883
 20
182.6497293238246868
 30
0.0
 40
0.1201372576082277
 50
63.7112283448440593
 51
70.2434107963440226
  0
ARC
  5
2066F
  8
0
 10
3455.2987033241970494
 20
182.6141284233937085
 30
0.0
 40
0.1590250916687702
 50
59.2878142734438072
 51
64.3157029701988705
  0
ARC
  5
20670
  8
0
 10
3455.3593862219850052
 20
182.7152520732261962
 30
0.0
 40
0.041095710754583
 50
51.2736843428714266
 51
60.0201844555873691
  0
ARC
  5
20671
  8
0
 10
3455.3818865359157826
 20
182.7432579966786079
 30
0.0
 40
0.0051709664032276
 50
36.090174721852442
 51
51.6385727630738103
  0
ARC
  5
20672
  8
0
 10
3455.3855381918970124
 20
182.745964730312096
 30
0.0
 40
0.0006267231265204
 50
1.9345151357884851
 51
32.7742657979134933
  0
ARC
  5
20673
  8
0
 10
3455.3859610932008763
 20
182.7459790144355907
 30
0.0
 40
0.0002035806577469
 50
285.0280537138568775
 51
1.9345151373461491
  0
ARC
  5
20674
  8
0
 10
3455.3853588691081313
 20
182.7482221515431888
 30
0.0
 40
0.0025261520648431
 50
265.8170494614839185
 51
285.0280537141254058
  0
ARC
  5
20675
  8
0
 10
3455.8617602919412093
 20
182.7682806027571871
 30
0.0
 40
0.0065991633149204
 50
121.3986842366465027
 51
155.9011740073460999
  0
ARC
  5
20676
  8
0
 10
3455.8647891763198459
 20
182.7633182373297984
 30
0.0
 40
0.0124128722182428
 50
87.955313848215269
 51
121.3986842366481937
  0
ARC
  5
20677
  8
0
 10
3455.8622196769051698
 20
182.6913468153794042
 30
0.0
 40
0.0844301472624744
 50
70.1709749870832695
 51
87.955313848215269
  0
ARC
  5
20678
  8
0
 10
3455.8183414647542122
 20
182.5696638388818087
 30
0.0
 40
0.2137825506841652
 50
57.1714925202292719
 51
70.1709749870832695
  0
ARC
  5
20679
  8
0
 10
3455.8327243890071259
 20
182.5919574007805011
 30
0.0
 40
0.1872519756395322
 50
45.6742713107501572
 51
57.1714925202292719
  0
ARC
  5
2067A
  8
0
 10
3455.9322725605411506
 20
182.6938766010611914
 30
0.0
 40
0.0447831655735924
 50
24.2842874351804703
 51
45.6742713107513012
  0
ARC
  5
2067B
  8
0
 10
3455.9645571667601871
 20
182.7084430024692097
 30
0.0
 40
0.0093645850154597
 50
335.9700727278233785
 51
24.2842874351789888
  0
LINE
  5
2067C
  8
0
 10
3455.9731101501861303
 20
182.7046296146012025
 30
0.0
 11
3455.9541763793818063
 21
182.6727483029470989
 31
0.0
  0
ARC
  5
2067D
  8
0
 10
3455.9367211727530957
 20
182.6831298085031108
 30
0.0
 40
0.0203091086978401
 50
292.3274090327333283
 51
329.2578824793623085
  0
ARC
  5
2067E
  8
0
 10
3455.9355844726628675
 20
182.6858975975682995
 30
0.0
 40
0.0233012222322879
 50
254.949816924100702
 51
292.3274090327327031
  0
ARC
  5
2067F
  8
0
 10
3456.022285180459221
 20
182.9547482443227864
 30
0.0
 40
0.3057599237316503
 50
235.1811905338327051
 51
252.3412838300893952
  0
ARC
  5
20680
  8
0
 10
3455.8610421798330208
 20
182.7227455374502938
 30
0.0
 40
0.0232277277975665
 50
161.4943592283657949
 51
234.9461583522480908
  0
LINE
  5
20681
  8
0
 10
3455.8390155018150836
 20
182.7301179722011
 30
0.0
 11
3455.8557636465648102
 21
182.771035453149608
 31
0.0
  0
ARC
  5
20682
  8
0
 10
3455.8713197406691506
 20
182.693654976412887
 30
0.0
 40
0.0005558525089569
 50
95.7571775033436836
 51
132.3646180360618132
  0
ARC
  5
20683
  8
0
 10
3455.8710909075521158
 20
182.6939058916545093
 30
0.0
 40
0.0002162600268667
 50
132.3646180372940933
 51
201.9991247398598091
  0
ARC
  5
20684
  8
0
 10
3455.8729393214439369
 20
182.6946526664974044
 30
0.0
 40
0.0022098263243829
 50
201.9991247400060956
 51
234.0793382665061131
  0
ARC
  5
20685
  8
0
 10
3455.8934080316098516
 20
182.7186942302932096
 30
0.0
 40
0.0337782380829639
 50
229.882755768484202
 51
238.9969857741079977
  0
ARC
  5
20686
  8
0
 10
3455.9535623499950816
 20
182.8167329402666894
 30
0.0
 40
0.1487994289860933
 50
238.5878259387756088
 51
243.9631513011568131
  0
ARC
  5
20687
  8
0
 10
3455.9497138143728989
 20
182.8061656690092889
 30
0.0
 40
0.1376203620089869
 50
243.4716489385504019
 51
249.0337419933198078
  0
ARC
  5
20688
  8
0
 10
3455.9094769890539283
 20
182.6999839606311866
 30
0.0
 40
0.0240750214669978
 50
248.0319054916334096
 51
259.7159836568691844
  0
ARC
  5
20689
  8
0
 10
3455.8710447656258111
 20
182.6841334683574019
 30
0.0
 40
0.0100769415401969
 50
66.6905090086751358
 51
88.7534768287766553
  0
ARC
  5
2068A
  8
0
 10
3455.8344227965899336
 20
182.5803223025309876
 30
0.0
 40
0.1201372576082277
 50
63.7112283448440593
 51
70.2434107963440226
  0
ARC
  5
2068B
  8
0
 10
3455.8187076461867946
 20
182.5447214021000093
 30
0.0
 40
0.1590250916687702
 50
59.2878142734438072
 51
64.3157029701988705
  0
ARC
  5
2068C
  8
0
 10
3455.8793905439752052
 20
182.6458450519326107
 30
0.0
 40
0.041095710754583
 50
51.2736843428714266
 51
60.0201844555873691
  0
ARC
  5
2068D
  8
0
 10
3455.9018908579059826
 20
182.6738509753849087
 30
0.0
 40
0.0051709664032276
 50
36.090174721852442
 51
51.6385727630738103
  0
ARC
  5
2068E
  8
0
 10
3455.9055425138881219
 20
182.6765577090183967
 30
0.0
 40
0.0006267231265204
 50
1.9345151357884851
 51
32.7742657979134933
  0
ARC
  5
2068F
  8
0
 10
3455.9059654151910763
 20
182.6765719931420051
 30
0.0
 40
0.0002035806577469
 50
285.0280537138568775
 51
1.9345151373461491
  0
ARC
  5
20690
  8
0
 10
3455.9053631910978766
 20
182.6788151302496033
 30
0.0
 40
0.0025261520648431
 50
265.8170494614839185
 51
285.0280537141254058
  0
ARC
  5
20691
  8
0
 10
3455.8332572958388482
 20
182.7037342452732105
 30
0.0
 40
0.0065991633149204
 50
121.3986842366465027
 51
155.9011740073460999
  0
ARC
  5
20692
  8
0
 10
3455.8362861802170301
 20
182.6987718798457934
 30
0.0
 40
0.0124128722182428
 50
87.955313848215269
 51
121.3986842366481937
  0
ARC
  5
20693
  8
0
 10
3455.8337166808028087
 20
182.6268004578953992
 30
0.0
 40
0.0844301472624744
 50
85.0135428754999083
 51
87.955313848215269
  0
ARC
  5
20694
  8
0
 10
3455.8042213929038553
 20
182.527411043296496
 30
0.0
 40
0.1872519756395322
 50
45.6742713107501572
 51
46.2484954670514696
  0
ARC
  5
20695
  8
0
 10
3455.90376956443788
 20
182.6293302435771864
 30
0.0
 40
0.0447831655735924
 50
24.2842874351804703
 51
45.6742713107513012
  0
ARC
  5
20696
  8
0
 10
3455.936054170657826
 20
182.6438966449852046
 30
0.0
 40
0.0093645850154597
 50
335.9700727278233785
 51
24.2842874351789888
  0
LINE
  5
20697
  8
0
 10
3455.944607154084224
 20
182.6400832571171975
 30
0.0
 11
3455.9256733832799
 21
182.6082019454630938
 31
0.0
  0
ARC
  5
20698
  8
0
 10
3455.9082181766511894
 20
182.6185834510191057
 30
0.0
 40
0.0203091086978401
 50
292.3274090327333283
 51
329.2578824793623085
  0
ARC
  5
20699
  8
0
 10
3455.9070814765600517
 20
182.6213512400842092
 30
0.0
 40
0.0233012222322879
 50
254.949816924100702
 51
292.3274090327327031
  0
ARC
  5
2069A
  8
0
 10
3455.9937821843559504
 20
182.8902018868386961
 30
0.0
 40
0.3057599237316503
 50
235.1811905338327051
 51
252.3412838300893952
  0
ARC
  5
2069B
  8
0
 10
3455.832539183730205
 20
182.6581991799662887
 30
0.0
 40
0.0232277277975665
 50
161.4943592283657949
 51
234.9461583522480908
  0
LINE
  5
2069C
  8
0
 10
3455.8105125057131772
 20
182.6655716147172086
 30
0.0
 11
3455.8272606504619944
 21
182.7064890956656029
 31
0.0
  0
ARC
  5
2069D
  8
0
 10
3455.8428167445658801
 20
182.6291086189289103
 30
0.0
 40
0.0005558525089569
 50
95.7571775033436836
 51
132.3646180360618132
  0
ARC
  5
2069E
  8
0
 10
3455.8425879114502095
 20
182.6293595341705043
 30
0.0
 40
0.0002162600268667
 50
132.3646180372940933
 51
201.9991247398598091
  0
ARC
  5
2069F
  8
0
 10
3455.8444363253411211
 20
182.6301063090133141
 30
0.0
 40
0.0022098263243829
 50
201.9991247400060956
 51
234.0793382665061131
  0
ARC
  5
206A0
  8
0
 10
3455.8649050355079453
 20
182.6541478728092045
 30
0.0
 40
0.0337782380829639
 50
229.882755768484202
 51
238.9969857741079977
  0
ARC
  5
206A1
  8
0
 10
3455.9250593538931753
 20
182.7521865827827128
 30
0.0
 40
0.1487994289860933
 50
238.5878259387756088
 51
243.9631513011568131
  0
ARC
  5
206A2
  8
0
 10
3455.9212108182700831
 20
182.7416193115253122
 30
0.0
 40
0.1376203620089869
 50
243.4716489385504019
 51
249.0337419933198078
  0
ARC
  5
206A3
  8
0
 10
3455.8809739929520219
 20
182.63543760314721
 30
0.0
 40
0.0240750214669978
 50
248.0319054916334096
 51
259.7159836568691844
  0
ARC
  5
206A4
  8
0
 10
3455.8425417695229953
 20
182.6195871108733968
 30
0.0
 40
0.0100769415401969
 50
66.6905090086751358
 51
88.7534768287766553
  0
ARC
  5
206A5
  8
0
 10
3455.8059198004871178
 20
182.515775945047011
 30
0.0
 40
0.1201372576082277
 50
63.7112283448440593
 51
70.2434107963440226
  0
ARC
  5
206A6
  8
0
 10
3455.7902046500839788
 20
182.4801750446160042
 30
0.0
 40
0.1590250916687702
 50
59.2878142734438072
 51
64.3157029701988705
  0
ARC
  5
206A7
  8
0
 10
3455.8508875478728442
 20
182.5812986944486056
 30
0.0
 40
0.041095710754583
 50
51.2736843428714266
 51
60.0201844555873691
  0
ARC
  5
206A8
  8
0
 10
3455.8733878618031667
 20
182.6093046179009036
 30
0.0
 40
0.0051709664032276
 50
36.090174721852442
 51
51.6385727630738103
  0
ARC
  5
206A9
  8
0
 10
3455.8770395177862156
 20
182.6120113515343917
 30
0.0
 40
0.0006267231265204
 50
1.9345151357884851
 51
32.7742657979134933
  0
ARC
  5
206AA
  8
0
 10
3455.87746241908917
 20
182.6120256356578864
 30
0.0
 40
0.0002035806577469
 50
285.0280537138568775
 51
1.9345151373461491
  0
ARC
  5
206AB
  8
0
 10
3455.8768601949959702
 20
182.6142687727655129
 30
0.0
 40
0.0025261520648431
 50
265.8170494614839185
 51
285.0280537141254058
  0
ARC
  5
206AC
  8
0
 10
3455.7937056514551841
 20
182.5966063925409912
 30
0.0
 40
0.0065991633149204
 50
121.3986842366465027
 51
155.9011740073460999
  0
ARC
  5
206AD
  8
0
 10
3455.7967345358329112
 20
182.5916440271136025
 30
0.0
 40
0.0124128722182428
 50
87.955313848215269
 51
121.3986842366481937
  0
ARC
  5
206AE
  8
0
 10
3455.7941650364191446
 20
182.5196726051632936
 30
0.0
 40
0.0844301472624744
 50
70.1709749870832695
 51
87.955313848215269
  0
ARC
  5
206AF
  8
0
 10
3455.7502868242668228
 20
182.3979896286656128
 30
0.0
 40
0.2137825506841652
 50
57.1714925202292719
 51
70.1709749870832695
  0
ARC
  5
206B0
  8
0
 10
3455.7646697485201912
 20
182.4202831905643905
 30
0.0
 40
0.1872519756395322
 50
45.6742713107501572
 51
57.1714925202292719
  0
ARC
  5
206B1
  8
0
 10
3455.8642179200542159
 20
182.5222023908449955
 30
0.0
 40
0.0447831655735924
 50
24.2842874351804703
 51
45.6742713107513012
  0
ARC
  5
206B2
  8
0
 10
3455.8965025262741619
 20
182.5367687922530138
 30
0.0
 40
0.0093645850154597
 50
335.9700727278233785
 51
24.2842874351789888
  0
LINE
  5
206B3
  8
0
 10
3455.9050555096991957
 20
182.5329554043850067
 30
0.0
 11
3455.8861217388948717
 21
182.5010740927309882
 31
0.0
  0
ARC
  5
206B4
  8
0
 10
3455.8686665322661611
 20
182.5114555982868865
 30
0.0
 40
0.0203091086978401
 50
292.3274090327333283
 51
329.2578824793623085
  0
ARC
  5
206B5
  8
0
 10
3455.8675298321759328
 20
182.5142233873521036
 30
0.0
 40
0.0233012222322879
 50
254.949816924100702
 51
292.3274090327327031
  0
ARC
  5
206B6
  8
0
 10
3455.9542305399718316
 20
182.7830740341065905
 30
0.0
 40
0.3057599237316503
 50
235.1811905338327051
 51
252.3412838300893952
  0
ARC
  5
206B7
  8
0
 10
3455.7929875393460861
 20
182.5510713272342116
 30
0.0
 40
0.0232277277975665
 50
161.4943592283657949
 51
234.9461583522480908
  0
LINE
  5
206B8
  8
0
 10
3455.7709608613281489
 20
182.5584437619849894
 30
0.0
 11
3455.7877090060778755
 21
182.5993612429334121
 31
0.0
  0
ARC
  5
206B9
  8
0
 10
3455.803265100182216
 20
182.5219807661968048
 30
0.0
 40
0.0005558525089569
 50
95.7571775033436836
 51
132.3646180360618132
  0
ARC
  5
206BA
  8
0
 10
3455.8030362670651812
 20
182.5222316814383134
 30
0.0
 40
0.0002162600268667
 50
132.3646180372940933
 51
201.9991247398598091
  0
ARC
  5
206BB
  8
0
 10
3455.8048846809570023
 20
182.5229784562812085
 30
0.0
 40
0.0022098263243829
 50
201.9991247400060956
 51
234.0793382665061131
  0
ARC
  5
206BC
  8
0
 10
3455.8253533911229169
 20
182.5470200200770137
 30
0.0
 40
0.0337782380829639
 50
229.882755768484202
 51
238.9969857741079977
  0
ARC
  5
206BD
  8
0
 10
3455.8855077095081469
 20
182.6450587300504935
 30
0.0
 40
0.1487994289860933
 50
238.5878259387756088
 51
243.9631513011568131
  0
ARC
  5
206BE
  8
0
 10
3455.8816591738850548
 20
182.6344914587932067
 30
0.0
 40
0.1376203620089869
 50
243.4716489385504019
 51
249.0337419933198078
  0
ARC
  5
206BF
  8
0
 10
3455.8414223485660841
 20
182.5283097504151044
 30
0.0
 40
0.0240750214669978
 50
248.0319054916334096
 51
259.7159836568691844
  0
ARC
  5
206C0
  8
0
 10
3455.8029901251388765
 20
182.5124592581412912
 30
0.0
 40
0.0100769415401969
 50
66.6905090086751358
 51
88.7534768287766553
  0
ARC
  5
206C1
  8
0
 10
3455.7663681561029989
 20
182.4086480923149054
 30
0.0
 40
0.1201372576082277
 50
63.7112283448440593
 51
70.2434107963440226
  0
ARC
  5
206C2
  8
0
 10
3455.7506530056998599
 20
182.3730471918838987
 30
0.0
 40
0.1590250916687702
 50
59.2878142734438072
 51
64.3157029701988705
  0
ARC
  5
206C3
  8
0
 10
3455.8113359034891801
 20
182.4741708417165
 30
0.0
 40
0.041095710754583
 50
51.2736843428714266
 51
60.0201844555873691
  0
ARC
  5
206C4
  8
0
 10
3455.8338362174190479
 20
182.5021767651687128
 30
0.0
 40
0.0051709664032276
 50
36.090174721852442
 51
51.6385727630738103
  0
ARC
  5
206C5
  8
0
 10
3455.8374878734011872
 20
182.5048834988022008
 30
0.0
 40
0.0006267231265204
 50
1.9345151357884851
 51
32.7742657979134933
  0
ARC
  5
206C6
  8
0
 10
3455.8379107747041417
 20
182.5048977829258092
 30
0.0
 40
0.0002035806577469
 50
285.0280537138568775
 51
1.9345151373461491
  0
ARC
  5
206C7
  8
0
 10
3455.8373085506109419
 20
182.5071409200334074
 30
0.0
 40
0.0025261520648431
 50
265.8170494614839185
 51
285.0280537141254058
  0
LINE
  5
206C8
  8
0
 10
3455.3467851719369719
 20
182.76088691880949
 30
0.0
 11
3455.3452024427388096
 21
182.7568179202405076
 31
0.0
  0
ARC
  5
206C9
  8
0
 10
3455.3636229813018872
 20
182.749652834352986
 30
0.0
 40
0.0197649866363263
 50
158.7453253967105127
 51
242.8955432462342969
  0
ARC
  5
206CA
  8
0
 10
3456.1239465225407912
 20
184.2351703641782024
 30
0.0
 40
1.688553235270164
 50
242.8955432462342969
 51
246.2212107391588063
  0
ARC
  5
206CB
  8
0
 10
3455.4512327433271821
 20
182.7083935134756985
 30
0.0
 40
0.0201433993533059
 50
246.2212107391588063
 51
312.0499729392871018
  0
LINE
  5
206CC
  8
0
 10
3455.4820351255912101
 20
182.7395551252203063
 30
0.0
 11
3455.4657443517371576
 21
182.6971351726930948
 31
0.0
  0
ARC
  5
206CD
  8
0
 10
3455.4841195336211968
 20
182.6900784478563082
 30
0.0
 40
0.0196836143696117
 50
158.9914307047557998
 51
170.17924475130269
  0
ARC
  5
206CE
  8
0
 10
3455.4842739350901866
 20
182.6900517204875882
 30
0.0
 40
0.0198403120601505
 50
170.1792447513412014
 51
250.5763994774463015
  0
LINE
  5
206CF
  8
0
 10
3455.4776760467830172
 20
182.6713406047394983
 30
0.0
 11
3455.5639158058329485
 21
182.6307969610330133
 31
0.0
  0
ARC
  5
206D0
  8
0
 10
3455.5721334140248473
 20
182.6486847135969072
 30
0.0
 40
0.0196850393999908
 50
245.3260168574780948
 51
330.6318139326523919
  0
LINE
  5
206D1
  8
0
 10
3455.5892886552910568
 20
182.6390307779595048
 30
0.0
 11
3455.6072170630268374
 21
182.6708899255411893
 31
0.0
  0
ARC
  5
206D2
  8
0
 10
3455.2514444479188569
 20
182.1724379458630949
 30
0.0
 40
0.612395729659498
 50
54.4824603813353576
 51
67.8664090607958599
  0
ARC
  5
206D3
  8
0
 10
3457.6972565405899331
 20
181.8790896924965921
 30
0.0
 40
2.2282305757026131
 50
159.0163164289201063
 51
159.4867793488321013
  0
ARC
  5
206D4
  8
0
 10
3455.6275052059781956
 20
182.6534823974419908
 30
0.0
 40
0.0183539618168763
 50
159.4867793487833012
 51
248.6670403052567053
  0
LINE
  5
206D5
  8
0
 10
3455.6208282708748811
 20
182.636386010338498
 30
0.0
 11
3455.7019871973998306
 21
182.5982052671438112
 31
0.0
  0
ARC
  5
206D6
  8
0
 10
3455.7098625045068729
 20
182.6165990452720962
 30
0.0
 40
0.0200087864666215
 50
246.8217829106793886
 51
330.5028651035819962
  0
LINE
  5
206D7
  8
0
 10
3455.7272777584498726
 20
182.6067471182527981
 30
0.0
 11
3455.7463964406588275
 21
182.6405432177425041
 31
0.0
  0
ARC
  5
206D8
  8
0
 10
3455.6128530629798661
 20
182.5091621361447949
 30
0.0
 40
0.1871544357218496
 50
58.5710440035137125
 51
66.1370366026428655
  0
ARC
  5
206D9
  8
0
 10
3455.4207168573962008
 20
182.1947499176737892
 30
0.0
 40
0.5556260962606855
 50
55.2071478844372407
 51
58.5710440035137125
  0
ARC
  5
206DA
  8
0
 10
3455.7183291560500038
 20
182.6230719082857945
 30
0.0
 40
0.0340584516044972
 50
35.9569599580748971
 51
55.2071478844093306
  0
ARC
  5
206DB
  8
0
 10
3455.7434127563301445
 20
182.6412674374716971
 30
0.0
 40
0.0030703202416762
 50
346.3566408546271873
 51
35.9569599580490618
  0
ARC
  5
206DC
  8
0
 10
3458.0474980407539078
 20
187.5906586178670068
 30
0.0
 40
5.4962373857598861
 50
245.0371081471471086
 51
245.648133526528909
  0
LINE
  5
206DD
  8
0
 10
3455.6112633671991716
 20
182.6624440050919134
 30
0.0
 11
3455.6043155591119103
 21
182.6657338936840915
 31
0.0
  0
LINE
  5
206DE
  8
0
 10
3455.4789482136520746
 20
182.7315170381980067
 30
0.0
 11
3455.4411762285772056
 21
182.7539491801360896
 31
0.0
  0
LINE
  5
206DF
  8
0
 10
3457.3007614587650096
 20
182.1479295384376087
 30
0.0
 11
3457.2544931009329048
 21
182.1529419549900979
 31
0.0
  0
LINE
  5
206E0
  8
0
 10
3457.3007614587650096
 20
182.1479295384376087
 30
0.0
 11
3457.2807111568790788
 21
182.0980981334857063
 31
0.0
  0
ARC
  5
206E1
  8
0
 10
3457.2624115852108844
 20
182.1054611997423933
 30
0.0
 40
0.0197253407556411
 50
261.5946751738546254
 51
338.0819818283708855
  0
LINE
  5
206E2
  8
0
 10
3457.259528234183108
 20
182.0859477337567114
 30
0.0
 11
3457.1315735072380448
 21
182.1277303231393887
 31
0.0
  0
ARC
  5
206E3
  8
0
 10
3457.1369440341209156
 20
182.1486008140707895
 30
0.0
 40
0.021550404885302
 50
169.9680095517865936
 51
255.5693669524924019
  0
LINE
  5
206E4
  8
0
 10
3457.1157231210258942
 20
182.1523548516476865
 30
0.0
 11
3457.1224747523920087
 21
182.1799697695894054
 31
0.0
  0
ARC
  5
206E5
  8
0
 10
3457.1228967252877737
 20
182.1798524877139016
 30
0.0
 40
0.000438759749946
 50
125.9436778326521988
 51
164.8143827404659874
  0
ARC
  5
206E6
  8
0
 10
3457.1236504306871211
 20
182.1788129538487908
 30
0.0
 40
0.0017227778513397
 50
98.7072189307438492
 51
125.9436778326253972
  0
ARC
  5
206E7
  8
0
 10
3457.1323065656488325
 20
182.1222924867294068
 30
0.0
 40
0.0589022486068381
 50
81.6960543004467468
 51
98.707218930744105
  0
ARC
  5
206E8
  8
0
 10
3457.0781291862681428
 20
181.2786176353322958
 30
0.0
 40
0.9041351495298054
 50
80.500464372816495
 51
86.0244558179481658
  0
ARC
  5
206E9
  8
0
 10
3457.1953012474969
 20
181.9545965653088899
 30
0.0
 40
0.2181246437456469
 50
73.665001330669142
 51
81.5517396237772942
  0
ARC
  5
206EA
  8
0
 10
3457.2547323430458164
 20
182.1585360699210128
 30
0.0
 40
0.0057115978679174
 50
52.4617425457930011
 51
70.3878750641094371
  0
ARC
  5
206EB
  8
0
 10
3457.2578958240210341
 20
182.1626531036864094
 30
0.0
 40
0.000519529021525
 50
350.070962875713974
 51
52.4617425454012007
  0
LINE
  5
206EC
  8
0
 10
3457.2584075715722065
 20
182.1625635221674031
 30
0.0
 11
3457.2381324671928269
 21
182.1127283600748115
 31
0.0
  0
ARC
  5
206ED
  8
0
 10
3457.2192048636361505
 20
182.1206579431255932
 30
0.0
 40
0.0205215122190159
 50
255.6148176734961055
 51
337.2691043850286974
  0
LINE
  5
206EE
  8
0
 10
3457.1294094069830862
 20
182.2153487856926972
 30
0.0
 11
3457.1090698952439197
 21
182.1670228207534876
 31
0.0
  0
ARC
  5
206EF
  8
0
 10
3457.0905408119888307
 20
182.1748213718402098
 30
0.0
 40
0.0201033411482146
 50
258.5012727699929087
 51
337.1746677352941219
  0
ARC
  5
206F0
  8
0
 10
3457.1686000304771369
 20
182.5462043797934086
 30
0.0
 40
0.399600740418618
 50
244.9933849940923949
 51
258.1487324691086087
  0
ARC
  5
206F1
  8
0
 10
3457.007198479246199
 20
182.203273724180292
 30
0.0
 40
0.0206300618374572
 50
166.4592399527419104
 51
248.6256506707726999
  0
LINE
  5
206F2
  8
0
 10
3456.9871418588168126
 20
182.2081039859135956
 30
0.0
 11
3456.9944478832248933
 21
182.2365279978889134
 31
0.0
  0
ARC
  5
206F3
  8
0
 10
3456.996467494981971
 20
182.2361675825069938
 30
0.0
 40
0.0020515191680834
 50
120.317199904430197
 51
169.8816401690820044
  0
ARC
  5
206F4
  8
0
 10
3457.0213039542268234
 20
182.0739873591751063
 30
0.0
 40
0.1659799791681932
 50
79.9652048230543642
 51
98.9675153643008656
  0
ARC
  5
206F5
  8
0
 10
3457.0134472971699324
 20
181.9038827442674915
 30
0.0
 40
0.3355669717468924
 50
71.0593487713852454
 51
83.707759464165477
  0
ARC
  5
206F6
  8
0
 10
3457.1157542530049795
 20
182.2032814597031916
 30
0.0
 40
0.0191759054499212
 50
46.3479564901170207
 51
69.8227743923558677
  0
ARC
  5
206F7
  8
0
 10
3457.1277078166672254
 20
182.2159069369529902
 30
0.0
 40
0.0017907534780714
 50
341.8580419059990163
 51
44.2314944727005326
  0
ARC
  5
206F8
  8
0
 10
3457.0497232127941061
 20
182.1462086198457939
 30
0.0
 40
0.0211126015922903
 50
57.9627511433950389
 51
71.5177143479047999
  0
ARC
  5
206F9
  8
0
 10
3457.1727686736389842
 20
182.5143309342408031
 30
0.0
 40
0.3670294133841568
 50
249.0217551643283116
 51
251.5177143479048141
  0
ARC
  5
206FA
  8
0
 10
3457.0042074244629475
 20
182.0747150184384964
 30
0.0
 40
0.1037943839652021
 50
69.0217551643282832
 51
76.5234037413052732
  0
ARC
  5
206FB
  8
0
 10
3457.0148467386939046
 20
182.1191108329011001
 30
0.0
 40
0.0581415269997667
 50
76.5234037413049037
 51
81.3009202167051086
  0
ARC
  5
206FC
  8
0
 10
3457.0609085500568654
 20
182.1767472957994869
 30
0.0
 40
0.0126414596830024
 50
250.9237673608519117
 51
270.0646980745178212
  0
ARC
  5
206FD
  8
0
 10
3457.1367271474800873
 20
182.4484999834891994
 30
0.0
 40
0.2947502007541409
 50
250.9421324581738872
 51
254.2615066167313103
  0
ARC
  5
206FE
  8
0
 10
3457.1075179914992077
 20
182.3720413898998061
 30
0.0
 40
0.2129612960618453
 50
247.3512189521995879
 51
251.6531500005922908
  0
ARC
  5
206FF
  8
0
 10
3457.1099382017218886
 20
182.323809119006512
 30
0.0
 40
0.1706537331508444
 50
239.6228469182289871
 51
240.3480215824777986
  0
LINE
  5
20700
  8
0
 10
3456.9231207598340916
 20
182.3062061516997119
 30
0.0
 11
3456.9027812480940156
 21
182.2578801867605023
 31
0.0
  0
ARC
  5
20701
  8
0
 10
3456.8842521648389265
 20
182.2656787378471961
 30
0.0
 40
0.0201033411482146
 50
258.5012727699929087
 51
337.1746677352941219
  0
ARC
  5
20702
  8
0
 10
3456.962311383326778
 20
182.6370617458003949
 30
0.0
 40
0.399600740418618
 50
244.9933849940923949
 51
258.1487324691086087
  0
ARC
  5
20703
  8
0
 10
3456.8009098320958401
 20
182.2941310901873067
 30
0.0
 40
0.0206300618374572
 50
166.4592399527419104
 51
248.6256506707726999
  0
LINE
  5
20704
  8
0
 10
3456.7808532116669085
 20
182.2989613519204966
 30
0.0
 11
3456.7881592360740797
 21
182.3273853638958997
 31
0.0
  0
ARC
  5
20705
  8
0
 10
3456.7901788478311573
 20
182.3270249485140084
 30
0.0
 40
0.0020515191680834
 50
120.317199904430197
 51
169.8816401690820044
  0
ARC
  5
20706
  8
0
 10
3456.8150153070769193
 20
182.1648447251820926
 30
0.0
 40
0.1659799791681932
 50
79.9652048230543642
 51
98.9675153643008656
  0
ARC
  5
20707
  8
0
 10
3456.8071586500191188
 20
181.9947401102745062
 30
0.0
 40
0.3355669717468924
 50
71.0593487713852454
 51
83.707759464165477
  0
ARC
  5
20708
  8
0
 10
3456.9094656058559849
 20
182.2941388257100925
 30
0.0
 40
0.0191759054499212
 50
46.3479564901170207
 51
69.8227743923558677
  0
ARC
  5
20709
  8
0
 10
3456.9214191695168665
 20
182.3067643029598912
 30
0.0
 40
0.0017907534780714
 50
341.8580419059990163
 51
44.2314944727005326
  0
ARC
  5
2070A
  8
0
 10
3456.8434345656442019
 20
182.2370659858528086
 30
0.0
 40
0.0211126015922903
 50
57.9627511433950389
 51
71.5177143479047999
  0
ARC
  5
2070B
  8
0
 10
3456.96648002648908
 20
182.6051883002477041
 30
0.0
 40
0.3670294133841568
 50
249.0217551643283116
 51
251.5177143479048141
  0
ARC
  5
2070C
  8
0
 10
3456.7979187773139529
 20
182.165572384445511
 30
0.0
 40
0.1037943839652021
 50
69.0217551643282832
 51
76.5234037413052732
  0
ARC
  5
2070D
  8
0
 10
3456.80855809154491
 20
182.2099681989080864
 30
0.0
 40
0.0581415269997667
 50
76.5234037413049037
 51
81.3009202167051086
  0
ARC
  5
2070E
  8
0
 10
3456.8546199029069612
 20
182.2676046618063879
 30
0.0
 40
0.0126414596830024
 50
250.9237673608519117
 51
270.0646980745178212
  0
ARC
  5
2070F
  8
0
 10
3456.9304385003288189
 20
182.5393573494959867
 30
0.0
 40
0.2947502007541409
 50
250.9421324581738872
 51
254.2615066167313103
  0
ARC
  5
20710
  8
0
 10
3456.9012293443479393
 20
182.462898755906707
 30
0.0
 40
0.2129612960618453
 50
247.3512189521995879
 51
251.6531500005922908
  0
ARC
  5
20711
  8
0
 10
3456.9036495545719845
 20
182.414666485013413
 30
0.0
 40
0.1706537331508444
 50
239.6228469182289871
 51
240.3480215824777986
  0
LINE
  5
20712
  8
0
 10
3456.6529514306889723
 20
182.4283829754157011
 30
0.0
 11
3456.6326119189498058
 21
182.3800570104764915
 31
0.0
  0
ARC
  5
20713
  8
0
 10
3456.6140828356938073
 20
182.3878555615632138
 30
0.0
 40
0.0201033411482146
 50
258.5012727699929087
 51
337.1746677352941219
  0
ARC
  5
20714
  8
0
 10
3456.6921420541821135
 20
182.7592385695164126
 30
0.0
 40
0.399600740418618
 50
244.9933849940923949
 51
258.1487324691086087
  0
ARC
  5
20715
  8
0
 10
3456.5307405029520851
 20
182.4163079139032959
 30
0.0
 40
0.0206300618374572
 50
166.4592399527419104
 51
248.6256506707726999
  0
LINE
  5
20716
  8
0
 10
3456.5106838825231534
 20
182.4211381756365995
 30
0.0
 11
3456.5179899069298699
 21
182.4495621876118889
 31
0.0
  0
ARC
  5
20717
  8
0
 10
3456.5200095186869476
 20
182.4492017722299977
 30
0.0
 40
0.0020515191680834
 50
120.317199904430197
 51
169.8816401690820044
  0
ARC
  5
20718
  8
0
 10
3456.5448459779331642
 20
182.2870215488981103
 30
0.0
 40
0.1659799791681932
 50
79.9652048230543642
 51
98.9675153643008656
  0
ARC
  5
20719
  8
0
 10
3456.536989320874909
 20
182.1169169339904954
 30
0.0
 40
0.3355669717468924
 50
71.0593487713852454
 51
83.707759464165477
  0
ARC
  5
2071A
  8
0
 10
3456.6392962767108656
 20
182.4163156494261102
 30
0.0
 40
0.0191759054499212
 50
46.3479564901170207
 51
69.8227743923558677
  0
ARC
  5
2071B
  8
0
 10
3456.651249840372202
 20
182.4289411266759942
 30
0.0
 40
0.0017907534780714
 50
341.8580419059990163
 51
44.2314944727005326
  0
ARC
  5
2071C
  8
0
 10
3456.5732652364999922
 20
182.3592428095687978
 30
0.0
 40
0.0211126015922903
 50
57.9627511433950389
 51
71.5177143479047999
  0
ARC
  5
2071D
  8
0
 10
3456.6963106973448703
 20
182.727365123963807
 30
0.0
 40
0.3670294133841568
 50
249.0217551643283116
 51
251.5177143479048141
  0
ARC
  5
2071E
  8
0
 10
3456.5277494481688336
 20
182.2877492081615003
 30
0.0
 40
0.1037943839652021
 50
69.0217551643282832
 51
76.5234037413052732
  0
ARC
  5
2071F
  8
0
 10
3456.5383887623997907
 20
182.3321450226241041
 30
0.0
 40
0.0581415269997667
 50
76.5234037413049037
 51
81.3009202167051086
  0
ARC
  5
20720
  8
0
 10
3456.5844505737632062
 20
182.3897814855224055
 30
0.0
 40
0.0126414596830024
 50
250.9237673608519117
 51
270.0646980745178212
  0
ARC
  5
20721
  8
0
 10
3456.6602691711850639
 20
182.6615341732120896
 30
0.0
 40
0.2947502007541409
 50
250.9421324581738872
 51
254.2615066167313103
  0
ARC
  5
20722
  8
0
 10
3456.6310600152041843
 20
182.58507557962281
 30
0.0
 40
0.2129612960618453
 50
247.3512189521995879
 51
251.6531500005922908
  0
ARC
  5
20723
  8
0
 10
3456.6334802254277747
 20
182.5368433087294875
 30
0.0
 40
0.1706537331508444
 50
239.6228469182289871
 51
240.3480215824777986
  0
LINE
  5
20724
  8
0
 10
3456.7404912034039626
 20
182.3156842710777994
 30
0.0
 11
3456.7201516916647961
 21
182.2673583061385898
 31
0.0
  0
ARC
  5
20725
  8
0
 10
3456.7016226084087975
 20
182.275156857225312
 30
0.0
 40
0.0201033411482146
 50
258.5012727699929087
 51
337.1746677352941219
  0
ARC
  5
20726
  8
0
 10
3456.7796818268980132
 20
182.6465398651785961
 30
0.0
 40
0.399600740418618
 50
244.9933849940923949
 51
259.3151662118128229
  0
ARC
  5
20727
  8
0
 10
3456.6182802756661658
 20
182.3036092095653942
 30
0.0
 40
0.0206300618374572
 50
166.4592399527419104
 51
248.6256506707726999
  0
LINE
  5
20728
  8
0
 10
3456.5982236552381437
 20
182.3084394712986978
 30
0.0
 11
3456.6055296796448602
 21
182.3368634832739872
 31
0.0
  0
ARC
  5
20729
  8
0
 10
3456.6075492914019378
 20
182.3365030678920959
 30
0.0
 40
0.0020515191680834
 50
120.317199904430197
 51
169.8816401690820044
  0
ARC
  5
2072A
  8
0
 10
3456.6323857506481545
 20
182.1743228445602938
 30
0.0
 40
0.1659799791681932
 50
79.9652048230543642
 51
98.9675153643008656
  0
ARC
  5
2072B
  8
0
 10
3456.6245290935898993
 20
182.0042182296527074
 30
0.0
 40
0.3355669717468924
 50
71.0593487713852454
 51
83.707759464165477
  0
ARC
  5
2072C
  8
0
 10
3456.7268360494249464
 20
182.3036169450882085
 30
0.0
 40
0.0191759054499212
 50
46.3479564901170207
 51
69.8227743923558677
  0
ARC
  5
2072D
  8
0
 10
3456.7387896130871923
 20
182.3162424223380924
 30
0.0
 40
0.0017907534780714
 50
341.8580419059990163
 51
44.2314944727005326
  0
ARC
  5
2072E
  8
0
 10
3456.6608050092149824
 20
182.2465441052310098
 30
0.0
 40
0.0211126015922903
 50
57.9627511433950389
 51
71.5177143479047999
  0
ARC
  5
2072F
  8
0
 10
3456.7838504700598605
 20
182.6146664196259053
 30
0.0
 40
0.3670294133841568
 50
249.0217551643283116
 51
251.5177143479048141
  0
ARC
  5
20730
  8
0
 10
3456.6152892208829144
 20
182.1750505038235985
 30
0.0
 40
0.1037943839652021
 50
69.0217551643282832
 51
76.5234037413052732
  0
ARC
  5
20731
  8
0
 10
3456.6259285351138715
 20
182.2194463182862023
 30
0.0
 40
0.0581415269997667
 50
76.5234037413049037
 51
81.3009202167051086
  0
ARC
  5
20732
  8
0
 10
3456.6719903464768322
 20
182.2770827811845891
 30
0.0
 40
0.0126414596830024
 50
250.9237673608519117
 51
270.0646980745178212
  0
ARC
  5
20733
  8
0
 10
3456.7478089439000541
 20
182.5488354688741879
 30
0.0
 40
0.2947502007541409
 50
250.9421324581738872
 51
254.2615066167313103
  0
ARC
  5
20734
  8
0
 10
3456.7185997879191746
 20
182.4723768752849082
 30
0.0
 40
0.2129612960618453
 50
247.3512189521995879
 51
251.6531500005922908
  0
ARC
  5
20735
  8
0
 10
3456.7210199981432197
 20
182.4241446043916142
 30
0.0
 40
0.1706537331508444
 50
239.6228469182289871
 51
240.3480215824777986
  0
LINE
  5
20736
  8
0
 10
3456.5114610299210653
 20
182.4089661585904878
 30
0.0
 11
3456.4946519016698403
 21
182.3690282607221889
 31
0.0
  0
ARC
  5
20737
  8
0
 10
3456.4761228184138417
 20
182.3768268118089111
 30
0.0
 40
0.0201033411482146
 50
291.542814191379307
 51
337.1746677352941219
  0
ARC
  5
20738
  8
0
 10
3456.554182036902148
 20
182.7482098197621099
 30
0.0
 40
0.399600740418618
 50
244.9933849940923949
 51
255.9803466228127036
  0
ARC
  5
20739
  8
0
 10
3456.39278048567121
 20
182.4052791641489932
 30
0.0
 40
0.0206300618374572
 50
166.4592399527419104
 51
248.6256506707726999
  0
LINE
  5
2073A
  8
0
 10
3456.3727238652431879
 20
182.4101094258822968
 30
0.0
 11
3456.3800298896499044
 21
182.4385334378575863
 31
0.0
  0
ARC
  5
2073B
  8
0
 10
3456.382049501406982
 20
182.438173022475695
 30
0.0
 40
0.0020515191680834
 50
120.317199904430197
 51
169.8816401690820044
  0
ARC
  5
2073C
  8
0
 10
3456.4068859606518345
 20
182.2759927991438076
 30
0.0
 40
0.1659799791681932
 50
79.9652048230543642
 51
98.9675153643008656
  0
ARC
  5
2073D
  8
0
 10
3456.399029303594034
 20
182.1058881842361927
 30
0.0
 40
0.3355669717468924
 50
71.0593487713852454
 51
83.707759464165477
  0
ARC
  5
2073E
  8
0
 10
3456.5013362594299906
 20
182.4052868996718075
 30
0.0
 40
0.0191759054499212
 50
60.138531079427743
 51
69.8227743923558677
  0
ARC
  5
2073F
  8
0
 10
3456.4353052192191171
 20
182.3482140598144952
 30
0.0
 40
0.0211126015922903
 50
57.9627511433950389
 51
71.5177143479047999
  0
ARC
  5
20740
  8
0
 10
3456.5583506800639952
 20
182.7163363742095044
 30
0.0
 40
0.3670294133841568
 50
249.0217551643283116
 51
251.5177143479048141
  0
ARC
  5
20741
  8
0
 10
3456.3897894308879586
 20
182.2767204584071976
 30
0.0
 40
0.1037943839652021
 50
69.0217551643282832
 51
76.5234037413052732
  0
ARC
  5
20742
  8
0
 10
3456.4004287451189157
 20
182.3211162728698014
 30
0.0
 40
0.0581415269997667
 50
76.5234037413049037
 51
81.3009202167051086
  0
ARC
  5
20743
  8
0
 10
3456.4464905564818764
 20
182.3787527357681881
 30
0.0
 40
0.0126414596830024
 50
250.9237673608519117
 51
270.0646980745178212
  0
ARC
  5
20744
  8
0
 10
3456.5223091539050984
 20
182.6505054234577869
 30
0.0
 40
0.2947502007541409
 50
250.9421324581738872
 51
254.2615066167313103
  0
ARC
  5
20745
  8
0
 10
3456.4930999979228545
 20
182.5740468298685073
 30
0.0
 40
0.2129612960618453
 50
247.3512189521995879
 51
251.6531500005922908
  0
ARC
  5
20746
  8
0
 10
3456.4955202081468997
 20
182.5258145589752132
 30
0.0
 40
0.1706537331508444
 50
239.6228469182289871
 51
240.3480215824777986
  0
LINE
  5
20747
  8
0
 10
3456.5635096104288095
 20
182.3359052829584925
 30
0.0
 11
3456.5431700986900978
 21
182.2875793180193114
 31
0.0
  0
ARC
  5
20748
  8
0
 10
3456.5246410154340992
 20
182.2953778691060052
 30
0.0
 40
0.0201033411482146
 50
258.5012727699929087
 51
337.1746677352941219
  0
ARC
  5
20749
  8
0
 10
3456.6027002339228602
 20
182.6667608770592039
 30
0.0
 40
0.399600740418618
 50
244.9933849940923949
 51
258.1487324691086087
  0
LINE
  5
2074A
  8
0
 10
3456.4212420622629907
 20
182.3286604831793056
 30
0.0
 11
3456.4285480866701619
 21
182.3570844951547087
 31
0.0
  0
ARC
  5
2074B
  8
0
 10
3456.430567698428149
 20
182.3567240797727891
 30
0.0
 40
0.0020515191680834
 50
120.317199904430197
 51
169.8816401690820044
  0
ARC
  5
2074C
  8
0
 10
3456.4554041576730015
 20
182.1945438564409017
 30
0.0
 40
0.1659799791681932
 50
79.9652048230543642
 51
98.9675153643008656
  0
ARC
  5
2074D
  8
0
 10
3456.4475475006161105
 20
182.0244392415332868
 30
0.0
 40
0.3355669717468924
 50
71.0593487713852454
 51
83.707759464165477
  0
ARC
  5
2074E
  8
0
 10
3456.5498544564511576
 20
182.3238379569689016
 30
0.0
 40
0.0191759054499212
 50
46.3479564901170207
 51
69.8227743923558677
  0
ARC
  5
2074F
  8
0
 10
3456.5618080201120392
 20
182.336463434218814
 30
0.0
 40
0.0017907534780714
 50
341.8580419059990163
 51
44.2314944727005326
  0
ARC
  5
20750
  8
0
 10
3456.4838234162398294
 20
182.2667651171115892
 30
0.0
 40
0.0211126015922903
 50
57.9627511433950389
 51
71.5177143479047999
  0
ARC
  5
20751
  8
0
 10
3456.6068688770851622
 20
182.6348874315065132
 30
0.0
 40
0.3670294133841568
 50
249.0217551643283116
 51
251.5177143479048141
  0
ARC
  5
20752
  8
0
 10
3456.4383076279091256
 20
182.1952715157042917
 30
0.0
 40
0.1037943839652021
 50
69.0217551643282832
 51
76.5234037413052732
  0
ARC
  5
20753
  8
0
 10
3456.4489469421400827
 20
182.2396673301668955
 30
0.0
 40
0.0581415269997667
 50
76.5234037413049037
 51
81.3009202167051086
  0
ARC
  5
20754
  8
0
 10
3456.4950087535030434
 20
182.2973037930651969
 30
0.0
 40
0.0126414596830024
 50
250.9237673608519117
 51
270.0646980745178212
  0
ARC
  5
20755
  8
0
 10
3456.5708273509249011
 20
182.5690564807549094
 30
0.0
 40
0.2947502007541409
 50
250.9421324581738872
 51
254.2615066167313103
  0
ARC
  5
20756
  8
0
 10
3456.5416181949440215
 20
182.4925978871656014
 30
0.0
 40
0.2129612960618453
 50
247.3512189521995879
 51
251.6531500005922908
  0
ARC
  5
20757
  8
0
 10
3456.5440384051680667
 20
182.4443656162723073
 30
0.0
 40
0.1706537331508444
 50
239.6228469182289871
 51
240.3480215824777986
  0
LINE
  5
20758
  8
0
 10
3456.9125718961481653
 20
182.2403706134510912
 30
0.0
 11
3456.8922323844080893
 21
182.1920446485119101
 31
0.0
  0
ARC
  5
20759
  8
0
 10
3456.8737033011539097
 20
182.1998431995986039
 30
0.0
 40
0.0201033411482146
 50
258.5012727699929087
 51
337.1746677352941219
  0
ARC
  5
2075A
  8
0
 10
3456.9517625196422159
 20
182.5712262075518026
 30
0.0
 40
0.399600740418618
 50
244.9933849940923949
 51
258.1487324691086087
  0
ARC
  5
2075B
  8
0
 10
3456.7903609684099138
 20
182.228295551938686
 30
0.0
 40
0.0206300618374572
 50
166.4592399527419104
 51
248.6256506707726999
  0
LINE
  5
2075C
  8
0
 10
3456.7703043479818916
 20
182.2331258136719896
 30
0.0
 11
3456.7776103723899723
 21
182.2615498256473074
 31
0.0
  0
ARC
  5
2075D
  8
0
 10
3456.7796299841461405
 20
182.2611894102653878
 30
0.0
 40
0.0020515191680834
 50
120.317199904430197
 51
169.8816401690820044
  0
ARC
  5
2075E
  8
0
 10
3456.8044664433909929
 20
182.0990091869335004
 30
0.0
 40
0.1659799791681932
 50
79.9652048230543642
 51
98.9675153643008656
  0
ARC
  5
2075F
  8
0
 10
3456.796609786334102
 20
181.9289045720259139
 30
0.0
 40
0.3355669717468924
 50
71.0593487713852454
 51
83.707759464165477
  0
ARC
  5
20760
  8
0
 10
3456.8989167421700586
 20
182.2283032874615003
 30
0.0
 40
0.0191759054499212
 50
46.3479564901170207
 51
69.8227743923558677
  0
ARC
  5
20761
  8
0
 10
3456.9108703058309402
 20
182.2409287647114127
 30
0.0
 40
0.0017907534780714
 50
341.8580419059990163
 51
44.2314944727005326
  0
ARC
  5
20762
  8
0
 10
3456.8328857019600946
 20
182.1712304476043016
 30
0.0
 40
0.0211126015922903
 50
57.9627511433950389
 51
71.5177143479047999
  0
ARC
  5
20763
  8
0
 10
3456.9559311628031537
 20
182.5393527619991971
 30
0.0
 40
0.3670294133841568
 50
249.0217551643283116
 51
251.5177143479048141
  0
ARC
  5
20764
  8
0
 10
3456.7873699136280266
 20
182.0997368461968904
 30
0.0
 40
0.1037943839652021
 50
69.0217551643282832
 51
76.5234037413052732
  0
ARC
  5
20765
  8
0
 10
3456.7980092278589836
 20
182.1441326606594941
 30
0.0
 40
0.0581415269997667
 50
76.5234037413049037
 51
81.3009202167051086
  0
ARC
  5
20766
  8
0
 10
3456.8440710392219444
 20
182.2017691235577956
 30
0.0
 40
0.0126414596830024
 50
250.9237673608519117
 51
270.0646980745178212
  0
ARC
  5
20767
  8
0
 10
3456.9198896366438021
 20
182.4735218112475081
 30
0.0
 40
0.2947502007541409
 50
250.9421324581738872
 51
254.2615066167313103
  0
ARC
  5
20768
  8
0
 10
3456.8906804806629225
 20
182.3970632176582001
 30
0.0
 40
0.2129612960618453
 50
247.3512189521995879
 51
251.6531500005922908
  0
ARC
  5
20769
  8
0
 10
3456.8931006908869676
 20
182.348830946764906
 30
0.0
 40
0.1706537331508444
 50
239.6228469182289871
 51
240.3480215824777986
  0
LINE
  5
2076A
  8
0
 10
3457.0499764534010865
 20
182.1646166458386915
 30
0.0
 11
3457.0344434186099534
 21
182.130968498224604
 31
0.0
  0
ARC
  5
2076B
  8
0
 10
3457.0164811036352148
 20
182.1392899651997936
 30
0.0
 40
0.0198005588954419
 50
252.019100138636901
 51
335.1171441599415175
  0
LINE
  5
2076C
  8
0
 10
3457.0103686724351064
 20
182.1204564759476057
 30
0.0
 11
3456.8906001366481178
 21
182.1641519422838087
 31
0.0
  0
ARC
  5
2076D
  8
0
 10
3456.8973370742801308
 20
182.1828766153757044
 30
0.0
 40
0.0198997414819123
 50
187.9429448337170925
 51
250.211809882844392
  0
ARC
  5
2076E
  8
0
 10
3456.6904300119531399
 20
180.7561445937078872
 30
0.0
 40
1.4753698709135801
 50
78.419724475600745
 51
81.7395053737654962
  0
LINE
  5
2076F
  8
0
 10
3456.7785185059401556
 20
182.2114030821948916
 30
0.0
 11
3456.7660552827887841
 21
182.1853771540444029
 31
0.0
  0
ARC
  5
20770
  8
0
 10
3456.7482922927601976
 20
182.1938834446663975
 30
0.0
 40
0.0196946895102852
 50
244.5521459981038959
 51
334.4113030706973859
  0
LINE
  5
20771
  8
0
 10
3456.7398296922929148
 20
182.1760995983937903
 30
0.0
 11
3456.6565215553218877
 21
182.208789458789397
 31
0.0
  0
ARC
  5
20772
  8
0
 10
3456.6643988790851836
 20
182.2266759534643086
 30
0.0
 40
0.0195442810416991
 50
162.6635514864294976
 51
246.2310081691898915
  0
LINE
  5
20773
  8
0
 10
3456.6457424667378291
 20
182.2324998009682986
 30
0.0
 11
3456.6563407132662178
 21
182.2664507684773127
 31
0.0
  0
ARC
  5
20774
  8
0
 10
3456.6618042738950862
 20
182.2343401748435952
 30
0.0
 40
0.0197566940985952
 50
162.8183284721771997
 51
212.0521510663295999
  0
LINE
  5
20775
  8
0
 10
3456.6429292636021273
 20
182.2401763506611871
 30
0.0
 11
3456.6498134103599114
 21
182.2624406458022861
 31
0.0
  0
ARC
  5
20776
  8
0
 10
3457.6367041645648897
 20
186.2029103543789006
 30
0.0
 40
4.0621769347700596
 50
254.4005488713569036
 51
256.0106361241071795
  0
ARC
  5
20777
  8
0
 10
3456.4011615951908425
 20
180.8772533937390961
 30
0.0
 40
1.411894854867854
 50
74.7739314841965381
 51
77.5032761230454241
  0
LINE
  5
20778
  8
0
 10
3456.5531735364402266
 20
182.2879080775861098
 30
0.0
 11
3456.5427168123919728
 21
182.26742261760171
 31
0.0
  0
LINE
  5
20779
  8
0
 10
3456.5427168123919728
 20
182.26742261760171
 30
0.0
 11
3456.5315448504370579
 21
182.2455369764024908
 31
0.0
  0
ARC
  5
2077A
  8
0
 10
3456.5139524513479046
 20
182.2545173673140084
 30
0.0
 40
0.0197519600707279
 50
243.9460035940691114
 51
332.9570546518338006
  0
LINE
  5
2077B
  8
0
 10
3456.5052770351658182
 20
182.2367725911614116
 30
0.0
 11
3456.4227259081640113
 21
182.2716369949550028
 31
0.0
  0
ARC
  5
2077C
  8
0
 10
3456.4316424944540813
 20
182.2892020293105872
 30
0.0
 40
0.0196986279468885
 50
161.4082289971350974
 51
243.0861595929771966
  0
LINE
  5
2077D
  8
0
 10
3456.4129718549647805
 20
182.2954824086044141
 30
0.0
 11
3456.4213657201757997
 21
182.3204361293815055
 31
0.0
  0
ARC
  5
2077E
  8
0
 10
3459.380775998234185
 20
191.9593265199673908
 30
0.0
 40
10.0777685705776694
 50
252.6467842445298118
 51
252.9195297857519904
  0
ARC
  5
2077F
  8
0
 10
3456.4433100777318941
 20
182.3248791820149961
 30
0.0
 40
0.0223896303050819
 50
170.2769291980509081
 51
244.8079614256025138
  0
ARC
  5
20780
  8
0
 10
3456.3303966039879924
 20
182.5611838189848868
 30
0.0
 40
0.0065991633149204
 50
334.7508597071050076
 51
9.2533494777927991
  0
ARC
  5
20781
  8
0
 10
3456.3246585490651341
 20
182.5602489730551952
 30
0.0
 40
0.0124128722182428
 50
9.2533494777863705
 51
42.6967198662162915
  0
ARC
  5
20782
  8
0
 10
3456.2717292066158734
 20
182.511412791665407
 30
0.0
 40
0.0844301472624744
 50
42.6967198662150906
 51
60.481058727381928
  0
ARC
  5
20783
  8
0
 10
3456.2079958206882111
 20
182.3988512538778934
 30
0.0
 40
0.2137825506841652
 50
60.4810587273592475
 51
73.4805411942060971
  0
ARC
  5
20784
  8
0
 10
3456.2155395499430597
 20
182.4242867322720087
 30
0.0
 40
0.1872519756395322
 50
73.4805411942060971
 51
84.9777624036818651
  0
ARC
  5
20785
  8
0
 10
3456.2280116084421024
 20
182.5662085755461987
 30
0.0
 40
0.0447831655735924
 50
84.9777624036818651
 51
106.3677462792748969
  0
ARC
  5
20786
  8
0
 10
3456.2180306034911155
 20
182.6001917388616107
 30
0.0
 40
0.0093645850154597
 50
106.3677462792753943
 51
154.6819609866244889
  0
LINE
  5
20787
  8
0
 10
3456.2095655060129502
 20
182.6041964332565044
 30
0.0
 11
3456.1977124532631933
 21
182.569062249757593
 31
0.0
  0
ARC
  5
20788
  8
0
 10
3456.2169601235691516
 20
182.5625825056349925
 30
0.0
 40
0.0203091086978401
 50
161.3941512350804999
 51
198.3246246817051031
  0
ARC
  5
20789
  8
0
 10
3456.2198005083478165
 20
182.5635232275446924
 30
0.0
 40
0.0233012222322879
 50
198.3246246817051031
 51
235.7022167903415095
  0
ARC
  5
2078A
  8
0
 10
3456.3672897681049108
 20
182.804447699628895
 30
0.0
 40
0.3057599237316503
 50
238.3107498843554026
 51
255.4708431806089095
  0
ARC
  5
2078B
  8
0
 10
3456.29631788503184
 20
182.5309745692115087
 30
0.0
 40
0.0232277277975665
 50
255.7058753621867879
 51
329.1576744860798271
  0
LINE
  5
2078C
  8
0
 10
3456.3162607802350976
 20
182.5190662414707106
 30
0.0
 11
3456.3363932493639368
 21
182.558428968592608
 31
0.0
  0
ARC
  5
2078D
  8
0
 10
3456.2675520029160907
 20
182.5198205105656939
 30
0.0
 40
0.0005558525089569
 50
358.2874156783728949
 51
34.8948562110962897
  0
ARC
  5
2078E
  8
0
 10
3456.2678914437087769
 20
182.5198103615780099
 30
0.0
 40
0.0002162600268667
 50
288.6529089745864098
 51
358.2874156771447929
  0
ARC
  5
2078F
  8
0
 10
3456.2672538326751237
 20
182.5216992127506046
 30
0.0
 40
0.0022098263243829
 50
256.5726954479312099
 51
288.6529089744478824
  0
ARC
  5
20790
  8
0
 10
3456.272159068666042
 20
182.5528906145381995
 30
0.0
 40
0.0337782380829639
 50
251.6550479403387044
 51
260.7692779459683265
  0
ARC
  5
20791
  8
0
 10
3456.3073507338231138
 20
182.6623971320483975
 30
0.0
 40
0.1487994289860933
 50
246.6888824132911964
 51
252.0642077756720028
  0
ARC
  5
20792
  8
0
 10
3456.3018407370391287
 20
182.6525931336952056
 30
0.0
 40
0.1376203620089869
 50
241.6182917211320955
 51
247.1803847758955897
  0
ARC
  5
20793
  8
0
 10
3456.2474956224441485
 20
182.5528927534273862
 30
0.0
 40
0.0240750214669978
 50
230.936050057580502
 51
242.6201282228001901
  0
ARC
  5
20794
  8
0
 10
3456.2605073615059155
 20
182.5134089776510962
 30
0.0
 40
0.0100769415401969
 50
41.8985568856653785
 51
63.9615247057750409
  0
ARC
  5
20795
  8
0
 10
3456.2056057832201077
 20
182.4179954384229916
 30
0.0
 40
0.1201372576082277
 50
60.4086229180930516
 51
66.9408053696055987
  0
ARC
  5
20796
  8
0
 10
3456.1888339392298803
 20
182.3828799815291859
 30
0.0
 40
0.1590250916687702
 50
66.336330744257495
 51
71.364219441008828
  0
ARC
  5
20797
  8
0
 10
3456.2260217363368611
 20
182.4947972473364928
 30
0.0
 40
0.041095710754583
 50
70.6318492588610809
 51
79.3783493715568369
  0
ARC
  5
20798
  8
0
 10
3456.2326111369861792
 20
182.5301126218139984
 30
0.0
 40
0.0051709664032276
 50
79.013460951354034
 51
94.5618589925891655
  0
ARC
  5
20799
  8
0
 10
3456.2322857610820392
 20
182.5346463982627938
 30
0.0
 40
0.0006267231265204
 50
97.8777679165291943
 51
128.7175185786585132
  0
ARC
  5
2079A
  8
0
 10
3456.2320210934021816
 20
182.5349765506034885
 30
0.0
 40
0.0002035806577469
 50
128.7175185770929033
 51
205.6239800005807012
  0
ARC
  5
2079B
  8
0
 10
3456.2341152436420089
 20
182.5359809771616995
 30
0.0
 40
0.0025261520648431
 50
205.6239800003345124
 51
224.8349842529495106
  0
ARC
  5
2079C
  8
0
 10
3456.121137780798108
 20
182.3640780904308087
 30
0.0
 40
0.2137825506841652
 50
69.299923605972154
 51
73.4805411942060971
  0
ARC
  5
2079D
  8
0
 10
3456.1286815100520471
 20
182.3895135688248956
 30
0.0
 40
0.1872519756395322
 50
73.4805411942060971
 51
84.9777624036818651
  0
ARC
  5
2079E
  8
0
 10
3456.1411535685519993
 20
182.531435412099114
 30
0.0
 40
0.0447831655735924
 50
84.9777624036818651
 51
106.3677462792748969
  0
ARC
  5
2079F
  8
0
 10
3456.1311725636010124
 20
182.5654185754144123
 30
0.0
 40
0.0093645850154597
 50
106.3677462792753943
 51
154.6819609866244889
  0
LINE
  5
207A0
  8
0
 10
3456.1227074661242114
 20
182.5694232698093913
 30
0.0
 11
3456.1108544133730902
 21
182.5342890863105083
 31
0.0
  0
ARC
  5
207A1
  8
0
 10
3456.130102083679958
 20
182.5278093421879078
 30
0.0
 40
0.0203091086978401
 50
161.3941512350804999
 51
198.3246246817051031
  0
ARC
  5
207A2
  8
0
 10
3456.1329424684581682
 20
182.528750064097494
 30
0.0
 40
0.0233012222322879
 50
198.3246246817051031
 51
235.7022167903415095
  0
ARC
  5
207A3
  8
0
 10
3456.2804317282138982
 20
182.7696745361818103
 30
0.0
 40
0.3057599237316503
 50
238.3107498843554026
 51
255.4708431806089095
  0
ARC
  5
207A4
  8
0
 10
3456.2094598451431011
 20
182.4962014057643955
 30
0.0
 40
0.0232277277975665
 50
255.7058753621867879
 51
329.1576744860798271
  0
LINE
  5
207A5
  8
0
 10
3456.2294027403449945
 20
182.4842930780235122
 30
0.0
 11
3456.2489523354311132
 21
182.5225161778215863
 31
0.0
  0
ARC
  5
207A6
  8
0
 10
3456.1806939630259876
 20
182.4850473471186092
 30
0.0
 40
0.0005558525089569
 50
358.2874156783728949
 51
34.8948562110962897
  0
ARC
  5
207A7
  8
0
 10
3456.1810334038191286
 20
182.4850371981308967
 30
0.0
 40
0.0002162600268667
 50
288.6529089745864098
 51
358.2874156771447929
  0
ARC
  5
207A8
  8
0
 10
3456.1803957927850206
 20
182.4869260493034062
 30
0.0
 40
0.0022098263243829
 50
256.5726954479312099
 51
288.6529089744478824
  0
ARC
  5
207A9
  8
0
 10
3456.1853010287768484
 20
182.5181174510910864
 30
0.0
 40
0.0337782380829639
 50
251.6550479403387044
 51
260.7692779459683265
  0
ARC
  5
207AA
  8
0
 10
3456.2204926939321012
 20
182.6276239686011991
 30
0.0
 40
0.1487994289860933
 50
246.6888824132911964
 51
252.0642077756720028
  0
ARC
  5
207AB
  8
0
 10
3456.2149826971490256
 20
182.6178199702480924
 30
0.0
 40
0.1376203620089869
 50
241.6182917211320955
 51
247.1803847758955897
  0
ARC
  5
207AC
  8
0
 10
3456.1606375825540454
 20
182.5181195899803015
 30
0.0
 40
0.0240750214669978
 50
230.936050057580502
 51
242.6201282228001901
  0
ARC
  5
207AD
  8
0
 10
3456.1736493216149029
 20
182.4786358142040115
 30
0.0
 40
0.0100769415401969
 50
41.8985568856653785
 51
63.9615247057750409
  0
ARC
  5
207AE
  8
0
 10
3456.1187477433290951
 20
182.3832222749759069
 30
0.0
 40
0.1201372576082277
 50
60.4086229180930516
 51
66.9408053696055987
  0
ARC
  5
207AF
  8
0
 10
3456.1019758993397772
 20
182.3481068180821012
 30
0.0
 40
0.1590250916687702
 50
66.336330744257495
 51
71.364219441008828
  0
ARC
  5
207B0
  8
0
 10
3456.1391636964472127
 20
182.4600240838894081
 30
0.0
 40
0.041095710754583
 50
70.6318492588610809
 51
79.3783493715568369
  0
ARC
  5
207B1
  8
0
 10
3456.1457530970960761
 20
182.4953394583668
 30
0.0
 40
0.0051709664032276
 50
79.013460951354034
 51
94.5618589925891655
  0
ARC
  5
207B2
  8
0
 10
3456.1454277211919361
 20
182.4998732348155954
 30
0.0
 40
0.0006267231265204
 50
97.8777679165291943
 51
128.7175185786585132
  0
ARC
  5
207B3
  8
0
 10
3456.1451630535120785
 20
182.5002033871562901
 30
0.0
 40
0.0002035806577469
 50
128.7175185770929033
 51
205.6239800005807012
  0
ARC
  5
207B4
  8
0
 10
3456.1472572037528153
 20
182.5012078137145011
 30
0.0
 40
0.0025261520648431
 50
205.6239800003345124
 51
224.8349842529495106
  0
ARC
  5
207B5
  8
0
 10
3456.0406086258331015
 20
182.3399487348472974
 30
0.0
 40
0.2137825506841652
 50
70.1682985143169304
 51
73.4805411942060971
  0
ARC
  5
207B6
  8
0
 10
3456.0481523550870406
 20
182.3653842132414127
 30
0.0
 40
0.1872519756395322
 50
73.4805411942060971
 51
84.9777624036818651
  0
ARC
  5
207B7
  8
0
 10
3456.0606244135879024
 20
182.5073060565156879
 30
0.0
 40
0.0447831655735924
 50
84.9777624036818651
 51
106.3677462792748969
  0
ARC
  5
207B8
  8
0
 10
3456.0506434086360059
 20
182.5412892198309862
 30
0.0
 40
0.0093645850154597
 50
106.3677462792753943
 51
154.6819609866244889
  0
LINE
  5
207B9
  8
0
 10
3456.0421783111592049
 20
182.5452939142259083
 30
0.0
 11
3456.0303252584089932
 21
182.5101597307269969
 31
0.0
  0
ARC
  5
207BA
  8
0
 10
3456.0495729287149516
 20
182.5036799866043964
 30
0.0
 40
0.0203091086978401
 50
161.3941512350804999
 51
198.3246246817051031
  0
ARC
  5
207BB
  8
0
 10
3456.0524133134931617
 20
182.5046207085140963
 30
0.0
 40
0.0233012222322879
 50
198.3246246817051031
 51
235.7022167903415095
  0
ARC
  5
207BC
  8
0
 10
3456.1999025732498012
 20
182.7455451805982989
 30
0.0
 40
0.3057599237316503
 50
238.3107498843554026
 51
255.4708431806089095
  0
ARC
  5
207BD
  8
0
 10
3456.1289306901780947
 20
182.4720720501809126
 30
0.0
 40
0.0232277277975665
 50
255.7058753621867879
 51
329.1576744860798271
  0
LINE
  5
207BE
  8
0
 10
3456.1488735853799881
 20
182.4601637224400861
 30
0.0
 11
3456.1628233496849134
 21
182.4874381100069911
 31
0.0
  0
ARC
  5
207BF
  8
0
 10
3456.1001648080618907
 20
182.4609179915350978
 30
0.0
 40
0.0005558525089569
 50
358.2874156783728949
 51
34.8948562110962897
  0
ARC
  5
207C0
  8
0
 10
3456.1005042488541221
 20
182.4609078425473001
 30
0.0
 40
0.0002162600268667
 50
288.6529089745864098
 51
358.2874156771447929
  0
ARC
  5
207C1
  8
0
 10
3456.0998666378209236
 20
182.4627966937200085
 30
0.0
 40
0.0022098263243829
 50
256.5726954479312099
 51
288.6529089744478824
  0
ARC
  5
207C2
  8
0
 10
3456.1047718738118419
 20
182.4939880955076035
 30
0.0
 40
0.0337782380829639
 50
251.6550479403387044
 51
260.7692779459683265
  0
ARC
  5
207C3
  8
0
 10
3456.1399635389680043
 20
182.6034946130178014
 30
0.0
 40
0.1487994289860933
 50
246.6888824132911964
 51
252.0642077756720028
  0
ARC
  5
207C4
  8
0
 10
3456.1344535421840192
 20
182.5936906146646095
 30
0.0
 40
0.1376203620089869
 50
241.6182917211320955
 51
247.1803847758955897
  0
ARC
  5
207C5
  8
0
 10
3456.0801084275899484
 20
182.4939902343967901
 30
0.0
 40
0.0240750214669978
 50
230.936050057580502
 51
242.6201282228001901
  0
ARC
  5
207C6
  8
0
 10
3456.0931201666508059
 20
182.4545064586206138
 30
0.0
 40
0.0100769415401969
 50
41.8985568856653785
 51
63.9615247057750409
  0
ARC
  5
207C7
  8
0
 10
3456.0382185883649981
 20
182.3590929193923955
 30
0.0
 40
0.1201372576082277
 50
60.4086229180930516
 51
66.9408053696055987
  0
ARC
  5
207C8
  8
0
 10
3456.0214467443752255
 20
182.3239774624987035
 30
0.0
 40
0.1590250916687702
 50
66.336330744257495
 51
71.364219441008828
  0
ARC
  5
207C9
  8
0
 10
3456.058634541480842
 20
182.4358947283060104
 30
0.0
 40
0.041095710754583
 50
70.6318492588610809
 51
79.3783493715568369
  0
ARC
  5
207CA
  8
0
 10
3456.0652239421319791
 20
182.4712101027834024
 30
0.0
 40
0.0051709664032276
 50
79.013460951354034
 51
94.5618589925891655
  0
ARC
  5
207CB
  8
0
 10
3456.0648985662269297
 20
182.4757438792321977
 30
0.0
 40
0.0006267231265204
 50
97.8777679165291943
 51
128.7175185786585132
  0
ARC
  5
207CC
  8
0
 10
3456.064633898547072
 20
182.4760740315728924
 30
0.0
 40
0.0002035806577469
 50
128.7175185770929033
 51
205.6239800005807012
  0
ARC
  5
207CD
  8
0
 10
3456.0667280487878088
 20
182.4770784581311034
 30
0.0
 40
0.0025261520648431
 50
205.6239800003345124
 51
224.8349842529495106
  0
ARC
  5
207CE
  8
0
 10
3456.3794953690189686
 20
182.3609516139665061
 30
0.0
 40
0.0065991633149204
 50
334.7508597071050076
 51
9.2533494777927991
  0
ARC
  5
207CF
  8
0
 10
3456.3737573140961103
 20
182.3600167680367861
 30
0.0
 40
0.0124128722182428
 50
9.2533494777863705
 51
42.6967198662162915
  0
ARC
  5
207D0
  8
0
 10
3456.3208279716482139
 20
182.3111805866469979
 30
0.0
 40
0.0844301472624744
 50
42.6967198662150906
 51
60.481058727381928
  0
ARC
  5
207D1
  8
0
 10
3456.2570945857191873
 20
182.1986190488593991
 30
0.0
 40
0.2137825506841652
 50
60.4810587273592475
 51
73.4805411942060971
  0
ARC
  5
207D2
  8
0
 10
3456.2646383149731264
 20
182.224054527253486
 30
0.0
 40
0.1872519756395322
 50
73.4805411942060971
 51
84.9777624036818651
  0
ARC
  5
207D3
  8
0
 10
3456.2771103734739881
 20
182.3659763705277896
 30
0.0
 40
0.0447831655735924
 50
84.9777624036818651
 51
106.3677462792748969
  0
ARC
  5
207D4
  8
0
 10
3456.2671293685220917
 20
182.3999595338430879
 30
0.0
 40
0.0093645850154597
 50
106.3677462792753943
 51
154.6819609866244889
  0
LINE
  5
207D5
  8
0
 10
3456.2586642710439264
 20
182.4039642282380953
 30
0.0
 11
3456.246811218295079
 21
182.3688300447392123
 31
0.0
  0
ARC
  5
207D6
  8
0
 10
3456.2660588886001278
 20
182.3623503006166118
 30
0.0
 40
0.0203091086978401
 50
161.3941512350804999
 51
198.3246246817051031
  0
ARC
  5
207D7
  8
0
 10
3456.2688992733787927
 20
182.363291022526198
 30
0.0
 40
0.0233012222322879
 50
198.3246246817051031
 51
235.7022167903415095
  0
ARC
  5
207D8
  8
0
 10
3456.416388533135887
 20
182.6042154946104858
 30
0.0
 40
0.3057599237316503
 50
238.3107498843554026
 51
255.4708431806089095
  0
ARC
  5
207D9
  8
0
 10
3456.3454166500641804
 20
182.3307423641930995
 30
0.0
 40
0.0232277277975665
 50
255.7058753621867879
 51
329.1576744860798271
  0
LINE
  5
207DA
  8
0
 10
3456.3653595452660738
 20
182.3188340364521878
 30
0.0
 11
3456.3854920143958225
 21
182.3581967635741137
 31
0.0
  0
ARC
  5
207DB
  8
0
 10
3456.3166507679479764
 20
182.3195883055473132
 30
0.0
 40
0.0005558525089569
 50
358.2874156783728949
 51
34.8948562110962897
  0
ARC
  5
207DC
  8
0
 10
3456.3169902087402079
 20
182.3195781565594871
 30
0.0
 40
0.0002162600268667
 50
288.6529089745864098
 51
358.2874156771447929
  0
ARC
  5
207DD
  8
0
 10
3456.3163525977070094
 20
182.3214670077321102
 30
0.0
 40
0.0022098263243829
 50
256.5726954479312099
 51
288.6529089744478824
  0
ARC
  5
207DE
  8
0
 10
3456.3212578336979277
 20
182.3526584095197904
 30
0.0
 40
0.0337782380829639
 50
251.6550479403387044
 51
260.7692779459683265
  0
ARC
  5
207DF
  8
0
 10
3456.3564494988540901
 20
182.4621649270299031
 30
0.0
 40
0.1487994289860933
 50
246.6888824132911964
 51
252.0642077756720028
  0
ARC
  5
207E0
  8
0
 10
3456.3509395020701049
 20
182.4523609286767964
 30
0.0
 40
0.1376203620089869
 50
241.6182917211320955
 51
247.1803847758955897
  0
ARC
  5
207E1
  8
0
 10
3456.2965943874760342
 20
182.3526605484088918
 30
0.0
 40
0.0240750214669978
 50
230.936050057580502
 51
242.6201282228001901
  0
ARC
  5
207E2
  8
0
 10
3456.3096061265368917
 20
182.3131767726326871
 30
0.0
 40
0.0100769415401969
 50
41.8985568856653785
 51
63.9615247057750409
  0
ARC
  5
207E3
  8
0
 10
3456.2547045482510839
 20
182.2177632334046109
 30
0.0
 40
0.1201372576082277
 50
60.4086229180930516
 51
66.9408053696055987
  0
ARC
  5
207E4
  8
0
 10
3456.2379327042608566
 20
182.1826477765108052
 30
0.0
 40
0.1590250916687702
 50
66.336330744257495
 51
71.364219441008828
  0
ARC
  5
207E5
  8
0
 10
3456.2751205013678373
 20
182.2945650423181121
 30
0.0
 40
0.041095710754583
 50
70.6318492588610809
 51
79.3783493715568369
  0
ARC
  5
207E6
  8
0
 10
3456.2817099020180649
 20
182.3298804167955041
 30
0.0
 40
0.0051709664032276
 50
79.013460951354034
 51
94.5618589925891655
  0
ARC
  5
207E7
  8
0
 10
3456.2813845261130155
 20
182.3344141932442994
 30
0.0
 40
0.0006267231265204
 50
97.8777679165291943
 51
128.7175185786585132
  0
ARC
  5
207E8
  8
0
 10
3456.2811198584340673
 20
182.3347443455849941
 30
0.0
 40
0.0002035806577469
 50
128.7175185770929033
 51
205.6239800005807012
  0
ARC
  5
207E9
  8
0
 10
3456.2832140086729851
 20
182.3357487721432051
 30
0.0
 40
0.0025261520648431
 50
205.6239800003345124
 51
224.8349842529495106
  0
ARC
  5
207EA
  8
0
 10
3455.9880738214092162
 20
182.7102523462295096
 30
0.0
 40
0.0065991633149204
 50
334.7508597071050076
 51
9.2533494777927991
  0
ARC
  5
207EB
  8
0
 10
3455.9823357664849937
 20
182.7093175002997896
 30
0.0
 40
0.0124128722182428
 50
9.2533494777863705
 51
42.6967198662162915
  0
ARC
  5
207EC
  8
0
 10
3455.9294064240370972
 20
182.6604813189100014
 30
0.0
 40
0.0844301472624744
 50
42.6967198662150906
 51
60.481058727381928
  0
ARC
  5
207ED
  8
0
 10
3455.8656730381089801
 20
182.5479197811224878
 30
0.0
 40
0.2137825506841652
 50
60.4810587273592475
 51
73.4805411942060971
  0
ARC
  5
207EE
  8
0
 10
3455.8732167673638287
 20
182.5733552595166032
 30
0.0
 40
0.1872519756395322
 50
73.4805411942060971
 51
84.9777624036818651
  0
ARC
  5
207EF
  8
0
 10
3455.8856888258628715
 20
182.7152771027907932
 30
0.0
 40
0.0447831655735924
 50
84.9777624036818651
 51
106.3677462792748969
  0
ARC
  5
207F0
  8
0
 10
3455.8757078209118845
 20
182.7492602661062051
 30
0.0
 40
0.0093645850154597
 50
106.3677462792753943
 51
154.6819609866244889
  0
LINE
  5
207F1
  8
0
 10
3455.867242723434174
 20
182.7532649605010988
 30
0.0
 11
3455.8553896706848718
 21
182.7181307770021874
 31
0.0
  0
ARC
  5
207F2
  8
0
 10
3455.8746373409899206
 20
182.7116510328795869
 30
0.0
 40
0.0203091086978401
 50
161.3941512350804999
 51
198.3246246817051031
  0
ARC
  5
207F3
  8
0
 10
3455.8774777257690403
 20
182.7125917547892016
 30
0.0
 40
0.0233012222322879
 50
198.3246246817051031
 51
235.7022167903415095
  0
ARC
  5
207F4
  8
0
 10
3456.0249669855261345
 20
182.9535162268734894
 30
0.0
 40
0.3057599237316503
 50
238.3107498843554026
 51
255.4708431806089095
  0
ARC
  5
207F5
  8
0
 10
3455.9539951024530637
 20
182.6800430964561031
 30
0.0
 40
0.0232277277975665
 50
255.7058753621867879
 51
329.1576744860798271
  0
LINE
  5
207F6
  8
0
 10
3455.9739379976567761
 20
182.6681347687151913
 30
0.0
 11
3455.9940704667851605
 21
182.7074974958370888
 31
0.0
  0
ARC
  5
207F7
  8
0
 10
3455.9252292203368597
 20
182.6688890378102883
 30
0.0
 40
0.0005558525089569
 50
358.2874156783728949
 51
34.8948562110962897
  0
ARC
  5
207F8
  8
0
 10
3455.9255686611300007
 20
182.6688788888224906
 30
0.0
 40
0.0002162600268667
 50
288.6529089745864098
 51
358.2874156771447929
  0
ARC
  5
207F9
  8
0
 10
3455.9249310500968022
 20
182.6707677399951137
 30
0.0
 40
0.0022098263243829
 50
256.5726954479312099
 51
288.6529089744478824
  0
ARC
  5
207FA
  8
0
 10
3455.9298362860881753
 20
182.7019591417827939
 30
0.0
 40
0.0337782380829639
 50
251.6550479403387044
 51
260.7692779459683265
  0
ARC
  5
207FB
  8
0
 10
3455.9650279512429734
 20
182.8114656592929066
 30
0.0
 40
0.1487994289860933
 50
246.6888824132911964
 51
252.0642077756720028
  0
ARC
  5
207FC
  8
0
 10
3455.9595179544598977
 20
182.8016616609398
 30
0.0
 40
0.1376203620089869
 50
241.6182917211320955
 51
247.1803847758955897
  0
ARC
  5
207FD
  8
0
 10
3455.9051728398649175
 20
182.7019612806718953
 30
0.0
 40
0.0240750214669978
 50
230.936050057580502
 51
242.6201282228001901
  0
ARC
  5
207FE
  8
0
 10
3455.918184578925775
 20
182.6624775048956906
 30
0.0
 40
0.0100769415401969
 50
41.8985568856653785
 51
63.9615247057750409
  0
ARC
  5
207FF
  8
0
 10
3455.8632830006408767
 20
182.567063965667586
 30
0.0
 40
0.1201372576082277
 50
60.4086229180930516
 51
66.9408053696055987
  0
ARC
  5
20800
  8
0
 10
3455.8465111566501946
 20
182.5319485087738087
 30
0.0
 40
0.1590250916687702
 50
66.336330744257495
 51
71.364219441008828
  0
ARC
  5
20801
  8
0
 10
3455.8836989537580848
 20
182.6438657745810872
 30
0.0
 40
0.041095710754583
 50
70.6318492588610809
 51
79.3783493715568369
  0
ARC
  5
20802
  8
0
 10
3455.8902883544069482
 20
182.6791811490585076
 30
0.0
 40
0.0051709664032276
 50
79.013460951354034
 51
94.5618589925891655
  0
ARC
  5
20803
  8
0
 10
3455.8899629785028083
 20
182.683714925507303
 30
0.0
 40
0.0006267231265204
 50
97.8777679165291943
 51
128.7175185786585132
  0
ARC
  5
20804
  8
0
 10
3455.8896983108229506
 20
182.6840450778481113
 30
0.0
 40
0.0002035806577469
 50
128.7175185770929033
 51
205.6239800005807012
  0
ARC
  5
20805
  8
0
 10
3455.8917924610627779
 20
182.6850495044062086
 30
0.0
 40
0.0025261520648431
 50
205.6239800003345124
 51
224.8349842529495106
  0
ARC
  5
20806
  8
0
 10
3455.9576724529929379
 20
182.6465780982971125
 30
0.0
 40
0.0065991633149204
 50
334.7508597071050076
 51
9.2533494777927991
  0
ARC
  5
20807
  8
0
 10
3455.9519343980709891
 20
182.6456432523673925
 30
0.0
 40
0.0124128722182428
 50
9.2533494777863705
 51
42.6967198662162915
  0
ARC
  5
20808
  8
0
 10
3455.8990050556221831
 20
182.5968070709776043
 30
0.0
 40
0.0844301472624744
 50
42.6967198662150906
 51
45.6384908389327322
  0
ARC
  5
20809
  8
0
 10
3455.8428153989480052
 20
182.5096810115842061
 30
0.0
 40
0.1872519756395322
 50
84.403538247395602
 51
84.9777624036818651
  0
ARC
  5
2080A
  8
0
 10
3455.8552874574488669
 20
182.6516028548585098
 30
0.0
 40
0.0447831655735924
 50
84.9777624036818651
 51
106.3677462792748969
  0
ARC
  5
2080B
  8
0
 10
3455.8453064524969705
 20
182.685586018173808
 30
0.0
 40
0.0093645850154597
 50
106.3677462792753943
 51
154.6819609866244889
  0
LINE
  5
2080C
  8
0
 10
3455.8368413550188052
 20
182.6895907125687017
 30
0.0
 11
3455.8249883022690483
 21
182.6544565290697903
 31
0.0
  0
ARC
  5
2080D
  8
0
 10
3455.8442359725759161
 20
182.6479767849471898
 30
0.0
 40
0.0203091086978401
 50
161.3941512350804999
 51
198.3246246817051031
  0
ARC
  5
2080E
  8
0
 10
3455.8470763573541262
 20
182.6489175068568898
 30
0.0
 40
0.0233012222322879
 50
198.3246246817051031
 51
235.7022167903415095
  0
ARC
  5
2080F
  8
0
 10
3455.9945656171098562
 20
182.8898419789410923
 30
0.0
 40
0.3057599237316503
 50
238.3107498843554026
 51
255.4708431806089095
  0
ARC
  5
20810
  8
0
 10
3455.9235937340381497
 20
182.616368848523706
 30
0.0
 40
0.0232277277975665
 50
255.7058753621867879
 51
329.1576744860798271
  0
LINE
  5
20811
  8
0
 10
3455.9435366292409526
 20
182.6044605207829079
 30
0.0
 11
3455.9636690983697918
 21
182.6438232479046917
 31
0.0
  0
ARC
  5
20812
  8
0
 10
3455.8948278519219457
 20
182.6052147898778912
 30
0.0
 40
0.0005558525089569
 50
358.2874156783728949
 51
34.8948562110962897
  0
ARC
  5
20813
  8
0
 10
3455.8951672927150867
 20
182.6052046408902072
 30
0.0
 40
0.0002162600268667
 50
288.6529089745864098
 51
358.2874156771447929
  0
ARC
  5
20814
  8
0
 10
3455.8945296816809787
 20
182.6070934920628019
 30
0.0
 40
0.0022098263243829
 50
256.5726954479312099
 51
288.6529089744478824
  0
ARC
  5
20815
  8
0
 10
3455.8994349176728065
 20
182.6382848938503969
 30
0.0
 40
0.0337782380829639
 50
251.6550479403387044
 51
260.7692779459683265
  0
ARC
  5
20816
  8
0
 10
3455.9346265828280593
 20
182.7477914113605948
 30
0.0
 40
0.1487994289860933
 50
246.6888824132911964
 51
252.0642077756720028
  0
ARC
  5
20817
  8
0
 10
3455.9291165860449837
 20
182.7379874130074029
 30
0.0
 40
0.1376203620089869
 50
241.6182917211320955
 51
247.1803847758955897
  0
ARC
  5
20818
  8
0
 10
3455.8747714714500034
 20
182.638287032739612
 30
0.0
 40
0.0240750214669978
 50
230.936050057580502
 51
242.6201282228001901
  0
ARC
  5
20819
  8
0
 10
3455.887783210510861
 20
182.5988032569634072
 30
0.0
 40
0.0100769415401969
 50
41.8985568856653785
 51
63.9615247057750409
  0
ARC
  5
2081A
  8
0
 10
3455.8328816322250532
 20
182.5033897177351889
 30
0.0
 40
0.1201372576082277
 50
60.4086229180930516
 51
66.9408053696055987
  0
ARC
  5
2081B
  8
0
 10
3455.8161097882361901
 20
182.4682742608414117
 30
0.0
 40
0.1590250916687702
 50
66.336330744257495
 51
71.364219441008828
  0
ARC
  5
2081C
  8
0
 10
3455.8532975853418066
 20
182.5801915266486901
 30
0.0
 40
0.041095710754583
 50
70.6318492588610809
 51
79.3783493715568369
  0
ARC
  5
2081D
  8
0
 10
3455.8598869859920342
 20
182.6155069011261958
 30
0.0
 40
0.0051709664032276
 50
79.013460951354034
 51
94.5618589925891655
  0
ARC
  5
2081E
  8
0
 10
3455.8595616100878942
 20
182.6200406775749912
 30
0.0
 40
0.0006267231265204
 50
97.8777679165291943
 51
128.7175185786585132
  0
ARC
  5
2081F
  8
0
 10
3455.8592969424080366
 20
182.6203708299156858
 30
0.0
 40
0.0002035806577469
 50
128.7175185770929033
 51
205.6239800005807012
  0
ARC
  5
20820
  8
0
 10
3455.8613910926487733
 20
182.6213752564738115
 30
0.0
 40
0.0025261520648431
 50
205.6239800003345124
 51
224.8349842529495106
  0
ARC
  5
20821
  8
0
 10
3455.9021631472501213
 20
182.5467811725906984
 30
0.0
 40
0.0065991633149204
 50
334.7508597071050076
 51
9.2533494777927991
  0
ARC
  5
20822
  8
0
 10
3455.8964250923281725
 20
182.5458463266610067
 30
0.0
 40
0.0124128722182428
 50
9.2533494777863705
 51
42.6967198662162915
  0
ARC
  5
20823
  8
0
 10
3455.8434957498780022
 20
182.4970101452711901
 30
0.0
 40
0.0844301472624744
 50
42.6967198662150906
 51
60.481058727381928
  0
ARC
  5
20824
  8
0
 10
3455.7797623639498852
 20
182.3844486074837903
 30
0.0
 40
0.2137825506841652
 50
60.4810587273592475
 51
73.4805411942060971
  0
ARC
  5
20825
  8
0
 10
3455.7873060932051885
 20
182.4098840858777919
 30
0.0
 40
0.1872519756395322
 50
73.4805411942060971
 51
84.9777624036818651
  0
ARC
  5
20826
  8
0
 10
3455.7997781517060503
 20
182.5518059291520956
 30
0.0
 40
0.0447831655735924
 50
84.9777624036818651
 51
106.3677462792748969
  0
ARC
  5
20827
  8
0
 10
3455.7897971467541538
 20
182.5857890924673939
 30
0.0
 40
0.0093645850154597
 50
106.3677462792753943
 51
154.6819609866244889
  0
LINE
  5
20828
  8
0
 10
3455.7813320492759885
 20
182.5897937868622876
 30
0.0
 11
3455.7694789965257769
 21
182.5546596033634046
 31
0.0
  0
ARC
  5
20829
  8
0
 10
3455.7887266668321899
 20
182.548179859240804
 30
0.0
 40
0.0203091086978401
 50
161.3941512350804999
 51
198.3246246817051031
  0
ARC
  5
2082A
  8
0
 10
3455.7915670516108548
 20
182.549120581150504
 30
0.0
 40
0.0233012222322879
 50
198.3246246817051031
 51
235.7022167903415095
  0
ARC
  5
2082B
  8
0
 10
3455.9390563113670396
 20
182.7900450532347065
 30
0.0
 40
0.3057599237316503
 50
238.3107498843554026
 51
255.4708431806089095
  0
ARC
  5
2082C
  8
0
 10
3455.8680844282957878
 20
182.5165719228172918
 30
0.0
 40
0.0232277277975665
 50
255.7058753621867879
 51
329.1576744860798271
  0
LINE
  5
2082D
  8
0
 10
3455.888027323498136
 20
182.5046635950764937
 30
0.0
 11
3455.9081597926269751
 21
182.5440263221983059
 31
0.0
  0
ARC
  5
2082E
  8
0
 10
3455.839318546179129
 20
182.5054178641715055
 30
0.0
 40
0.0005558525089569
 50
358.2874156783728949
 51
34.8948562110962897
  0
ARC
  5
2082F
  8
0
 10
3455.8396579869731795
 20
182.505407715183793
 30
0.0
 40
0.0002162600268667
 50
288.6529089745864098
 51
358.2874156771447929
  0
ARC
  5
20830
  8
0
 10
3455.839020375938162
 20
182.5072965663563878
 30
0.0
 40
0.0022098263243829
 50
256.5726954479312099
 51
288.6529089744478824
  0
ARC
  5
20831
  8
0
 10
3455.8439256119290803
 20
182.5384879681440111
 30
0.0
 40
0.0337782380829639
 50
251.6550479403387044
 51
260.7692779459683265
  0
ARC
  5
20832
  8
0
 10
3455.8791172770847879
 20
182.647994485654209
 30
0.0
 40
0.1487994289860933
 50
246.6888824132911964
 51
252.0642077756720028
  0
ARC
  5
20833
  8
0
 10
3455.8736072803021671
 20
182.6381904873009887
 30
0.0
 40
0.1376203620089869
 50
241.6182917211320955
 51
247.1803847758955897
  0
ARC
  5
20834
  8
0
 10
3455.8192621657071868
 20
182.5384901070331978
 30
0.0
 40
0.0240750214669978
 50
230.936050057580502
 51
242.6201282228001901
  0
ARC
  5
20835
  8
0
 10
3455.8322739047680443
 20
182.499006331256993
 30
0.0
 40
0.0100769415401969
 50
41.8985568856653785
 51
63.9615247057750409
  0
ARC
  5
20836
  8
0
 10
3455.7773723264817818
 20
182.4035927920288032
 30
0.0
 40
0.1201372576082277
 50
60.4086229180930516
 51
66.9408053696055987
  0
ARC
  5
20837
  8
0
 10
3455.7606004824920092
 20
182.3684773351351112
 30
0.0
 40
0.1590250916687702
 50
66.336330744257495
 51
71.364219441008828
  0
ARC
  5
20838
  8
0
 10
3455.7977882795989899
 20
182.4803946009423044
 30
0.0
 40
0.041095710754583
 50
70.6318492588610809
 51
79.3783493715568369
  0
ARC
  5
20839
  8
0
 10
3455.8043776802492175
 20
182.51570997541981
 30
0.0
 40
0.0051709664032276
 50
79.013460951354034
 51
94.5618589925891655
  0
ARC
  5
2083A
  8
0
 10
3455.8040523043441681
 20
182.5202437518686054
 30
0.0
 40
0.0006267231265204
 50
97.8777679165291943
 51
128.7175185786585132
  0
ARC
  5
2083B
  8
0
 10
3455.8037876366652199
 20
182.5205739042093001
 30
0.0
 40
0.0002035806577469
 50
128.7175185770929033
 51
205.6239800005807012
  0
ARC
  5
2083C
  8
0
 10
3455.8058817869050472
 20
182.5215783307673973
 30
0.0
 40
0.0025261520648431
 50
205.6239800003345124
 51
224.8349842529495106
  0
LINE
  5
2083D
  8
0
 10
3456.3179518694628314
 20
182.3147343135204892
 30
0.0
 11
3456.315895891963919
 21
182.3108827245507939
 31
0.0
  0
ARC
  5
2083E
  8
0
 10
3456.2984595763828111
 20
182.3201902266696948
 30
0.0
 40
0.0197649866363263
 50
247.7564904682199938
 51
331.9067083177341146
  0
ARC
  5
2083F
  8
0
 10
3456.9301689707808691
 20
183.8647929133848038
 30
0.0
 40
1.688553235270164
 50
244.4308229752795967
 51
247.7564904682199938
  0
ARC
  5
20840
  8
0
 10
3456.2100823941550516
 20
182.3597790587153895
 30
0.0
 40
0.0201433993533059
 50
178.6020607751540012
 51
244.4308229752795967
  0
LINE
  5
20841
  8
0
 10
3456.2136574579631088
 20
182.4034488619938088
 30
0.0
 11
3456.1920871332749812
 21
182.3634543276417048
 31
0.0
  0
ARC
  5
20842
  8
0
 10
3456.1747625772750325
 20
182.3727980118231073
 30
0.0
 40
0.0196836143696117
 50
320.4727889631381004
 51
331.6606030096842233
  0
ARC
  5
20843
  8
0
 10
3456.1746417128360918
 20
182.37289774122371
 30
0.0
 40
0.0198403120601505
 50
240.0756342370002017
 51
320.4727889630976847
  0
LINE
  5
20844
  8
0
 10
3456.1647442471071372
 20
182.3557024466697101
 30
0.0
 11
3456.0778025417439494
 21
182.394718122422006
 31
0.0
  0
ARC
  5
20845
  8
0
 10
3456.0860201499349387
 20
182.4126058749857862
 30
0.0
 40
0.0196850393999908
 50
160.0202197817968965
 51
245.3260168569655946
  0
LINE
  5
20846
  8
0
 10
3456.0675198888479827
 20
182.4193320266269893
 30
0.0
 11
3456.080011083491172
 21
182.4536890222024965
 31
0.0
  0
ARC
  5
20847
  8
0
 10
3455.9336184107150984
 20
181.8590481935817991
 30
0.0
 40
0.612395729659498
 50
62.7856246536425928
 51
76.1695733331187199
  0
ARC
  5
20848
  8
0
 10
3454.1177036837661944
 20
183.5235312048658898
 30
0.0
 40
2.2282305757026131
 50
331.1652543656217063
 51
331.6357172855242084
  0
ARC
  5
20849
  8
0
 10
3456.0535873559119864
 20
182.4577408612626073
 30
0.0
 40
0.0183539618168763
 50
241.9849934091870978
 51
331.1652543656670105
  0
LINE
  5
2084A
  8
0
 10
3456.0449664485931862
 20
182.4415375322411137
 30
0.0
 11
3455.963127405439991
 21
182.4782378254477067
 31
0.0
  0
ARC
  5
2084B
  8
0
 10
3455.9719519217587731
 20
182.4961955382086103
 30
0.0
 40
0.0200087864666215
 50
160.1491686108687134
 51
243.8302508037702978
  0
LINE
  5
2084C
  8
0
 10
3455.9531320598080129
 20
182.5029899721075139
 30
0.0
 11
3455.96631736073914
 21
182.5395118585520038
 31
0.0
  0
ARC
  5
2084D
  8
0
 10
3455.953639798074164
 20
182.3526051927308913
 30
0.0
 40
0.1871544357218496
 50
64.514997111790791
 51
72.0809897109280371
  0
ARC
  5
2084E
  8
0
 10
3455.8402712628471818
 20
182.0020072180637953
 30
0.0
 40
0.5556260962606855
 50
72.080989710952835
 51
75.4448858300248162
  0
ARC
  5
2084F
  8
0
 10
3455.9713470390402108
 20
182.5068358512133102
 30
0.0
 40
0.0340584516044972
 50
75.4448858300260241
 51
94.6950737563665257
  0
ARC
  5
20850
  8
0
 10
3455.9688105731552241
 20
182.5377199996744935
 30
0.0
 40
0.0030703202416762
 50
94.6950737563925742
 51
144.2953928598203959
  0
ARC
  5
20851
  8
0
 10
3458.2227871748150392
 20
187.5101310379573079
 30
0.0
 40
5.4962373857598861
 50
245.0039001879102045
 51
245.6149255672889922
  0
LINE
  5
20852
  8
0
 10
3456.0709673132400894
 20
182.4512566634024893
 30
0.0
 11
3456.0779895291680077
 21
182.4481287427489917
 31
0.0
  0
LINE
  5
20853
  8
0
 10
3456.2095701326211383
 20
182.3958703634716016
 30
0.0
 11
3456.2511960189440288
 21
182.3818272357482044
 31
0.0
  0
ARC
  5
20854
  8
0
 10
3453.8848239570920668
 20
177.5536253754065115
 30
0.0
 40
5.4104838075692188
 50
59.2693771006409094
 51
60.5829099150154704
  0
ARC
  5
20855
  8
0
 10
3457.6173320231569051
 20
184.9259098613599974
 30
0.0
 40
2.7931647646953359
 50
262.5637773154356864
 51
266.9039270562925026
  0
ARC
  5
20856
  8
0
 10
3458.0997233366852015
 20
190.6677163567806019
 30
0.0
 40
7.4008079623383631
 50
242.1658266569060061
 51
245.8697315041401055
  0
ARC
  5
20857
  8
0
 10
3429.9584068916201431
 20
127.8460742321462931
 30
0.0
 40
61.4359003443265905
 50
64.6942842294757696
 51
65.8697315041401197
  0
ARC
  5
20858
  8
0
 10
3466.6296211020330702
 20
205.404601293904193
 30
0.0
 40
24.3551427292680494
 50
244.6942842294758123
 51
247.7966658999193044
  0
ARC
  5
20859
  8
0
 10
3455.0676668646838152
 20
178.0568146430364891
 30
0.0
 40
5.3467879312184161
 50
56.2143787719767474
 51
63.8282105839157623
  0
ARC
  5
2085A
  8
0
 10
3454.6240892826281197
 20
176.597650032278608
 30
0.0
 40
6.8205882327060818
 50
33.4277486258406569
 51
59.9363184017771999
  0
LINE
  5
2085B
  8
0
 10
3458.8000132147330987
 20
182.4450839607611954
 30
0.0
 11
3458.176777461374968
 21
181.6488352666223136
 31
0.0
  0
ARC
  5
2085C
  8
0
 10
3454.0074366497301526
 20
176.014895893094689
 30
0.0
 40
8.0197940335801263
 50
34.3916517122122727
 51
53.3012910721256219
  0
ARC
  5
2085D
  8
0
 10
3460.7741378247219473
 20
178.1399773880683028
 30
0.0
 40
0.039370078700018
 50
64.4475929344079503
 51
109.999809388789302
  0
LINE
  5
2085E
  8
0
 10
3460.7203200082208241
 20
178.1497169867683112
 30
0.0
 11
3461.5712167107208188
 21
178.4594190526682951
 31
0.0
  0
LINE
  5
2085F
  8
0
 10
3461.5712167107208188
 20
178.4594190526682951
 30
0.0
 11
3461.6205187138220936
 21
178.3041422824682911
 31
0.0
  0
LINE
  5
20860
  8
0
 10
3460.7203200082208241
 20
178.1497169867683112
 30
0.0
 11
3460.7714948304928839
 21
178.0254648048019988
 31
0.0
  0
ARC
  5
20861
  8
0
 10
3461.5586794825949255
 20
178.2776322574154051
 30
0.0
 40
0.0396699471802362
 50
149.5471945475707969
 51
199.4239343053608877
  0
ARC
  5
20862
  8
0
 10
3461.5557679011481014
 20
178.2793440811144876
 30
0.0
 40
0.0362924263587991
 50
104.7030807195984039
 51
149.5471945475547955
  0
ARC
  5
20863
  8
0
 10
3461.4233844726218194
 20
177.541826464968409
 30
0.0
 40
0.7874015747999052
 50
62.8963248771274124
 51
79.244036420487646
  0
ARC
  5
20864
  8
0
 10
3461.4233844726218194
 20
177.5418264649682953
 30
0.0
 40
0.7874015747999664
 50
46.100371304226357
 51
62.8963248771274124
  0
ARC
  5
20865
  8
0
 10
3461.4233844726218194
 20
177.5418264649682953
 30
0.0
 40
0.7874015747999304
 50
27.1513857993727612
 51
46.100371304227501
  0
ARC
  5
20866
  8
0
 10
3461.4233844726218194
 20
177.5418264649682953
 30
0.0
 40
0.7874015748001284
 50
0.0000000000016284
 51
27.1513857993698586
  0
ARC
  5
20867
  8
0
 10
3461.4233844726218194
 20
177.5418264649682953
 30
0.0
 40
0.7874015747999877
 50
342.8759222978994217
 51
0.0
  0
ARC
  5
20868
  8
0
 10
3461.4233844726218194
 20
177.5418264649682101
 30
0.0
 40
0.7874015747998808
 50
334.2087926312294144
 51
342.8759222979010133
  0
ARC
  5
20869
  8
0
 10
3461.4233844726218194
 20
177.5418264649682101
 30
0.0
 40
0.7874015747997986
 50
321.4444095980524025
 51
334.2087926312323134
  0
ARC
  5
2086A
  8
0
 10
3461.3570173191569666
 20
177.5993426428780992
 30
0.0
 40
0.8751567176484805
 50
312.7214312108300192
 51
321.2078707088058991
  0
LINE
  5
2086B
  8
0
 10
3461.5212673972250741
 20
178.2644398134657138
 30
0.0
 11
3461.9739917417678043
 21
176.9786641091023114
 31
0.0
  0
ARC
  5
2086C
  8
0
 10
3461.3883060363527875
 20
177.5336433904010107
 30
0.0
 40
0.841041580876168
 50
54.323640147644781
 51
74.9036462662504334
  0
ARC
  5
2086D
  8
0
 10
3461.3482456504038964
 20
177.4778448962553057
 30
0.0
 40
0.9097315107883112
 50
47.4760248416449713
 51
54.323640147644781
  0
ARC
  5
2086E
  8
0
 10
3461.9501331098308583
 20
178.1341382419358013
 30
0.0
 40
0.0192319490815447
 50
0.1165517558819342
 51
47.476024841643877
  0
LINE
  5
2086F
  8
0
 10
3461.9693650191220513
 20
178.1341773637682877
 30
0.0
 11
3461.9693664873780108
 21
178.1091930832673995
 31
0.0
  0
ARC
  5
20870
  8
0
 10
3461.536250451621072
 20
178.417364589468292
 30
0.0
 40
0.0393700787000226
 50
110.0003087791018004
 51
155.5525252400722991
  0
LINE
  5
20871
  8
0
 10
3461.9693370349700672
 20
176.9740716247804926
 30
0.0
 11
3461.9693677105219649
 21
176.9230356480682929
 31
0.0
  0
ARC
  5
20872
  8
0
 10
3461.9498366555458233
 20
176.9230239087829943
 30
0.0
 40
0.0195310585038209
 50
328.7981775538694933
 51
0.0344380486988061
  0
ARC
  5
20873
  8
0
 10
3461.5932083880411483
 20
178.2731337824183981
 30
0.0
 40
0.0370101909677967
 50
85.2907526259193247
 51
130.3100155804982023
  0
ARC
  5
20874
  8
0
 10
3461.5984569841079974
 20
178.2613090379296921
 30
0.0
 40
0.0495570533516663
 50
126.0892800510072931
 51
154.5673015208606955
  0
ARC
  5
20875
  8
0
 10
3461.5904700319820222
 20
178.2645631791652079
 30
0.0
 40
0.0409495673942467
 50
153.8799833919819093
 51
188.3436900147191011
  0
LINE
  5
20876
  8
0
 10
3461.5499538983640377
 20
178.2586209585049062
 30
0.0
 11
3462.0039097989752008
 21
177.0099112219299116
 31
0.0
  0
ARC
  5
20877
  8
0
 10
3461.5012534372640403
 20
178.458489058930212
 30
0.0
 40
1.7794257481971889
 50
259.2940885690226196
 51
267.4655567348706882
  0
ARC
  5
20878
  8
0
 10
3461.3866899208219365
 20
177.5284706975681956
 30
0.0
 40
0.8464566928999078
 50
234.4513150780722981
 51
255.2158875591584888
  0
ARC
  5
20879
  8
0
 10
3461.3866830344268237
 20
177.5284610605312139
 30
0.0
 40
0.8464448482848203
 50
227.0775899315808886
 51
234.4513150780722981
  0
ARC
  5
2087A
  8
0
 10
3460.8235563325101793
 20
176.9229396795248874
 30
0.0
 40
0.0195422994509263
 50
180.5149789642088081
 51
227.0775899315808886
  0
LINE
  5
2087B
  8
0
 10
3460.8040148224208679
 20
176.9227640341682957
 30
0.0
 11
3460.8040133281610906
 21
176.9735244145408899
 31
0.0
  0
ARC
  5
2087C
  8
0
 10
3461.3877152916152227
 20
177.5889235651258105
 30
0.0
 40
0.848188715252149
 50
226.5142110950860967
 51
236.1422731745381043
  0
ARC
  5
2087D
  8
0
 10
3461.3866898599208071
 20
177.5875258156683003
 30
0.0
 40
0.8464566928999776
 50
236.1472016690412943
 51
258.1258584552218736
  0
ARC
  5
2087E
  8
0
 10
3461.4049343216370289
 20
177.7071561819408885
 30
0.0
 40
0.9673048604262987
 50
258.5263546116362932
 51
269.7712802557381906
  0
LINE
  5
2087F
  8
0
 10
3460.8374779256218972
 20
176.9434332879671103
 30
0.0
 11
3460.8374779045620926
 21
176.9639137915625895
 31
0.0
  0
ARC
  5
20880
  8
0
 10
3461.3906113887142055
 20
177.5314562425600116
 30
0.0
 40
0.7920541472848337
 50
137.2168073947943867
 51
258.9463400376317281
  0
LINE
  5
20881
  8
0
 10
3460.8759450836901124
 20
178.0607905310046135
 30
0.0
 11
3461.36937366268603
 21
176.7405051939730072
 31
0.0
  0
ARC
  5
20882
  8
0
 10
3460.8385191202592068
 20
178.0362365777664877
 30
0.0
 40
0.0447615835105987
 50
33.2675731650818918
 51
89.5519109982486441
  0
ARC
  5
20883
  8
0
 10
3460.8394672764561619
 20
178.0358595570698128
 30
0.0
 40
0.0451411977510559
 50
90.7591597923172344
 51
131.9353908677948937
  0
LINE
  5
20884
  8
0
 10
3461.0485862622781497
 20
177.5988480607875033
 30
0.0
 11
3461.6753062924822189
 21
177.8269562289486885
 31
0.0
  0
LINE
  5
20885
  8
0
 10
3461.7014586261061595
 20
177.7526813736398026
 30
0.0
 11
3461.0761525721850376
 21
177.5250878524909126
 31
0.0
  0
LINE
  5
20886
  8
0
 10
3461.8583726278520771
 20
177.3070322417767102
 30
0.0
 11
3461.2415504317878003
 21
177.0825266022781079
 31
0.0
  0
LINE
  5
20887
  8
0
 10
3461.8271984926532241
 20
177.295685748081894
 30
0.0
 11
3462.9077925334208885
 21
174.3268425570682894
 31
0.0
  0
ARC
  5
20888
  8
0
 10
3461.1505830500000229
 20
173.6872567069584079
 30
0.0
 40
1.8699880289155959
 50
359.9994255497521181
 51
20.0004002866320789
  0
LINE
  5
20889
  8
0
 10
3463.0205710788218312
 20
173.6872379583683141
 30
0.0
 11
3463.0203282681391102
 21
149.4692531458271105
 31
0.0
  0
ARC
  5
2088A
  8
0
 10
3462.7251750992759298
 20
149.4703694014324071
 30
0.0
 40
0.2951552796687322
 50
180.2157274155441087
 51
359.7833110504512888
  0
LINE
  5
2088B
  8
0
 10
3462.4300219117221786
 20
149.4692580990682984
 30
0.0
 11
3462.4300219117221786
 21
173.6872379583683141
 31
0.0
  0
ARC
  5
2088C
  8
0
 10
3461.1393727523700363
 20
173.6852770707965021
 30
0.0
 40
1.2906506489405489
 50
0.0870495773700178
 51
19.9129527909062212
  0
LINE
  5
2088D
  8
0
 10
3462.3528568881260981
 20
174.1248625003570112
 30
0.0
 11
3461.2722807356599333
 21
177.0937115540627929
 31
0.0
  0
ARC
  5
2088E
  8
0
 10
3462.2133172164690222
 20
155.1600767408077957
 30
0.0
 40
0.0593756242205052
 50
4.0772038536543116
 51
91.939784158643846
  0
LINE
  5
2088F
  8
0
 10
3462.2725425699218249
 20
155.1642983826683064
 30
0.0
 11
3462.2725397781218817
 21
155.1406763353683118
 31
0.0
  0
LINE
  5
20890
  8
0
 10
3462.2725397781218817
 20
155.1406763353683118
 30
0.0
 11
3462.4300216747988088
 21
155.1406764977525086
 31
0.0
  0
LINE
  5
20891
  8
0
 10
3463.0203851301080249
 20
155.1406771064937971
 30
0.0
 11
3463.1780515891209689
 21
155.1406772690683056
 31
0.0
  0
ARC
  5
20892
  8
0
 10
3463.2371006935718469
 20
155.1603704566782085
 30
0.0
 40
0.0590470310658578
 50
89.994461241949594
 51
176.1965603261076865
  0
ARC
  5
20893
  8
0
 10
3463.2367070071431954
 20
155.1603522049618107
 30
0.0
 40
0.0586554391914451
 50
176.1532615937225899
 51
179.9901307949737941
  0
LINE
  5
20894
  8
0
 10
3463.1780515688210471
 20
155.1603623083682919
 30
0.0
 11
3463.1780515891209689
 21
155.1406772690683056
 31
0.0
  0
LINE
  5
20895
  8
0
 10
3463.151805495122062
 20
154.5343780294682858
 30
0.0
 11
3463.1770673371511293
 21
155.1406772680533948
 31
0.0
  0
LINE
  5
20896
  8
0
 10
3462.2987910209208167
 20
154.5343771498683054
 30
0.0
 11
3462.2735223242220854
 21
155.1407172757683099
 31
0.0
  0
LINE
  5
20897
  8
0
 10
3462.2987871224208902
 20
154.5343771498683054
 30
0.0
 11
3462.4300217001277815
 21
154.5343772851929884
 31
0.0
  0
LINE
  5
20898
  8
0
 10
3463.0203790513241984
 20
154.5343778939497952
 30
0.0
 11
3463.1518015966221355
 21
154.5343780294682858
 31
0.0
  0
LINE
  5
20899
  8
0
 10
3463.1233278454219544
 20
154.5300472914682928
 30
0.0
 11
3463.0203790079040118
 21
154.5300471853074953
 31
0.0
  0
LINE
  5
2089A
  8
0
 10
3462.4300217003092257
 20
154.5300465765311912
 30
0.0
 11
3462.3272648171891888
 21
154.5300464705682941
 31
0.0
  0
ARC
  5
2089B
  8
0
 10
3462.327264853322049
 20
154.4950070882647992
 30
0.0
 40
0.035039382303462
 50
90.0000590833874838
 51
270.0677647521926019
  0
LINE
  5
2089C
  8
0
 10
3462.3273062950220265
 20
154.4599677304682928
 30
0.0
 11
3462.4300217032359797
 21
154.4599678363809971
 31
0.0
  0
LINE
  5
2089D
  8
0
 10
3463.0203783052911604
 20
154.4599684451141002
 30
0.0
 11
3463.1233278815529957
 21
154.4599685512683038
 31
0.0
  0
ARC
  5
2089E
  8
0
 10
3463.1233278454219544
 20
154.4950079213683125
 30
0.0
 40
0.0350393700999989
 50
270.0000590815895976
 51
90.0
  0
LINE
  5
2089F
  8
0
 10
3463.1189971006219821
 20
154.5300472869458872
 30
0.0
 11
3463.1189971006219821
 21
154.5343779956463095
 31
0.0
  0
LINE
  5
208A0
  8
0
 10
3462.3315955258208305
 20
154.5300464749682874
 30
0.0
 11
3462.3315955258208305
 21
154.5343771836901965
 31
0.0
  0
LINE
  5
208A1
  8
0
 10
3462.4300209000221002
 20
154.4556371276682967
 30
0.0
 11
3462.3020713732212243
 21
154.4556369957682875
 31
0.0
  0
LINE
  5
208A2
  8
0
 10
3462.3020713732212243
 20
154.4556369957682875
 30
0.0
 11
3462.3135512673211451
 21
154.1800464563683022
 31
0.0
  0
LINE
  5
208A3
  8
0
 10
3462.3135512673211451
 20
154.1800464563683022
 30
0.0
 11
3462.3450266086219926
 21
154.1800464888682995
 31
0.0
  0
LINE
  5
208A4
  8
0
 10
3462.3450266086219926
 20
154.1800464888682995
 30
0.0
 11
3462.3452956155219908
 21
154.0114944061683104
 31
0.0
  0
ARC
  5
208A5
  8
0
 10
3462.8219599000781272
 20
154.0122551560770034
 30
0.0
 40
0.4766648916293428
 50
180.091443230461806
 51
182.895466775539802
  0
ARC
  5
208A6
  8
0
 10
3462.3677287525629254
 20
153.9892808295116993
 30
0.0
 40
0.0218531118191304
 50
182.8954667755365051
 51
191.9695805937672901
  0
ARC
  5
208A7
  8
0
 10
3462.3493744386541948
 20
153.9853896834233922
 30
0.0
 40
0.0030908662987383
 50
191.9695805937371063
 51
219.0901991371088116
  0
ARC
  5
208A8
  8
0
 10
3462.3474549416710033
 20
153.9842480663704123
 30
0.0
 40
0.0009389662507519
 50
239.2922256149605005
 51
272.0608501700301076
  0
ARC
  5
208A9
  8
0
 10
3462.3500764041218645
 20
154.0127236594667863
 30
0.0
 40
0.0295275590985181
 50
264.9723401111759813
 51
268.4269943481248788
  0
ARC
  5
208AA
  8
0
 10
3462.3504957018431014
 20
154.0435822548271858
 30
0.0
 40
0.0603875520842298
 50
268.8330369040152164
 51
270.38993555720009
  0
LINE
  5
208AB
  8
0
 10
3462.3509066757787878
 20
153.9831961012226031
 30
0.0
 11
3462.4300209000221002
 21
153.983196182768296
 31
0.0
  0
LINE
  5
208AC
  8
0
 10
3463.0203735250188402
 20
153.9831832378955028
 30
0.0
 11
3463.1005223131091952
 21
153.9831968745957056
 31
0.0
  0
ARC
  5
208AD
  8
0
 10
3463.1005173468970497
 20
154.0123854551231091
 30
0.0
 40
0.0291885809498654
 50
270.0097484363411127
 51
275.3712137375580937
  0
ARC
  5
208AE
  8
0
 10
3463.1032340294041205
 20
153.984014420227993
 30
0.0
 40
0.0006895591188403
 50
271.2967843657086746
 51
306.7430746510614199
  0
ARC
  5
208AF
  8
0
 10
3463.1019878702068127
 20
153.984998511695693
 30
0.0
 40
0.0022610833368691
 50
317.1868821133405163
 51
351.8502493439734735
  0
ARC
  5
208B0
  8
0
 10
3462.9533794235098867
 20
154.0021444559791064
 30
0.0
 40
0.1518545464815141
 50
353.3951577996348874
 51
0.3012030530156901
  0
ARC
  5
208B1
  8
0
 10
3462.4497425205640866
 20
154.0122934800741064
 30
0.0
 40
0.655556043057149
 50
359.1827158348567082
 51
359.9305494065689004
  0
LINE
  5
208B2
  8
0
 10
3463.1052980820218181
 20
154.0114988535682983
 30
0.0
 11
3463.1055663057418315
 21
154.1800468457271904
 31
0.0
  0
LINE
  5
208B3
  8
0
 10
3463.1370420810208088
 20
154.1800473055683085
 30
0.0
 11
3463.1055663057418315
 21
154.1800468457271904
 31
0.0
  0
LINE
  5
208B4
  8
0
 10
3463.1370420810208088
 20
154.1800473055683085
 30
0.0
 11
3463.1485247364212228
 21
154.4556378685682887
 31
0.0
  0
LINE
  5
208B5
  8
0
 10
3463.1485247364212228
 20
154.4556378685682887
 30
0.0
 11
3463.0203782618718833
 21
154.4556378685682887
 31
0.0
  0
LINE
  5
208B6
  8
0
 10
3463.1189971774219885
 20
154.4556378381323896
 30
0.0
 11
3463.1189971774219885
 21
154.4599685468417931
 31
0.0
  0
LINE
  5
208B7
  8
0
 10
3462.3315956026208369
 20
154.45563702616829
 30
0.0
 11
3462.3315956026208369
 21
154.4599677348905971
 31
0.0
  0
LINE
  5
208B8
  8
0
 10
3460.9592139299538758
 20
154.2449866902065878
 30
0.0
 11
3460.9592139403212059
 21
154.2349866901683129
 31
0.0
  0
ARC
  5
208B9
  8
0
 10
3461.081628204225126
 20
154.4563192774515983
 30
0.0
 40
0.2529295676678004
 50
241.0539681676249018
 51
245.9678327459255058
  0
ARC
  5
208BA
  8
0
 10
3461.113783482980125
 20
154.5301330124115111
 30
0.0
 40
0.3243457596319316
 50
241.5391629140324881
 51
250.0185558768368139
  0
ARC
  5
208BB
  8
0
 10
3461.1942293989750397
 20
154.4309957540397136
 30
0.0
 40
0.2283850287388379
 50
234.5320104759643129
 51
244.2424433278262939
  0
LINE
  5
208BC
  8
0
 10
3461.0717338211220522
 20
154.2382058184682876
 30
0.0
 11
3461.0717338211220522
 21
154.2449898916183031
 31
0.0
  0
ARC
  5
208BD
  8
0
 10
3461.6005936905698945
 20
153.7523864689206903
 30
0.0
 40
0.4926005838225564
 50
73.7511507351308353
 51
89.8771321834459656
  0
ARC
  5
208BE
  8
0
 10
3461.5722500058232072
 20
153.5947407479526987
 30
0.0
 40
0.6508426043674289
 50
92.4469699269440639
 51
104.3400833356610065
  0
ARC
  5
208BF
  8
0
 10
3461.6522325207538415
 20
152.9488640565618027
 30
0.0
 40
1.2976225575541951
 50
92.7521736552379252
 51
100.3652234745381975
  0
ARC
  5
208C0
  8
0
 10
3461.6123461620882154
 20
153.382927637574312
 30
0.0
 40
0.8521425602941461
 50
90.7989546043298361
 51
98.6826334999500432
  0
ARC
  5
208C1
  8
0
 10
3461.6065051418518124
 20
153.801780115464112
 30
0.0
 40
0.4332493570170571
 50
77.8467207336688745
 51
90.7989546043298361
  0
ARC
  5
208C2
  8
0
 10
3461.557104180054921
 20
153.9838555796983997
 30
0.0
 40
0.2503333499855413
 50
74.6927576310295791
 51
87.4192336057864452
  0
LINE
  5
208C3
  8
0
 10
3461.7016745707219343
 20
154.2344810652683122
 30
0.0
 11
3461.7016745707219343
 21
154.2449898916183031
 31
0.0
  0
LINE
  5
208C4
  8
0
 10
3460.9349422231830431
 20
154.1662497341183098
 30
0.0
 11
3460.9602046400259496
 21
153.559966760568301
 31
0.0
  0
LINE
  5
208C5
  8
0
 10
3460.9602046400259496
 20
153.559966760568301
 30
0.0
 11
3461.813223822720829
 21
153.559966760568301
 31
0.0
  0
LINE
  5
208C6
  8
0
 10
3461.813223822720829
 20
153.559966760568301
 30
0.0
 11
3461.83848576033688
 21
154.1662497341183098
 31
0.0
  0
LINE
  5
208C7
  8
0
 10
3461.7847461730220857
 20
153.555636051868305
 30
0.0
 11
3460.9852989919381798
 21
153.555636051868305
 31
0.0
  0
ARC
  5
208C8
  8
0
 10
3460.9887674456090281
 20
153.5206824643487096
 30
0.0
 40
0.0351252537550395
 50
95.6669237771941141
 51
269.8625485924246732
  0
LINE
  5
208C9
  8
0
 10
3460.9886831809221803
 20
153.4855573116682876
 30
0.0
 11
3461.7847462092217938
 21
153.4855573116682876
 31
0.0
  0
ARC
  5
208CA
  8
0
 10
3461.7847461755809491
 20
153.5205966817682963
 30
0.0
 40
0.0350393701000089
 50
270.0000550084474185
 51
90.0000041851531734
  0
LINE
  5
208CB
  8
0
 10
3461.7804155050221198
 20
153.4812266030683077
 30
0.0
 11
3461.7804155050221198
 21
153.4855387181025037
 31
0.0
  0
LINE
  5
208CC
  8
0
 10
3460.9930139302218777
 20
153.4812266030683077
 30
0.0
 11
3460.9930139302218777
 21
153.4855573116682876
 31
0.0
  0
LINE
  5
208CD
  8
0
 10
3460.9634863711221442
 20
153.4812266030683077
 30
0.0
 11
3461.8099430640218088
 21
153.4812266030683077
 31
0.0
  0
LINE
  5
208CE
  8
0
 10
3461.8099430640218088
 20
153.4812266030683077
 30
0.0
 11
3461.7984604086218496
 21
153.2056356577064946
 31
0.0
  0
LINE
  5
208CF
  8
0
 10
3461.7984604086218496
 20
153.2056356577064946
 30
0.0
 11
3461.7646677577217815
 21
153.2056356577064946
 31
0.0
  0
LINE
  5
208D0
  8
0
 10
3461.7646677577217815
 20
153.2056356577064946
 30
0.0
 11
3461.7646691087279578
 21
153.0087856573314866
 31
0.0
  0
LINE
  5
208D1
  8
0
 10
3461.008762359127104
 20
153.0087856573314866
 30
0.0
 11
3461.0087622459209342
 21
153.2056356577064946
 31
0.0
  0
LINE
  5
208D2
  8
0
 10
3461.0087622459209342
 20
153.2056356577064946
 30
0.0
 11
3460.975028162487888
 21
153.2056356577064946
 31
0.0
  0
LINE
  5
208D3
  8
0
 10
3460.975028162487888
 20
153.2056356577064946
 30
0.0
 11
3460.9634863711221442
 21
153.4812266030683077
 31
0.0
  0
LINE
  5
208D4
  8
0
 10
3461.0914396142220539
 20
153.0087663540683138
 30
0.0
 11
3461.09144326452315
 21
149.4688400699805015
 31
0.0
  0
ARC
  5
208D5
  8
0
 10
3463.0192411966390864
 20
149.468842057876401
 30
0.0
 40
1.9277979321177421
 50
180.0000590819414015
 51
239.2063568155946029
  0
LINE
  5
208D6
  8
0
 10
3462.032309744522081
 20
147.8128314371683132
 30
0.0
 11
3462.2192447345159962
 21
147.7014239263590127
 31
0.0
  0
ARC
  5
208D7
  8
0
 10
3461.5350720174678827
 20
146.5534239478400877
 30
0.0
 40
1.336411709553865
 50
0.0000590913831416
 51
59.2063568155945603
  0
LINE
  5
208D8
  8
0
 10
3462.8714837270208591
 20
146.5534253261338904
 30
0.0
 11
3462.871485295705952
 21
145.0324086116467015
 31
0.0
  0
LINE
  5
208D9
  8
0
 10
3463.4620362669220412
 20
145.2356600566683085
 30
0.0
 11
3463.4620349079891639
 21
146.5534259350683044
 31
0.0
  0
ARC
  5
208DA
  8
0
 10
3461.5350720171900321
 20
146.5534239479071061
 30
0.0
 40
1.9269628907989409
 50
0.0000590856998721
 51
59.2063568093440722
  0
LINE
  5
208DB
  8
0
 10
3462.5215759721218092
 20
148.20871725406829
 30
0.0
 11
3462.3346409824957846
 21
148.3201247646858008
 31
0.0
  0
ARC
  5
208DC
  8
0
 10
3463.0192411976049698
 20
149.4688420585239896
 30
0.0
 40
1.337246751984124
 50
180.0000591097943072
 51
239.2063568093441006
  0
LINE
  5
208DD
  8
0
 10
3461.6819944456219673
 20
149.4688406789393014
 30
0.0
 11
3461.6819907936001073
 21
153.008766963041694
 31
0.0
  0
LINE
  5
208DE
  8
0
 10
3463.4620379851307916
 20
143.5693075186526073
 30
0.0
 11
3463.465779767012009
 21
139.0346247923316128
 31
0.0
  0
ARC
  5
208DF
  8
0
 10
3461.0738887151910603
 20
139.0327897027588051
 30
0.0
 40
2.3918917557744508
 50
180.1332370884888121
 51
0.0439580501956556
  0
LINE
  5
208E0
  8
0
 10
3458.6820034266161201
 20
139.027227540781098
 30
0.0
 11
3458.6820007946807891
 21
141.8335863402581083
 31
0.0
  0
LINE
  5
208E1
  8
0
 10
3458.4753076558217799
 20
143.3965786310920123
 30
0.0
 11
3458.4753076558217799
 21
143.0107516958682936
 31
0.0
  0
ARC
  5
208E2
  8
0
 10
3458.4949925465739398
 20
143.0107516338902087
 30
0.0
 40
0.0196848907523498
 50
179.9998196036266904
 51
270.0182152628735253
  0
ARC
  5
208E3
  8
0
 10
3459.4590199653739546
 20
143.0112916126821858
 30
0.0
 40
0.0202319038504343
 50
271.5110303108235144
 51
358.4707999836494992
  0
LINE
  5
208E4
  8
0
 10
3459.4792446637220564
 20
143.0107516958682936
 30
0.0
 11
3459.4792446637220564
 21
143.3965786310920123
 31
0.0
  0
LINE
  5
208E5
  8
0
 10
3458.5255045024800893
 20
142.9910667462669096
 30
0.0
 11
3458.5507669734220144
 21
142.3847674438682986
 31
0.0
  0
LINE
  5
208E6
  8
0
 10
3459.4037853461218219
 20
142.3847674438682986
 30
0.0
 11
3459.4290478170628376
 21
142.9910667462669096
 31
0.0
  0
ARC
  5
208E7
  8
0
 10
3458.5792446637219655
 20
142.345397365068294
 30
0.0
 40
0.0350393701000016
 50
90.0
 51
270.0
  0
ARC
  5
208E8
  8
0
 10
3459.3753076558218709
 20
142.345397365068294
 30
0.0
 40
0.035039370099998
 50
270.0
 51
90.0
  0
LINE
  5
208E9
  8
0
 10
3459.3709769472220614
 20
142.3060272863683053
 30
0.0
 11
3459.3709769472220614
 21
142.3103579949683137
 31
0.0
  0
LINE
  5
208EA
  8
0
 10
3459.3709769472220614
 20
142.3804367351683027
 30
0.0
 11
3459.3709769472220614
 21
142.3847674438682986
 31
0.0
  0
LINE
  5
208EB
  8
0
 10
3458.5835753724209098
 20
142.3060272863683053
 30
0.0
 11
3458.5835753724209098
 21
142.3103579949683137
 31
0.0
  0
LINE
  5
208EC
  8
0
 10
3458.5835753724209098
 20
142.3804367351683027
 30
0.0
 11
3458.5835753724209098
 21
142.3847674438682986
 31
0.0
  0
LINE
  5
208ED
  8
0
 10
3458.5540478133220859
 20
142.3060272863683053
 30
0.0
 11
3458.5655307529218589
 21
142.0304367351683084
 31
0.0
  0
LINE
  5
208EE
  8
0
 10
3458.5655307529218589
 20
142.0304367351683084
 30
0.0
 11
3458.5993229880218678
 21
142.0304367351683084
 31
0.0
  0
LINE
  5
208EF
  8
0
 10
3458.5993229880218678
 20
142.0304367351683084
 30
0.0
 11
3458.5993229880218678
 21
141.8335863406315127
 31
0.0
  0
LINE
  5
208F0
  8
0
 10
3459.400504506220841
 20
142.3060272863683053
 30
0.0
 11
3459.3890215666219774
 21
142.0304367351683084
 31
0.0
  0
LINE
  5
208F1
  8
0
 10
3459.3890215666219774
 20
142.0304367351683084
 30
0.0
 11
3459.3552289157219093
 21
142.0304367351683084
 31
0.0
  0
LINE
  5
208F2
  8
0
 10
3459.3552289157219093
 20
142.0304367351683084
 30
0.0
 11
3459.3552289157219093
 21
141.8335863406315127
 31
0.0
  0
LINE
  5
208F3
  8
0
 10
3459.2725519763880584
 20
141.8335863402581083
 30
0.0
 11
3459.272554608829978
 21
139.0341307063995941
 31
0.0
  0
ARC
  5
208F4
  8
0
 10
3461.0720230447268477
 20
139.0341325438272975
 30
0.0
 40
1.799468435896358
 50
180.0000585044138006
 51
0.0000596582721805
  0
LINE
  5
208F5
  8
0
 10
3462.8714914806218985
 20
139.0341344174937035
 30
0.0
 11
3462.8714865468091375
 21
143.7725660919840891
 31
0.0
  0
ARC
  5
208F6
  8
0
 10
3448.1407186612218538
 20
173.4337817228625056
 30
0.0
 40
14.0053986740605207
 50
21.5178204579386083
 51
29.6158819141762208
  0
ARC
  5
208F7
  8
0
 10
3453.3964930328052105
 20
176.7167162822402133
 30
0.0
 40
6.3794166974386508
 50
55.9757745924519696
 51
59.3403605099598934
  0
ARC
  5
208F8
  8
0
 10
3453.3990565131080075
 20
176.7199808172927931
 30
0.0
 40
6.375276675838796
 50
51.0873419343770507
 51
55.9784524694740995
  0
ARC
  5
208F9
  8
0
 10
3457.4530366388157745
 20
181.7418628695884024
 30
0.0
 40
0.0787185369578225
 50
231.0873419343537023
 51
270.0
  0
ARC
  5
208FA
  8
0
 10
3457.4116847825330296
 20
182.1121439748044111
 30
0.0
 40
0.4508998277779507
 50
275.2619684833077827
 51
288.2594378362646808
  0
ARC
  5
208FB
  8
0
 10
3457.4012837201807997
 20
182.1505005251877094
 30
0.0
 40
0.4905885642187593
 50
288.009443594269726
 51
311.2184313007966239
  0
ARC
  5
208FC
  8
0
 10
3457.366280217628173
 20
182.1904587608242991
 30
0.0
 40
0.5437101773925559
 50
311.2184313007956007
 51
322.558600223548126
  0
ARC
  5
208FD
  8
0
 10
3457.7748930972679773
 20
181.8775825307791933
 30
0.0
 40
0.0290685343683226
 50
322.5586002235269802
 51
56.8783419811081004
  0
LINE
  5
208FE
  8
0
 10
3457.7907766846219602
 20
181.9019277837682864
 30
0.0
 11
3457.4774799715100926
 21
182.1063321377718012
 31
0.0
  0
ARC
  5
208FF
  8
0
 10
3457.4885911475680587
 20
182.1233625721509952
 30
0.0
 40
0.020334550118746
 50
146.8540785232592896
 51
236.878341981110708
  0
ARC
  5
20900
  8
0
 10
3461.4265193056221506
 20
145.8478476900683063
 30
0.0
 40
0.8661279619999787
 50
7.937058517200092
 51
34.2969061503552126
  0
LINE
  5
20903
  8
0
 10
3446.0717092758732178
 20
194.0688302573614124
 30
0.0
 11
3445.2055624056179113
 21
194.0688302573614124
 31
0.0
  0
LINE
  5
20904
  8
0
 10
3445.2843108355309596
 20
193.8988363268182979
 30
0.0
 11
3445.9929722527258491
 21
193.8988363268182979
 31
0.0
  0
LINE
  5
20905
  8
0
 10
3461.7646691087279578
 20
153.0087856573314866
 30
0.0
 11
3461.008762359127104
 21
153.0087856573314866
 31
0.0
  0
LINE
  5
20906
  8
0
 10
3458.494986288480959
 20
142.9910667441326098
 30
0.0
 11
3459.4595534684808626
 21
142.9910667441326098
 31
0.0
  0
LINE
  5
20907
  8
0
 10
3459.3552289157219093
 20
141.8335863402581083
 30
0.0
 11
3458.5993229880218678
 21
141.8335863402581083
 31
0.0
  0
LINE
  5
20908
  8
0
 10
3458.5540478133220859
 20
142.3060272863683053
 30
0.0
 11
3459.400504506220841
 21
142.3060272863683053
 31
0.0
  0
LINE
  5
20909
  8
0
 10
3458.5792446637219655
 20
142.3103579949683137
 30
0.0
 11
3459.3753076558218709
 21
142.3103579949683137
 31
0.0
  0
LINE
  5
2090A
  8
0
 10
3458.5792446637219655
 20
142.3804367351683027
 30
0.0
 11
3459.3753076558218709
 21
142.3804367351683027
 31
0.0
  0
LINE
  5
2090B
  8
0
 10
3458.5507669734220144
 20
142.3847674438682986
 30
0.0
 11
3459.4037853461218219
 21
142.3847674438682986
 31
0.0
  0
LINE
  5
2090C
  8
0
 10
3460.9930138534218713
 20
153.5556356458683069
 30
0.0
 11
3460.9930138490221907
 21
153.5599663545683029
 31
0.0
  0
LINE
  5
2090D
  8
0
 10
3461.7804154283221578
 20
153.5556364578683031
 30
0.0
 11
3461.7804154283221578
 21
153.559966760568301
 31
0.0
  0
LINE
  5
2090E
  8
0
 10
3461.5703343092040996
 20
178.3153941643492999
 30
0.0
 11
3461.5465565221211364
 21
178.314448079568308
 31
0.0
  0
LINE
  5
2090F
  8
0
 10
3446.002813756220803
 20
194.8843406609302065
 30
0.0
 11
3446.0028136442219875
 21
194.9930217632220035
 31
0.0
  0
ENDSEC
  0
EOF
