  0
SECTION
  2
HEADER
  9
$ACADVER
  1
AC1009
  9
$INSBASE
 10
440.9223542665413902
 20
66.0032757990746148
 30
0.0
  9
$EXTMIN
 10
438.3880234605232999
 20
57.045148140307127
 30
-0.0000000349181948
  9
$EXTMAX
 10
440.944888302947902
 20
74.9629040108519291
 30
0.0000000814935746
  9
$LIMMIN
 10
0.0
 20
0.0
  9
$LIMMAX
 10
11.6929133858000007
 20
8.2677165353999982
  9
$ORTHOMODE
 70
     0
  9
$REGENMODE
 70
     1
  9
$FILLMODE
 70
     1
  9
$QTEXTMODE
 70
     0
  9
$MIRRTEXT
 70
     0
  9
$DRAGMODE
 70
     2
  9
$LTSCALE
 40
0.6431102362
  9
$OSMODE
 70
  4095
  9
$ATTMODE
 70
     1
  9
$TEXTSIZE
 40
0.2
  9
$TRACEWID
 40
0.05
  9
$TEXTSTYLE
  7
STANDARD
  9
$CLAYER
  8
0
  9
$CELTYPE
  6
BYLAYER
  9
$CECOLOR
 62
   256
  9
$DIMSCALE
 40
1.0
  9
$DIMASZ
 40
0.1875
  9
$DIMEXO
 40
0.0625
  9
$DIMDLI
 40
0.4443307087
  9
$DIMRND
 40
0.0
  9
$DIMDLE
 40
0.0
  9
$DIMEXE
 40
0.125
  9
$DIMTP
 40
0.01
  9
$DIMTM
 40
0.01
  9
$DIMTXT
 40
1.0
  9
$DIMCEN
 40
0.1052362205
  9
$DIMTSZ
 40
0.0
  9
$DIMTOL
 70
     1
  9
$DIMLIM
 70
     0
  9
$DIMTIH
 70
     0
  9
$DIMTOH
 70
     1
  9
$DIMSE1
 70
     0
  9
$DIMSE2
 70
     0
  9
$DIMTAD
 70
     0
  9
$DIMZIN
 70
     0
  9
$DIMBLK
  1

  9
$DIMASO
 70
     1
  9
$DIMSHO
 70
     1
  9
$DIMPOST
  1
\X
  9
$DIMAPOST
  1

  9
$DIMALT
 70
     1
  9
$DIMALTD
 70
     2
  9
$DIMALTF
 40
25.3999999999999986
  9
$DIMLFAC
 40
1.0
  9
$DIMTOFL
 70
     0
  9
$DIMTVP
 40
0.0
  9
$DIMTIX
 70
     0
  9
$DIMSOXD
 70
     0
  9
$DIMSAH
 70
     0
  9
$DIMBLK1
  1

  9
$DIMBLK2
  1

  9
$DIMSTYLE
  2
STANDARD
  9
$DIMCLRD
 70
     0
  9
$DIMCLRE
 70
     0
  9
$DIMCLRT
 70
     0
  9
$DIMTFAC
 40
1.0
  9
$DIMGAP
 40
0.09
  9
$LUNITS
 70
     2
  9
$LUPREC
 70
     4
  9
$SKETCHINC
 40
0.1
  9
$FILLETRAD
 40
0.0
  9
$AUNITS
 70
     0
  9
$AUPREC
 70
     0
  9
$MENU
  1
.
  9
$ELEVATION
 40
0.0
  9
$PELEVATION
 40
0.0
  9
$THICKNESS
 40
0.0
  9
$LIMCHECK
 70
     0
  9
$BLIPMODE
 70
     0
  9
$CHAMFERA
 40
0.0
  9
$CHAMFERB
 40
0.0
  9
$SKPOLY
 70
     0
  9
$TDCREATE
 40
2458172.5207638889551163
  9
$TDUPDATE
 40
2459151.4445949080400169
  9
$TDINDWG
 40
0.073028912
  9
$TDUSRTIMER
 40
0.073028912
  9
$USRTIMER
 70
     1
  9
$ANGBASE
 50
0.0
  9
$ANGDIR
 70
     0
  9
$PDMODE
 70
     0
  9
$PDSIZE
 40
0.3125
  9
$PLINEWID
 40
0.0
  9
$COORDS
 70
     1
  9
$SPLFRAME
 70
     0
  9
$SPLINETYPE
 70
     6
  9
$SPLINESEGS
 70
     8
  9
$ATTDIA
 70
     1
  9
$ATTREQ
 70
     1
  9
$HANDLING
 70
     1
  9
$HANDSEED
  5
3211
  9
$SURFTAB1
 70
     6
  9
$SURFTAB2
 70
     6
  9
$SURFTYPE
 70
     6
  9
$SURFU
 70
     6
  9
$SURFV
 70
     6
  9
$UCSNAME
  2

  9
$UCSORG
 10
0.0
 20
0.0
 30
0.0
  9
$UCSXDIR
 10
1.0
 20
0.0
 30
0.0
  9
$UCSYDIR
 10
0.0
 20
1.0
 30
0.0
  9
$PUCSNAME
  2

  9
$PUCSORG
 10
0.0
 20
0.0
 30
0.0
  9
$PUCSXDIR
 10
1.0
 20
0.0
 30
0.0
  9
$PUCSYDIR
 10
0.0
 20
1.0
 30
0.0
  9
$USERI1
 70
     0
  9
$USERI2
 70
     0
  9
$USERI3
 70
     0
  9
$USERI4
 70
     0
  9
$USERI5
 70
     0
  9
$USERR1
 40
0.0
  9
$USERR2
 40
0.0
  9
$USERR3
 40
0.0
  9
$USERR4
 40
0.0
  9
$USERR5
 40
0.0
  9
$WORLDVIEW
 70
     1
  9
$SHADEDGE
 70
     3
  9
$SHADEDIF
 70
    70
  9
$TILEMODE
 70
     1
  9
$MAXACTVP
 70
    64
  9
$PLIMCHECK
 70
     0
  9
$PEXTMIN
 10
1.0000000000000000E+20
 20
1.0000000000000000E+20
 30
1.0000000000000000E+20
  9
$PEXTMAX
 10
-1.0000000000000000E+20
 20
-1.0000000000000000E+20
 30
-1.0000000000000000E+20
  9
$PLIMMIN
 10
0.0
 20
0.0
  9
$PLIMMAX
 10
12.0
 20
9.0
  9
$UNITMODE
 70
     0
  9
$VISRETAIN
 70
     1
  9
$PLINEGEN
 70
     0
  9
$PSLTSCALE
 70
     1
  0
ENDSEC
  0
SECTION
  2
TABLES
  0
TABLE
  2
VPORT
 70
     1
  0
VPORT
  2
*ACTIVE
 70
     0
 10
0.0
 20
0.0
 11
1.0
 21
1.0
 12
36.5892769266574831
 22
10.2576405012387095
 13
0.0
 23
0.0
 14
1.0
 24
1.0
 15
0.0
 25
0.0
 16
0.0
 26
0.0
 36
32.6516033899411724
 17
403.077178955078125
 27
55.7463855743408203
 37
0.0
 40
18.1460075376854917
 41
2.887234042553191
 42
50.0
 43
0.0
 44
0.0
 50
0.0
 51
0.0
 71
     0
 72
   100
 73
     1
 74
     1
 75
     0
 76
     0
 77
     0
 78
     0
  0
ENDTAB
  0
TABLE
  2
LTYPE
 70
     2
  0
LTYPE
  2
CONTINUOUS
 70
     0
  3
Solid line
 72
    65
 73
     0
 40
0.0
  0
LTYPE
  2
PHANTOM2
 70
     0
  3
___ _ _ ___ _ _ ___ _ _ ___ _ _
 72
    65
 73
     6
 40
1.25
 49
0.625
 49
-0.125
 49
0.125
 49
-0.125
 49
0.125
 49
-0.125
  0
ENDTAB
  0
TABLE
  2
LAYER
 70
     2
  0
LAYER
  2
0
 70
     0
 62
   255
  6
CONTINUOUS
  0
LAYER
  2
DEFPOINTS
 70
     0
 62
     7
  6
CONTINUOUS
  0
ENDTAB
  0
TABLE
  2
STYLE
 70
     1
  0
STYLE
  2
STANDARD
 70
     0
 40
0.0
 41
0.8
 50
0.0
 71
     0
 42
0.2
  3
txt
  4

  0
ENDTAB
  0
TABLE
  2
VIEW
 70
     0
  0
ENDTAB
  0
TABLE
  2
UCS
 70
     0
  0
ENDTAB
  0
TABLE
  2
APPID
 70
    10
  0
APPID
  2
ACAD
 70
     0
  0
APPID
  2
ACAD_MLEADERVER
 70
     0
  0
APPID
  2
ACAD_EXEMPT_FROM_CAD_STANDARDS
 70
     0
  0
APPID
  2
ACAD_DSTYLE_DIMJAG
 70
     0
  0
APPID
  2
ACAD_DSTYLE_DIMTALN
 70
     0
  0
APPID
  2
ACAD_NAV_VCDISPLAY
 70
     0
  0
APPID
  2
ACAECLAYERSTANDARD
 70
     0
  0
APPID
  2
ACCMTRANSPARENCY
 70
     0
  0
APPID
  2
DCO15
 70
     0
  0
APPID
  2
ACDBATTR
 70
     0
  0
ENDTAB
  0
TABLE
  2
DIMSTYLE
 70
     1
  0
DIMSTYLE
  2
STANDARD
 70
     0
  3

  4

  5

  6

  7

 40
1.0
 41
0.1875
 42
0.0625
 43
0.38
 44
0.125
 45
0.0
 46
0.0
 47
0.01
 48
0.01
140
0.15625
141
0.09
142
0.0
143
25.3999999999999986
144
1.0
145
0.0
146
1.0
147
0.09
 71
     1
 72
     0
 73
     1
 74
     1
 75
     0
 76
     0
 77
     0
 78
     4
170
     0
171
     2
172
     0
173
     0
174
     0
175
     0
176
     0
177
     0
178
     0
  0
ENDTAB
  0
ENDSEC
  0
SECTION
  2
BLOCKS
  0
BLOCK
  8
0
  2
$MODEL_SPACE
 70
     0
 10
0.0
 20
0.0
 30
0.0
  3
$MODEL_SPACE
  1

  0
ENDBLK
  5
21
  8
0
  0
BLOCK
 67
     1
  8
0
  2
$PAPER_SPACE
 70
     0
 10
0.0
 20
0.0
 30
0.0
  3
$PAPER_SPACE
  1

  0
ENDBLK
  5
1D
 67
     1
  8
0
  0
ENDSEC
  0
SECTION
  2
ENTITIES
  0
ATTDEF
  5
829
  8
DEFPOINTS
 10
440.9240552164367273
 20
66.0032182453570044
 30
0.0
 40
0.001
  1
K-77248IN-9
  3

  2
MODELNUMBER
 70
     0
1001
ACDBATTR
1070
     0
1070
     1
  0
ATTDEF
  5
82A
  8
DEFPOINTS
 10
440.9240552164367273
 20
66.0015515786903393
 30
0.0
 40
0.001
  1
BEITOU 
  3

  2
TRADENAME
 70
     0
1001
ACDBATTR
1070
     0
1070
     1
  0
ATTDEF
  5
82B
  8
DEFPOINTS
 10
440.9240552164367273
 20
65.9998849120236741
 30
0.0
 40
0.001
  1
VALVE TRIM
  3

  2
PRODUCT
 70
     0
1001
ACDBATTR
1070
     0
1070
     1
  0
LINE
  5
3093
  8
0
 10
440.7963849752413807
 20
74.9599687124246259
 30
0.0
 11
440.9223542665413902
 21
74.9599687124246259
 31
0.0
  0
LINE
  5
3094
  8
0
 10
440.9223542665413902
 20
74.9599687124246259
 30
0.0
 11
440.9223542665413902
 21
57.046582885724618
 31
0.0
  0
LINE
  5
3095
  8
0
 10
440.9223542665413902
 20
57.046582885724618
 30
0.0
 11
440.7963849752413807
 21
57.046582885724618
 31
0.0
  0
LINE
  5
3096
  8
0
 10
440.7766849752413805
 20
57.0662828857246183
 30
0.0
 11
440.7766849752413805
 21
74.9402687124246256
 31
0.0
  0
ARC
  5
3097
  8
0
 10
440.7963849752413807
 20
57.0662828857246183
 30
0.0
 40
0.0197
 50
180.0
 51
270.0
  0
ARC
  5
3098
  8
0
 10
440.7963849752413807
 20
74.9402687124246256
 30
0.0
 40
0.0197
 50
90.0
 51
180.0
  0
ARC
  5
3099
  8
0
 10
438.4341652901587167
 20
60.3654805234823471
 30
0.0
 40
0.0393700787422609
 50
90.0000000254818957
 51
180.0020319917530003
  0
ARC
  5
309A
  8
0
 10
438.4341652905001752
 20
58.6725671379082812
 30
0.0
 40
0.0393700790836663
 50
179.9979683595776123
 51
269.9999994776733274
  0
ARC
  5
309B
  8
0
 10
439.0419102571219128
 20
57.5944111070533182
 30
0.0
 40
1.1555980359712039
 50
105.0626254772858061
 51
115.9840120445800977
  0
ARC
  5
309C
  8
0
 10
438.9486826629777738
 20
57.9329854204952284
 30
0.0
 40
0.8044314293286079
 50
90.1927605958726843
 51
104.9174949935388952
  0
ARC
  5
309D
  8
0
 10
439.4257841435297109
 20
57.9645617355481235
 30
0.0
 40
0.7728507281645478
 50
81.4192978159423433
 51
89.9624031989469017
  0
ARC
  5
309E
  8
0
 10
439.406030806440981
 20
57.845208564451859
 30
0.0
 40
0.8938168492998944
 50
72.4975989659642437
 51
81.3087555895344565
  0
ARC
  5
309F
  8
0
 10
439.3058187204561023
 20
57.5358255255694289
 30
0.0
 40
1.219017778721359
 50
64.1856347486253185
 51
72.3788228773234437
  0
LINE
  5
30A0
  8
0
 10
438.9459763137411983
 20
58.7374122973246173
 30
0.0
 11
439.4262912788414042
 21
58.7374122973246173
 31
0.0
  0
LINE
  5
30A1
  8
0
 10
439.8366483191413749
 20
58.6331970588246065
 30
0.0
 11
439.9616983610414991
 21
58.6331970588246065
 31
0.0
  0
LINE
  5
30A2
  8
0
 10
438.4341652901413227
 20
58.6331970588246065
 30
0.0
 11
438.5356192665414028
 21
58.6331970588246065
 31
0.0
  0
LINE
  5
30A3
  8
0
 10
438.3947952114414193
 20
58.6725685339246112
 30
0.0
 11
438.3947952114414193
 21
60.3654791272246172
 31
0.0
  0
LINE
  5
30A4
  8
0
 10
438.4341652901587167
 20
60.4048506022246201
 30
0.0
 11
439.9616983610417265
 21
60.4048506022246201
 31
0.0
  0
ARC
  5
30A5
  8
0
 10
438.5768919351941122
 20
58.609579617879298
 30
0.0
 40
0.0157527189393378
 50
180.3444639684095137
 51
269.9879828649198998
  0
ARC
  5
30A6
  8
0
 10
439.7874511849551027
 20
58.6096303639488596
 30
0.0
 40
0.0158035562623221
 50
270.1950771960517841
 51
359.472406092294591
  0
ARC
  5
30A7
  8
0
 10
438.9664758001900964
 20
57.655949387804192
 30
0.0
 40
1.0361117278476191
 50
91.1336718434658053
 51
113.0297518333645002
  0
ARC
  5
30A8
  8
0
 10
439.4116862524317071
 20
57.7202745299036835
 30
0.0
 40
0.9716070900515269
 50
66.2334878233130837
 51
89.6030686303160167
  0
ARC
  5
30A9
  8
0
 10
438.621301274269797
 20
58.6254511037998824
 30
0.0
 40
0.031624211794583
 50
270.0388784907239028
 51
288.7723822982014781
  0
ARC
  5
30AA
  8
0
 10
439.0082834804730965
 20
57.5162475367247765
 30
0.0
 40
1.143148212432826
 50
103.149644540751197
 51
109.245751170575403
  0
ARC
  5
30AB
  8
0
 10
438.9524760049853853
 20
57.7674582924375102
 30
0.0
 40
0.8858329114971875
 50
89.2622932212276936
 51
103.3310767715925067
  0
ARC
  5
30AC
  8
0
 10
439.4134889505991168
 20
57.7770780697247019
 30
0.0
 40
0.8761114935386229
 50
76.5825054243868806
 51
89.5456668081311449
  0
ARC
  5
30AD
  8
0
 10
439.3518966139005215
 20
57.5017136564505407
 30
0.0
 40
1.1582589013078011
 50
70.7949838984436752
 51
76.7796687811371754
  0
ARC
  5
30AE
  8
0
 10
439.7430922915365841
 20
58.62545102203363
 30
0.0
 40
0.0316241300275796
 50
251.2079928556044877
 51
269.9611235002250851
  0
LINE
  5
30AF
  8
0
 10
438.576888631247698
 20
58.5938268992858298
 30
0.0
 11
438.6213227331197118
 21
58.5938268992858298
 31
0.0
  0
LINE
  5
30B0
  8
0
 10
438.561139500941124
 20
58.6094849126246231
 30
0.0
 11
438.561139500241211
 21
58.6452518657811623
 31
0.0
  0
LINE
  5
30B1
  8
0
 10
439.8032540712152922
 20
58.609484842895732
 30
0.0
 11
439.8032540712152922
 21
58.6487327170072277
 31
0.0
  0
LINE
  5
30B2
  8
0
 10
439.7430708340413048
 20
58.5938268992858298
 30
0.0
 11
439.7875049918412742
 21
58.5938268992858298
 31
0.0
  0
LINE
  5
30B3
  8
0
 10
438.9459763138412995
 20
58.6918583044246205
 30
0.0
 11
439.4184172586412274
 21
58.6918583044246205
 31
0.0
  0
LINE
  5
30B4
  8
0
 10
438.9638811537412266
 20
58.6532177799246313
 30
0.0
 11
439.4204361003414192
 21
58.653162019024613
 31
0.0
  0
LINE
  5
30B5
  8
0
 10
439.9695983610416761
 20
60.3969506022246208
 30
0.0
 11
439.9695983610413919
 21
58.641097058824613
 31
0.0
  0
LINE
  5
30B6
  8
0
 10
439.9695983610413919
 20
58.6528820983246177
 30
0.0
 11
439.9892834003416056
 21
58.6528820983246177
 31
0.0
  0
LINE
  5
30B7
  8
0
 10
439.9695983610416761
 20
60.3851655629246125
 30
0.0
 11
439.9892834003416056
 21
60.3851655629246125
 31
0.0
  0
ARC
  5
30B8
  8
0
 10
439.9616983610417265
 20
60.3969506022246208
 30
0.0
 40
0.0079
 50
359.9999999999678266
 51
90.0000000000390656
  0
ARC
  5
30B9
  8
0
 10
439.9616983610414991
 20
58.641097058824613
 30
0.0
 40
0.0079
 50
269.9999999999739089
 51
0.0
  0
LINE
  5
30BA
  8
0
 10
439.9892834004414794
 20
58.641097058824613
 30
0.0
 11
439.9892834004414794
 21
60.3969506022246208
 31
0.0
  0
LINE
  5
30BB
  8
0
 10
439.9971834004413722
 20
60.4048506022246201
 30
0.0
 11
440.7766849752413805
 21
60.4048506022246201
 31
0.0
  0
LINE
  5
30BC
  8
0
 10
439.9971834004413722
 20
58.6331970588246065
 30
0.0
 11
440.7766849752413805
 21
58.6331970588246065
 31
0.0
  0
ARC
  5
30BD
  8
0
 10
439.9971834004413722
 20
58.641097058824613
 30
0.0
 40
0.0079
 50
180.0000000000011937
 51
269.9999999999869829
  0
ARC
  5
30BE
  8
0
 10
439.9971834004413722
 20
60.3969506022246208
 30
0.0
 40
0.0079
 50
90.0000000000260485
 51
179.9999999999934914
  0
ARC
  5
30BF
  8
0
 10
438.6310156840295917
 20
64.1646931217116503
 30
0.0
 40
0.0393700789129676
 50
90.0000002739173084
 51
180.0020318888483928
  0
ARC
  5
30C0
  8
0
 10
438.6310156840295917
 20
62.7473702874375689
 30
0.0
 40
0.0393700789129645
 50
179.9979682566753922
 51
269.9999997260827058
  0
ARC
  5
30C1
  8
0
 10
439.179553485278177
 20
61.7150988251245707
 30
0.0
 40
1.056627679081878
 50
103.1845271019887065
 51
110.0006103131563009
  0
ARC
  5
30C2
  8
0
 10
439.1490216839644063
 20
61.9006079644058786
 30
0.0
 40
0.8691356511684546
 50
89.2186366775559634
 51
104.0142197239372024
  0
ARC
  5
30C3
  8
0
 10
439.6091172994812268
 20
61.8822576995225475
 30
0.0
 40
0.8873661845791975
 50
84.5192729115172341
 51
90.8048354232202826
  0
ARC
  5
30C4
  8
0
 10
439.6057141743835928
 20
61.86643384765663
 30
0.0
 40
0.903444679657702
 50
76.2705971553767625
 51
84.400284581810908
  0
ARC
  5
30C5
  8
0
 10
439.5510517613835191
 20
61.6344293097393319
 30
0.0
 40
1.1417953398409211
 50
70.0932633707082289
 51
76.3690823530105973
  0
LINE
  5
30C6
  8
0
 10
439.1608740346283071
 20
62.7696627969197678
 30
0.0
 11
439.5966528516975131
 21
62.7695363384382574
 31
0.0
  0
LINE
  5
30C7
  8
0
 10
439.9398217748412776
 20
62.7080002085246235
 30
0.0
 11
440.1664487547415092
 21
62.7080002085246235
 31
0.0
  0
LINE
  5
30C8
  8
0
 10
440.1861337941414263
 20
62.7080002085246235
 30
0.0
 11
440.7766849752413805
 21
62.7080002085246235
 31
0.0
  0
LINE
  5
30C9
  8
0
 10
438.6310156840295917
 20
62.7080002085246235
 30
0.0
 11
438.8181549586565779
 21
62.7080002085246235
 31
0.0
  0
LINE
  5
30CA
  8
0
 10
438.5916456051414798
 20
62.7473716835246194
 30
0.0
 11
438.5916456051414798
 21
64.1646917255246194
 31
0.0
  0
LINE
  5
30CB
  8
0
 10
438.6310156838586067
 20
64.204063200624617
 30
0.0
 11
440.1664487547415092
 21
64.204063200624617
 31
0.0
  0
LINE
  5
30CC
  8
0
 10
440.1861337941414263
 20
64.204063200624617
 30
0.0
 11
440.7766849752413805
 21
64.204063200624617
 31
0.0
  0
LINE
  5
30CD
  8
0
 10
440.1861337941414263
 20
62.7080002085246235
 30
0.0
 11
440.1861337941414263
 21
64.204063200624617
 31
0.0
  0
LINE
  5
30CE
  8
0
 10
440.1664487547415092
 20
62.7080002085246235
 30
0.0
 11
440.1664487547415092
 21
64.204063200624617
 31
0.0
  0
LINE
  5
30CF
  8
0
 10
440.1861337941414263
 20
62.7276852479246187
 30
0.0
 11
440.1664487547415092
 21
62.7276852479246187
 31
0.0
  0
LINE
  5
30D0
  8
0
 10
440.1861337941414263
 20
64.1843781612246147
 30
0.0
 11
440.1664487547415092
 21
64.1843781612246147
 31
0.0
  0
ARC
  5
30D1
  8
0
 10
438.6310156840295917
 20
67.3142994209116523
 30
0.0
 40
0.0393700789129676
 50
90.0000002739173084
 51
180.0020318888483928
  0
ARC
  5
30D2
  8
0
 10
438.6310156840295917
 20
65.8969765866375781
 30
0.0
 40
0.0393700789129645
 50
179.9979682566753922
 51
269.9999997260827058
  0
ARC
  5
30D3
  8
0
 10
439.179553485278177
 20
64.8647051243245727
 30
0.0
 40
1.056627679081878
 50
103.1845271019887065
 51
110.0006103131563009
  0
ARC
  5
30D4
  8
0
 10
439.1490216839644063
 20
65.0502142636058807
 30
0.0
 40
0.8691356511684546
 50
89.2186366775559634
 51
104.0142197239372024
  0
ARC
  5
30D5
  8
0
 10
439.6091172994812268
 20
65.0318639987225566
 30
0.0
 40
0.8873661845791975
 50
84.5192729115172341
 51
90.8048354232202826
  0
ARC
  5
30D6
  8
0
 10
439.6057141743835928
 20
65.0160401468566391
 30
0.0
 40
0.903444679657702
 50
76.2705971553767625
 51
84.400284581810908
  0
ARC
  5
30D7
  8
0
 10
439.5510517613835191
 20
64.7840356089393339
 30
0.0
 40
1.1417953398409211
 50
70.0932633707082289
 51
76.3690823530105973
  0
LINE
  5
30D8
  8
0
 10
439.1608740346283071
 20
65.9192690961197769
 30
0.0
 11
439.5966528516975131
 21
65.9191426376382452
 31
0.0
  0
LINE
  5
30D9
  8
0
 10
439.9398217748412776
 20
65.8576065077246255
 30
0.0
 11
440.1664487547415092
 21
65.8576065077246255
 31
0.0
  0
LINE
  5
30DA
  8
0
 10
440.1861337941414263
 20
65.8576065077246255
 30
0.0
 11
440.7766849752413805
 21
65.8576065077246255
 31
0.0
  0
LINE
  5
30DB
  8
0
 10
438.6310156840295917
 20
65.8576065077246255
 30
0.0
 11
438.8181549586565779
 21
65.8576065077246255
 31
0.0
  0
LINE
  5
30DC
  8
0
 10
438.5916456051414798
 20
65.8969779827246214
 30
0.0
 11
438.5916456051414798
 21
67.3142980247246214
 31
0.0
  0
LINE
  5
30DD
  8
0
 10
438.6310156838586067
 20
67.353669499824619
 30
0.0
 11
440.1664487547415092
 21
67.353669499824619
 31
0.0
  0
LINE
  5
30DE
  8
0
 10
440.1861337941414263
 20
67.353669499824619
 30
0.0
 11
440.7766849752413805
 21
67.353669499824619
 31
0.0
  0
LINE
  5
30DF
  8
0
 10
440.1861337941414263
 20
65.8576065077246255
 30
0.0
 11
440.1861337941414263
 21
67.353669499824619
 31
0.0
  0
LINE
  5
30E0
  8
0
 10
440.1664487547415092
 20
65.8576065077246255
 30
0.0
 11
440.1664487547415092
 21
67.353669499824619
 31
0.0
  0
LINE
  5
30E1
  8
0
 10
440.1861337941414263
 20
65.8772915471246137
 30
0.0
 11
440.1664487547415092
 21
65.8772915471246137
 31
0.0
  0
LINE
  5
30E2
  8
0
 10
440.1861337941414263
 20
67.3339844604246167
 30
0.0
 11
440.1664487547415092
 21
67.3339844604246167
 31
0.0
  0
ARC
  5
30E3
  8
0
 10
438.6310156840295917
 20
70.4639057201616339
 30
0.0
 40
0.0393700789129676
 50
90.0000002739173084
 51
180.0020318888483928
  0
ARC
  5
30E4
  8
0
 10
438.6310156840295917
 20
69.0465828858875739
 30
0.0
 40
0.0393700789129645
 50
179.9979682566753922
 51
269.9999997260827058
  0
ARC
  5
30E5
  8
0
 10
439.179553485278177
 20
68.0143114235745685
 30
0.0
 40
1.056627679081878
 50
103.1845271019887065
 51
110.0006103131563009
  0
ARC
  5
30E6
  8
0
 10
439.1490216839644063
 20
68.1998205628558765
 30
0.0
 40
0.8691356511684546
 50
89.2186366775559634
 51
104.0142197239372024
  0
ARC
  5
30E7
  8
0
 10
439.6091172994812268
 20
68.1814702979725524
 30
0.0
 40
0.8873661845791975
 50
84.5192729115172341
 51
90.8048354232202826
  0
ARC
  5
30E8
  8
0
 10
439.6057141743835928
 20
68.1656464461066349
 30
0.0
 40
0.903444679657702
 50
76.2705971553767625
 51
84.400284581810908
  0
ARC
  5
30E9
  8
0
 10
439.5510517613835191
 20
67.9336419081893297
 30
0.0
 40
1.1417953398409211
 50
70.0932633707082289
 51
76.3690823530105973
  0
LINE
  5
30EA
  8
0
 10
439.1608740346283071
 20
69.0688753953697727
 30
0.0
 11
439.5966528516975131
 21
69.0687489368882552
 31
0.0
  0
LINE
  5
30EB
  8
0
 10
439.9398217748412776
 20
69.0072128069746213
 30
0.0
 11
440.1664487547415092
 21
69.0072128069746213
 31
0.0
  0
LINE
  5
30EC
  8
0
 10
440.1861337941414263
 20
69.0072128069746213
 30
0.0
 11
440.7766849752413805
 21
69.0072128069746213
 31
0.0
  0
LINE
  5
30ED
  8
0
 10
438.6310156840295917
 20
69.0072128069746213
 30
0.0
 11
438.8181549586565779
 21
69.0072128069746213
 31
0.0
  0
LINE
  5
30EE
  8
0
 10
438.5916456051414798
 20
69.046584281974603
 30
0.0
 11
438.5916456051414798
 21
70.4639043239746172
 31
0.0
  0
LINE
  5
30EF
  8
0
 10
438.6310156838586067
 20
70.5032757990746148
 30
0.0
 11
440.1664487547415092
 21
70.5032757990746148
 31
0.0
  0
LINE
  5
30F0
  8
0
 10
440.1861337941414263
 20
70.5032757990746148
 30
0.0
 11
440.7766849752413805
 21
70.503275799074629
 31
0.0
  0
LINE
  5
30F1
  8
0
 10
440.1861337941414263
 20
69.0072128069746213
 30
0.0
 11
440.1861337941414263
 21
70.5032757990746148
 31
0.0
  0
LINE
  5
30F2
  8
0
 10
440.1664487547415092
 20
69.0072128069746213
 30
0.0
 11
440.1664487547415092
 21
70.5032757990746148
 31
0.0
  0
LINE
  5
30F3
  8
0
 10
440.1861337941414263
 20
69.0268978463746237
 30
0.0
 11
440.1664487547415092
 21
69.0268978463746237
 31
0.0
  0
LINE
  5
30F4
  8
0
 10
440.1861337941414263
 20
70.4835907596746267
 30
0.0
 11
440.1664487547415092
 21
70.4835907596746267
 31
0.0
  0
ARC
  5
30F5
  8
0
 10
438.6310156840295917
 20
73.6135120193616501
 30
0.0
 40
0.0393700789129676
 50
90.0000002739173084
 51
180.0020318888483928
  0
ARC
  5
30F6
  8
0
 10
438.6310156840295917
 20
72.1961891850875759
 30
0.0
 40
0.0393700789129645
 50
179.9979682566753922
 51
269.9999997260827058
  0
ARC
  5
30F7
  8
0
 10
439.179553485278177
 20
71.1639177227745705
 30
0.0
 40
1.056627679081878
 50
103.1845271019887065
 51
110.0006103131563009
  0
ARC
  5
30F8
  8
0
 10
439.1490216839644063
 20
71.3494268620558785
 30
0.0
 40
0.8691356511684546
 50
89.2186366775559634
 51
104.0142197239372024
  0
ARC
  5
30F9
  8
0
 10
439.6091172994812268
 20
71.3310765971725544
 30
0.0
 40
0.8873661845791975
 50
84.5192729115172341
 51
90.8048354232202826
  0
ARC
  5
30FA
  8
0
 10
439.6057141743835928
 20
71.3152527453066369
 30
0.0
 40
0.903444679657702
 50
76.2705971553767625
 51
84.400284581810908
  0
ARC
  5
30FB
  8
0
 10
439.5510517613835191
 20
71.0832482073893317
 30
0.0
 40
1.1417953398409211
 50
70.0932633707082289
 51
76.3690823530105973
  0
LINE
  5
30FC
  8
0
 10
439.1608740346283071
 20
72.2184816945697747
 30
0.0
 11
439.5966528516975131
 21
72.2183552360882572
 31
0.0
  0
LINE
  5
30FD
  8
0
 10
439.9398217748412776
 20
72.1568191061746234
 30
0.0
 11
440.1664487547415092
 21
72.1568191061746234
 31
0.0
  0
LINE
  5
30FE
  8
0
 10
440.1861337941414263
 20
72.1568191061746234
 30
0.0
 11
440.7766849752413805
 21
72.1568191061746234
 31
0.0
  0
LINE
  5
30FF
  8
0
 10
438.6310156840295917
 20
72.1568191061746234
 30
0.0
 11
438.8181549586565779
 21
72.1568191061746234
 31
0.0
  0
LINE
  5
3100
  8
0
 10
438.5916456051414798
 20
72.1961905811746192
 30
0.0
 11
438.5916456051414798
 21
73.6135106231746192
 31
0.0
  0
LINE
  5
3101
  8
0
 10
438.6310156838586067
 20
73.6528820982746169
 30
0.0
 11
440.1664487547415092
 21
73.6528820982746169
 31
0.0
  0
LINE
  5
3102
  8
0
 10
440.1861337941414263
 20
73.6528820982746169
 30
0.0
 11
440.7766849752413805
 21
73.6528820982746169
 31
0.0
  0
LINE
  5
3103
  8
0
 10
440.1861337941414263
 20
72.1568191061746234
 30
0.0
 11
440.1861337941414263
 21
73.6528820982746169
 31
0.0
  0
LINE
  5
3104
  8
0
 10
440.1664487547415092
 20
72.1568191061746234
 30
0.0
 11
440.1664487547415092
 21
73.6528820982746169
 31
0.0
  0
LINE
  5
3105
  8
0
 10
440.1861337941414263
 20
72.1765041455746257
 30
0.0
 11
440.1664487547415092
 21
72.1765041455746257
 31
0.0
  0
LINE
  5
3106
  8
0
 10
440.1861337941414263
 20
73.6331970588746145
 30
0.0
 11
440.1664487547415092
 21
73.6331970588746145
 31
0.0
  0
ENDSEC
  0
EOF
