  0
SECTION
  2
HEADER
  9
$ACADVER
  1
AC1009
  9
$INSBASE
 10
6.4886297736317431
 20
-2.0595181362040331
 30
0.0
  9
$EXTMIN
 10
-5.3223938484682591
 20
-3.853790028604033
 30
0.0
  9
$EXTMAX
 10
18.2996533957317489
 20
-2.0595181362040309
 30
0.0
  9
$LIMMIN
 10
0.0
 20
0.0
  9
$LIMMAX
 10
11.6929133858000007
 20
8.2677165353999982
  9
$ORTHOMODE
 70
     0
  9
$REGENMODE
 70
     1
  9
$FILLMODE
 70
     1
  9
$QTEXTMODE
 70
     0
  9
$MIRRTEXT
 70
     0
  9
$DRAGMODE
 70
     2
  9
$LTSCALE
 40
0.6431102362
  9
$OSMODE
 70
  3839
  9
$ATTMODE
 70
     1
  9
$TEXTSIZE
 40
0.2
  9
$TRACEWID
 40
0.05
  9
$TEXTSTYLE
  7
STANDARD
  9
$CLAYER
  8
0
  9
$CELTYPE
  6
BYLAYER
  9
$CECOLOR
 62
   256
  9
$DIMSCALE
 40
1.0
  9
$DIMASZ
 40
0.1875
  9
$DIMEXO
 40
0.0625
  9
$DIMDLI
 40
0.4443307087
  9
$DIMRND
 40
0.0
  9
$DIMDLE
 40
0.0
  9
$DIMEXE
 40
0.125
  9
$DIMTP
 40
0.01
  9
$DIMTM
 40
0.01
  9
$DIMTXT
 40
1.0
  9
$DIMCEN
 40
0.1052362205
  9
$DIMTSZ
 40
0.0
  9
$DIMTOL
 70
     1
  9
$DIMLIM
 70
     0
  9
$DIMTIH
 70
     1
  9
$DIMTOH
 70
     1
  9
$DIMSE1
 70
     0
  9
$DIMSE2
 70
     0
  9
$DIMTAD
 70
     0
  9
$DIMZIN
 70
     0
  9
$DIMBLK
  1

  9
$DIMASO
 70
     1
  9
$DIMSHO
 70
     1
  9
$DIMPOST
  1
\X
  9
$DIMAPOST
  1

  9
$DIMALT
 70
     1
  9
$DIMALTD
 70
     2
  9
$DIMALTF
 40
25.3999999999999986
  9
$DIMLFAC
 40
1.0
  9
$DIMTOFL
 70
     0
  9
$DIMTVP
 40
0.0
  9
$DIMTIX
 70
     0
  9
$DIMSOXD
 70
     0
  9
$DIMSAH
 70
     0
  9
$DIMBLK1
  1

  9
$DIMBLK2
  1

  9
$DIMSTYLE
  2
STANDARD
  9
$DIMCLRD
 70
     0
  9
$DIMCLRE
 70
     0
  9
$DIMCLRT
 70
     0
  9
$DIMTFAC
 40
1.0
  9
$DIMGAP
 40
0.09
  9
$LUNITS
 70
     2
  9
$LUPREC
 70
     4
  9
$SKETCHINC
 40
0.1
  9
$FILLETRAD
 40
0.0
  9
$AUNITS
 70
     0
  9
$AUPREC
 70
     0
  9
$MENU
  1
.
  9
$ELEVATION
 40
0.0
  9
$PELEVATION
 40
0.0
  9
$THICKNESS
 40
0.0
  9
$LIMCHECK
 70
     0
  9
$BLIPMODE
 70
     0
  9
$CHAMFERA
 40
0.0
  9
$CHAMFERB
 40
0.0
  9
$SKPOLY
 70
     0
  9
$TDCREATE
 40
2457893.7626041672192514
  9
$TDUPDATE
 40
2459140.6834953702054918
  9
$TDINDWG
 40
0.3026777662
  9
$TDUSRTIMER
 40
0.3026777662
  9
$USRTIMER
 70
     1
  9
$ANGBASE
 50
0.0
  9
$ANGDIR
 70
     0
  9
$PDMODE
 70
     0
  9
$PDSIZE
 40
0.3125
  9
$PLINEWID
 40
0.0
  9
$COORDS
 70
     1
  9
$SPLFRAME
 70
     0
  9
$SPLINETYPE
 70
     6
  9
$SPLINESEGS
 70
     8
  9
$ATTDIA
 70
     1
  9
$ATTREQ
 70
     1
  9
$HANDLING
 70
     1
  9
$HANDSEED
  5
316C
  9
$SURFTAB1
 70
     6
  9
$SURFTAB2
 70
     6
  9
$SURFTYPE
 70
     6
  9
$SURFU
 70
     6
  9
$SURFV
 70
     6
  9
$UCSNAME
  2

  9
$UCSORG
 10
0.0
 20
0.0
 30
0.0
  9
$UCSXDIR
 10
1.0
 20
0.0
 30
0.0
  9
$UCSYDIR
 10
0.0
 20
1.0
 30
0.0
  9
$PUCSNAME
  2

  9
$PUCSORG
 10
0.0
 20
0.0
 30
0.0
  9
$PUCSXDIR
 10
1.0
 20
0.0
 30
0.0
  9
$PUCSYDIR
 10
0.0
 20
1.0
 30
0.0
  9
$USERI1
 70
     0
  9
$USERI2
 70
     0
  9
$USERI3
 70
     0
  9
$USERI4
 70
     0
  9
$USERI5
 70
     0
  9
$USERR1
 40
0.0
  9
$USERR2
 40
0.0
  9
$USERR3
 40
0.0
  9
$USERR4
 40
0.0
  9
$USERR5
 40
0.0
  9
$WORLDVIEW
 70
     1
  9
$SHADEDGE
 70
     3
  9
$SHADEDIF
 70
    70
  9
$TILEMODE
 70
     1
  9
$MAXACTVP
 70
    48
  9
$PLIMCHECK
 70
     0
  9
$PEXTMIN
 10
1.0000000000000000E+20
 20
1.0000000000000000E+20
 30
1.0000000000000000E+20
  9
$PEXTMAX
 10
-1.0000000000000000E+20
 20
-1.0000000000000000E+20
 30
-1.0000000000000000E+20
  9
$PLIMMIN
 10
0.0
 20
0.0
  9
$PLIMMAX
 10
12.0
 20
9.0
  9
$UNITMODE
 70
     0
  9
$VISRETAIN
 70
     1
  9
$PLINEGEN
 70
     0
  9
$PSLTSCALE
 70
     1
  0
ENDSEC
  0
SECTION
  2
TABLES
  0
TABLE
  2
VPORT
 70
     1
  0
VPORT
  2
*ACTIVE
 70
     0
 10
0.0
 20
0.0
 11
1.0
 21
1.0
 12
0.0
 22
0.0
 13
0.0
 23
0.0
 14
1.0
 24
1.0
 15
0.0
 25
0.0
 16
-0.0000000000000222
 26
0.0
 36
98.3505561646497455
 17
6.4886300563812247
 27
-2.9566540718078609
 37
0.0
 40
23.6900941083067202
 41
3.314341846758349
 42
50.0
 43
0.0
 44
0.0
 50
0.0
 51
0.0
 71
     0
 72
   100
 73
     1
 74
     1
 75
     0
 76
     0
 77
     0
 78
     0
  0
ENDTAB
  0
TABLE
  2
LTYPE
 70
     2
  0
LTYPE
  2
CONTINUOUS
 70
     0
  3
Solid line
 72
    65
 73
     0
 40
0.0
  0
LTYPE
  2
PHANTOM2
 70
     0
  3
___ _ _ ___ _ _ ___ _ _ ___ _ _
 72
    65
 73
     6
 40
1.25
 49
0.625
 49
-0.125
 49
0.125
 49
-0.125
 49
0.125
 49
-0.125
  0
ENDTAB
  0
TABLE
  2
LAYER
 70
     2
  0
LAYER
  2
0
 70
     0
 62
     7
  6
CONTINUOUS
  0
LAYER
  2
DEFPOINTS
 70
     0
 62
     7
  6
CONTINUOUS
  0
ENDTAB
  0
TABLE
  2
STYLE
 70
     1
  0
STYLE
  2
STANDARD
 70
     0
 40
0.0
 41
0.8
 50
0.0
 71
     0
 42
0.2
  3
txt
  4

  0
ENDTAB
  0
TABLE
  2
VIEW
 70
     0
  0
ENDTAB
  0
TABLE
  2
UCS
 70
     0
  0
ENDTAB
  0
TABLE
  2
APPID
 70
     9
  0
APPID
  2
ACAD
 70
     0
  0
APPID
  2
ACAD_MLEADERVER
 70
     0
  0
APPID
  2
ACAD_NAV_VCDISPLAY
 70
     0
  0
APPID
  2
ACAD_EXEMPT_FROM_CAD_STANDARDS
 70
     0
  0
APPID
  2
ACAD_DSTYLE_DIMJAG
 70
     0
  0
APPID
  2
ACAD_DSTYLE_DIMTALN
 70
     0
  0
APPID
  2
ACDBATTR
 70
     0
  0
APPID
  2
ACAD_PSEXT
 70
     0
  0
APPID
  2
ACADANNOTATIVE
 70
     0
  0
ENDTAB
  0
TABLE
  2
DIMSTYLE
 70
     3
  0
DIMSTYLE
  2
STANDARD
 70
     0
  3

  4

  5

  6

  7

 40
1.0
 41
0.1875
 42
0.0625
 43
0.38
 44
0.125
 45
0.0
 46
0.0
 47
0.01
 48
0.01
140
0.15625
141
0.09
142
0.0
143
25.3999999999999986
144
1.0
145
0.0
146
1.0
147
0.09
 71
     1
 72
     0
 73
     1
 74
     1
 75
     0
 76
     0
 77
     0
 78
     4
170
     0
171
     2
172
     0
173
     0
174
     0
175
     0
176
     0
177
     0
178
     0
  0
DIMSTYLE
  2
ANNOTATIVE
 70
     0
  3

  4

  5

  6

  7

 40
0.0
 41
2.5
 42
0.625
 43
3.75
 44
1.25
 45
0.0
 46
0.0
 47
0.0
 48
0.0
140
2.5
141
2.5
142
0.0
143
0.03937007874016
144
1.0
145
0.0
146
1.0
147
0.625
 71
     0
 72
     0
 73
     0
 74
     0
 75
     0
 76
     0
 77
     1
 78
     8
170
     0
171
     3
172
     1
173
     0
174
     0
175
     0
176
     0
177
     0
178
     0
  0
DIMSTYLE
  2
ISO-25
 70
     0
  3

  4

  5

  6

  7

 40
1.0
 41
2.5
 42
0.625
 43
3.75
 44
1.25
 45
0.0
 46
0.0
 47
0.0
 48
0.0
140
2.5
141
2.5
142
0.0
143
0.03937007874016
144
1.0
145
0.0
146
1.0
147
0.625
 71
     0
 72
     0
 73
     0
 74
     0
 75
     0
 76
     0
 77
     1
 78
     8
170
     0
171
     3
172
     1
173
     0
174
     0
175
     0
176
     0
177
     0
178
     0
  0
ENDTAB
  0
ENDSEC
  0
SECTION
  2
BLOCKS
  0
BLOCK
  8
0
  2
$MODEL_SPACE
 70
     0
 10
0.0
 20
0.0
 30
0.0
  3
$MODEL_SPACE
  1

  0
ENDBLK
  5
21
  8
0
  0
BLOCK
 67
     1
  8
0
  2
$PAPER_SPACE
 70
     0
 10
0.0
 20
0.0
 30
0.0
  3
$PAPER_SPACE
  1

  0
ENDBLK
  5
1D
 67
     1
  8
0
  0
BLOCK
  8
0
  2
_FILLED
 70
     0
 10
0.0
 20
0.0
 30
0.0
  3
_FILLED
  1

  0
SOLID
  5
1F2C
  8
0
  6
BYBLOCK
 62
     0
 10
0.0
 20
0.0
 30
0.0
 11
-1.0
 21
0.1666666667
 31
0.0
 12
-1.0
 22
-0.1666666667
 32
0.0
 13
-1.0
 23
-0.1666666667
 33
0.0
  0
ENDBLK
  5
1F2D
  8
0
  6
BYBLOCK
 62
     0
  0
ENDSEC
  0
SECTION
  2
ENTITIES
  0
ATTDEF
  5
1B48
  8
DEFPOINTS
 10
6.4774484672716417
 20
-2.060818477277663
 30
0.0
 40
0.001
  1
K-77276T-L
  3

  2
MODELNUMBER
 70
     0
1001
ACDBATTR
1070
     0
1070
     1
  0
ATTDEF
  5
1B49
  8
DEFPOINTS
 10
6.4774484672716417
 20
-2.062485143944329
 30
0.0
 40
0.001
  1
BEITOU
  3

  2
TRADENAME
 70
     0
1001
ACDBATTR
1070
     0
1070
     1
  0
ATTDEF
  5
1B4A
  8
DEFPOINTS
 10
6.4774484672716417
 20
-2.0641518106109942
 30
0.0
 40
0.001
  1
SHOWERHEAD
  3

  2
PRODUCT
 70
     0
1001
ACDBATTR
1070
     0
1070
     1
  0
LINE
  5
2D40
  8
0
 10
6.8179801673317391
 20
-2.0595181362040331
 30
0.0
 11
6.1592793799317391
 21
-2.0595181362040331
 31
0.0
  0
LINE
  5
2D41
  8
0
 10
6.9413856791317414
 20
-2.4532189236040298
 30
0.0
 11
6.0358738681317368
 21
-2.4532189236040298
 31
0.0
  0
LINE
  5
2D42
  8
0
 10
6.9413856791317414
 20
-2.4768409709040311
 30
0.0
 11
6.0358738681317368
 21
-2.4768409709040311
 31
0.0
  0
LINE
  5
2D43
  8
0
 10
6.9413856791317414
 20
-2.4768409709040311
 30
0.0
 11
6.9413856791317414
 21
-2.4532189236040298
 31
0.0
  0
ARC
  5
2D44
  8
0
 10
6.7202822064635717
 20
-2.9266407452301522
 30
0.0
 40
0.5012051302707802
 50
35.3260327854690175
 51
41.0686861899494176
  0
ARC
  5
2D45
  8
0
 10
6.7202822064635717
 20
-2.9266407452301522
 30
0.0
 40
0.5012051302707802
 50
62.222088419906477
 51
63.8231251651938294
  0
ARC
  5
2D46
  8
0
 10
-4.6610816507080912
 20
-11.0487029350928196
 30
0.0
 40
14.4834533627972597
 50
35.105930983685731
 51
35.5062639689490211
  0
LINE
  5
2D47
  8
0
 10
6.8179801673317391
 20
-2.0595181362040309
 30
0.0
 11
6.8455392225317411
 21
-2.0870771914040311
 31
0.0
  0
LINE
  5
2D48
  8
0
 10
6.8455392225317411
 20
-2.0870771914040311
 30
0.0
 11
6.8455392225317411
 21
-2.1032550505777272
 31
0.0
  0
LINE
  5
2D49
  8
0
 10
6.8455392225317411
 20
-2.123529136556618
 30
0.0
 11
6.8455392225317411
 21
-2.148412565670486
 31
0.0
  0
ARC
  5
2D4A
  8
0
 10
6.766116440343886
 20
-2.4123443257575299
 30
0.0
 40
0.3194334118541494
 50
75.8251321413375905
 51
88.0343136048435042
  0
ARC
  5
2D4B
  8
0
 10
6.8395538073233624
 20
-2.1133920935671719
 30
0.0
 40
0.0117722060713592
 50
299.6737691446530789
 51
66.010769405965803
  0
LINE
  5
2D4C
  8
0
 10
6.8455392225317411
 20
-2.0870771914040311
 30
0.0
 11
6.131720324731738
 21
-2.0870771914040311
 31
0.0
  0
LINE
  5
2D4D
  8
0
 10
6.1592793799317391
 20
-2.0595181362040309
 30
0.0
 11
6.131720324731738
 21
-2.0870771914040311
 31
0.0
  0
LINE
  5
2D4E
  8
0
 10
6.131720324731738
 20
-2.0870771914040311
 30
0.0
 11
6.1317203247317451
 21
-2.1119354171089841
 31
0.0
  0
ARC
  5
2D4F
  8
0
 10
6.121910049785483
 20
-2.1119354171089841
 30
0.0
 40
0.009810274946255
 50
297.5367368607959975
 51
0.0000000000019338
  0
ARC
  5
2D50
  8
0
 10
4.9473671682337113
 20
0.1408126770639413
 30
0.0
 40
2.550366307865759
 50
296.6632965653967062
 51
297.5367368607959975
  0
ARC
  5
2D51
  8
0
 10
6.0965055346482941
 20
-2.1476455484475472
 30
0.0
 40
0.0104070196814421
 50
116.6632965653958962
 51
243.4778106676471054
  0
LINE
  5
2D52
  8
0
 10
6.1302986014398391
 20
-2.1170220363854191
 30
0.0
 11
6.7770733161958949
 21
-2.0930988849438128
 31
0.0
  0
LINE
  5
2D53
  8
0
 10
6.0918583386317371
 20
-2.1569573489089851
 30
0.0
 11
6.7927769580386927
 21
-2.1285991255232801
 31
0.0
  0
LINE
  5
2D54
  8
0
 10
6.8453817667759864
 20
-2.1236204719530689
 30
0.0
 11
6.7927769580386927
 21
-2.1285991255232801
 31
0.0
  0
ARC
  5
2D55
  8
0
 10
6.8554010984782252
 20
-2.1477080513776321
 30
0.0
 40
0.0098870085249624
 50
184.0861634974247067
 51
242.3578239033793125
  0
ARC
  5
2D56
  8
0
 10
8.0298923790297678
 20
0.1049804285683535
 30
0.0
 40
2.550366307865759
 50
242.4632631392038036
 51
243.3367034346034075
  0
ARC
  5
2D57
  8
0
 10
6.880754012615184
 20
-2.1834777969431349
 30
0.0
 40
0.0104070196814421
 50
296.5221893323528093
 51
63.3367034346040469
  0
LINE
  5
2D58
  8
0
 10
6.0918583386317371
 20
-2.1569573489089851
 30
0.0
 11
6.1285681266317411
 21
-2.1763698743254039
 31
0.0
  0
ARC
  5
2D59
  8
0
 10
6.1219579767388552
 20
-2.1835272602804281
 30
0.0
 40
0.0097428053103601
 50
297.4258064513746831
 51
47.2762112429183716
  0
ARC
  5
2D5A
  8
0
 10
4.9473671682337113
 20
0.0692719556847727
 30
0.0
 40
2.550366307865759
 50
296.6632965653967062
 51
297.5367368607959975
  0
ARC
  5
2D5B
  8
0
 10
6.0965055346482941
 20
-2.2191862698267162
 30
0.0
 40
0.0104070196814421
 50
116.6632965653958962
 51
243.4778106676471054
  0
LINE
  5
2D5C
  8
0
 10
6.1316140914558508
 20
-2.1848240655425331
 30
0.0
 11
6.8455392225317411
 21
-2.148412565670486
 31
0.0
  0
LINE
  5
2D5D
  8
0
 10
6.0918583386317371
 20
-2.2284980702881541
 30
0.0
 11
6.8854012086317411
 21
-2.1927895974045728
 31
0.0
  0
LINE
  5
2D5E
  8
0
 10
6.8854012086317411
 20
-2.1927895974045728
 30
0.0
 11
6.8498441361317433
 21
-2.2113423985045708
 31
0.0
  0
ARC
  5
2D5F
  8
0
 10
6.8552758471643642
 20
-2.2193869468706051
 30
0.0
 40
0.0097066082209677
 50
124.0273780139769002
 51
242.6343679779562876
  0
ARC
  5
2D60
  8
0
 10
8.0298923790297678
 20
0.033439707189185
 30
0.0
 40
2.550366307865759
 50
242.4632631392038036
 51
243.3367034346034075
  0
ARC
  5
2D61
  8
0
 10
6.880754012615184
 20
-2.255018518322303
 30
0.0
 40
0.0104070196814421
 50
296.5221893323528093
 51
63.3367034346040469
  0
LINE
  5
2D62
  8
0
 10
6.0918583386317371
 20
-2.2284980702881541
 30
0.0
 11
6.1285681266317411
 21
-2.247910595704572
 31
0.0
  0
ARC
  5
2D63
  8
0
 10
6.1219579767388552
 20
-2.2550679816595962
 30
0.0
 40
0.0097428053103601
 50
297.4258064513746831
 51
47.2762112429183716
  0
ARC
  5
2D64
  8
0
 10
4.9473671682337113
 20
-0.0022687656943958
 30
0.0
 40
2.550366307865759
 50
296.6632965653967062
 51
297.5367368607959975
  0
ARC
  5
2D65
  8
0
 10
6.0965055346482941
 20
-2.2907269912058839
 30
0.0
 40
0.0104070196814421
 50
116.6632965653958962
 51
243.4778106676471054
  0
LINE
  5
2D66
  8
0
 10
6.1316140914558508
 20
-2.2563647869217021
 30
0.0
 11
6.84558563676174
 21
-2.2199509198382268
 31
0.0
  0
LINE
  5
2D67
  8
0
 10
6.0918583386317371
 20
-2.3000387916673222
 30
0.0
 11
6.8854012086317411
 21
-2.2643303187837409
 31
0.0
  0
LINE
  5
2D68
  8
0
 10
6.8854012086317411
 20
-2.2643303187837409
 30
0.0
 11
6.8498441361317433
 21
-2.2828831198837398
 31
0.0
  0
ARC
  5
2D69
  8
0
 10
6.8552758471643642
 20
-2.2909276682497728
 30
0.0
 40
0.0097066082209677
 50
124.0273780139769002
 51
242.6343679779562876
  0
ARC
  5
2D6A
  8
0
 10
8.0298923790297678
 20
-0.0381010141899836
 30
0.0
 40
2.550366307865759
 50
242.4632631392038036
 51
243.3367034346034075
  0
ARC
  5
2D6B
  8
0
 10
6.880754012615184
 20
-2.326559239701472
 30
0.0
 40
0.0104070196814421
 50
296.5221893323528093
 51
63.3367034346040469
  0
LINE
  5
2D6C
  8
0
 10
6.0918583386317371
 20
-2.3000387916673222
 30
0.0
 11
6.1285681266317411
 21
-2.319451317083741
 31
0.0
  0
ARC
  5
2D6D
  8
0
 10
6.1219579767388552
 20
-2.3266087030387652
 30
0.0
 40
0.0097428053103601
 50
297.4258064513746831
 51
47.2762112429183716
  0
ARC
  5
2D6E
  8
0
 10
4.9473671682337113
 20
-0.0738094870735644
 30
0.0
 40
2.550366307865759
 50
296.6632965653967062
 51
297.5367368607959975
  0
ARC
  5
2D6F
  8
0
 10
6.0965055346482941
 20
-2.3622677125850529
 30
0.0
 40
0.0104070196814421
 50
116.6632965653958962
 51
243.4778106676471054
  0
LINE
  5
2D70
  8
0
 10
6.1316140914558508
 20
-2.3279055083008711
 30
0.0
 11
6.84558563676174
 21
-2.2914916412173958
 31
0.0
  0
LINE
  5
2D71
  8
0
 10
6.0918583386317371
 20
-2.3715795130464912
 30
0.0
 11
6.8854012086317411
 21
-2.3358710401629099
 31
0.0
  0
LINE
  5
2D72
  8
0
 10
6.8854012086317411
 20
-2.3358710401629099
 30
0.0
 11
6.8498441361317433
 21
-2.3544238412629079
 31
0.0
  0
ARC
  5
2D73
  8
0
 10
6.8541522870552489
 20
-2.3619125822107612
 30
0.0
 40
0.0086395257603521
 50
119.9111181190448008
 51
187.4471328909183114
  0
ARC
  5
2D74
  8
0
 10
8.9865893247818747
 20
-2.391141276071131
 30
0.0
 40
2.141188198905585
 50
179.2478155951212102
 51
181.6613605797141133
  0
LINE
  5
2D75
  8
0
 10
6.0918583386317371
 20
-2.3715795130464912
 30
0.0
 11
6.1285681266317411
 21
-2.3909920384629091
 31
0.0
  0
ARC
  5
2D76
  8
0
 10
6.1175815597115237
 20
-2.39972620591938
 30
0.0
 40
0.0140353245010631
 50
1.143010333741161
 51
38.4842097562934597
  0
ARC
  5
2D77
  8
0
 10
5.2659914233950067
 20
-2.4131957920227149
 30
0.0
 40
0.8657318602924297
 50
357.3502486672779241
 51
0.9100104210357182
  0
LINE
  5
2D78
  8
0
 10
6.1316140914558508
 20
-2.3994462296800392
 30
0.0
 11
6.84558563676174
 21
-2.3630323625965639
 31
0.0
  0
LINE
  5
2D79
  8
0
 10
7.3515144268249912
 20
-3.853790028604033
 30
0.0
 11
5.625745120438487
 21
-3.853790028604033
 31
0.0
  0
LINE
  5
2D7A
  8
0
 10
7.8523169973295159
 20
-3.609371660604034
 30
0.0
 11
7.6648105570880736
 21
-3.6093716606040331
 31
0.0
  0
LINE
  5
2D7B
  8
0
 10
7.5171733997754231
 20
-3.609371660604034
 30
0.0
 11
7.1136294546880796
 21
-3.609371660604034
 31
0.0
  0
LINE
  5
2D7C
  8
0
 10
6.9659922973754362
 20
-3.6093716606040331
 30
0.0
 11
6.5624483522880794
 21
-3.609371660604034
 31
0.0
  0
ARC
  5
2D7D
  8
0
 10
7.3336101062103154
 20
-3.7115568258422109
 30
0.0
 40
0.1433556718953204
 50
277.1746575523991964
 51
309.2115363373970922
  0
ARC
  5
2D7E
  8
0
 10
8.1376016523292591
 20
-4.7183036442903461
 30
0.0
 40
1.1450403830523981
 50
103.5728062311821986
 51
128.5358010329406966
  0
LINE
  5
2D7F
  8
0
 10
6.0358738681317368
 20
-2.4768409709040311
 30
0.0
 11
6.0358738681317368
 21
-2.4532189236040298
 31
0.0
  0
ARC
  5
2D80
  8
0
 10
6.2569773407999056
 20
-2.9266407452301522
 30
0.0
 40
0.5012051302707802
 50
116.1768748348060996
 51
117.7779115800935017
  0
ARC
  5
2D81
  8
0
 10
5.6436494410531628
 20
-3.7115568258422109
 30
0.0
 40
0.1433556718953204
 50
230.7884636626029931
 51
262.8253424476006899
  0
ARC
  5
2D82
  8
0
 10
4.8396578949342191
 20
-4.7183036442903461
 30
0.0
 40
1.1450403830523981
 50
51.4641989670592821
 51
76.427193768817574
  0
LINE
  5
2D84
  8
0
 10
-1.8716064468682561
 20
-2.4831941389040328
 30
0.0
 11
14.8488659941317405
 21
-2.4831941389040328
 31
0.0
  0
LINE
  5
2D85
  8
0
 10
-5.3223938483682529
 20
-3.4280760286040328
 30
0.0
 11
18.2996533957317489
 21
-3.4280760286040328
 31
0.0
  0
LINE
  5
2D86
  8
0
 10
4.4621084081120008
 20
-2.8808319341040329
 30
0.0
 11
8.5151511391514845
 21
-2.8808319341040329
 31
0.0
  0
LINE
  5
2D87
  8
0
 10
4.4413856791317414
 20
-2.9398870522040328
 30
0.0
 11
8.5358738681317448
 21
-2.9398870522040328
 31
0.0
  0
LINE
  5
2D88
  8
0
 10
4.4413856791317414
 20
-3.0186272097040332
 30
0.0
 11
8.5358738681317448
 21
-3.0186272097040341
 31
0.0
  0
LINE
  5
2D89
  8
0
 10
4.4502174670353858
 20
-3.1131259310327581
 30
0.0
 11
7.1355821651613516
 21
-3.113125931032759
 31
0.0
  0
LINE
  5
2D8A
  8
0
 10
7.8137173982094552
 20
-3.113125931032759
 30
0.0
 11
8.5270420802280995
 21
-3.113125931032759
 31
0.0
  0
LINE
  5
2D8B
  8
0
 10
-5.3223938483682529
 20
-3.546186264804033
 30
0.0
 11
18.2996533957317489
 21
-3.546186264804033
 31
0.0
  0
LINE
  5
2D8C
  8
0
 10
18.2996533957317418
 20
-3.4280760286040328
 30
0.0
 11
18.2996533957317418
 21
-3.546186264804033
 31
0.0
  0
LINE
  5
2D8D
  8
0
 10
17.3764250493317505
 20
-3.4280760854161532
 30
0.0
 11
17.3764250493317505
 21
-3.3690209673161551
 31
0.0
  0
LINE
  5
2D8E
  8
0
 10
17.3764250493317505
 20
-3.2997296287161548
 30
0.0
 11
17.3764250493317505
 21
-3.2430367153161539
 31
0.0
  0
LINE
  5
2D8F
  8
0
 10
17.3764250493317505
 20
-3.2430367153161539
 30
0.0
 11
17.3449289863317517
 21
-3.211540652316156
 31
0.0
  0
LINE
  5
2D90
  8
0
 10
17.3449289863317517
 20
-3.211540652316156
 30
0.0
 11
16.734692765831749
 21
-3.211540652316156
 31
0.0
  0
LINE
  5
2D91
  8
0
 10
17.3764250493317505
 20
-3.2430367153161539
 30
0.0
 11
16.7031967028317503
 21
-3.2430367153161539
 31
0.0
  0
LINE
  5
2D92
  8
0
 10
17.3764250493317505
 20
-3.2997296287161548
 30
0.0
 11
16.7031967028317503
 21
-3.2997296287161548
 31
0.0
  0
LINE
  5
2D93
  8
0
 10
17.3764250493317505
 20
-3.3690209673161551
 30
0.0
 11
16.7031967028317503
 21
-3.3690209673161551
 31
0.0
  0
ARC
  5
2D94
  8
0
 10
17.3503108760317488
 20
-3.3340209673161558
 30
0.0
 40
0.0349999999999984
 50
269.9999999999968736
 51
78.4506242048438338
  0
LINE
  5
2D95
  8
0
 10
16.7031967028317503
 20
-3.4280760854161532
 30
0.0
 11
16.7031967028317503
 21
-3.3690209673161551
 31
0.0
  0
LINE
  5
2D96
  8
0
 10
16.7031967028317503
 20
-3.2997296287161548
 30
0.0
 11
16.7031967028317503
 21
-3.2430367153161539
 31
0.0
  0
LINE
  5
2D97
  8
0
 10
16.7031967028317503
 20
-3.2430367153161539
 30
0.0
 11
16.734692765831749
 21
-3.211540652316156
 31
0.0
  0
ARC
  5
2D98
  8
0
 10
16.7293108761317484
 20
-3.3340209673161558
 30
0.0
 40
0.0349999999999984
 50
101.5493757951560951
 51
270.000000000002899
  0
LINE
  5
2D99
  8
0
 10
15.1106770177317404
 20
-3.156422485304033
 30
0.0
 11
15.1106770177317404
 21
-3.4280760286040328
 31
0.0
  0
LINE
  5
2D9A
  8
0
 10
14.8488659941317405
 20
-2.4831941389040328
 30
0.0
 11
14.8488659941317405
 21
-3.4280760286040328
 31
0.0
  0
LINE
  5
2D9B
  8
0
 10
13.4374486713317403
 20
-2.5973673672040332
 30
0.0
 11
13.7130392224317497
 21
-2.5973673672040332
 31
0.0
  0
LINE
  5
2D9C
  8
0
 10
13.7130392224317497
 20
-2.5973673672040332
 30
0.0
 11
13.7130392224317497
 21
-2.7194146113040332
 31
0.0
  0
LINE
  5
2D9D
  8
0
 10
13.7130392224317497
 20
-2.7194146113040332
 30
0.0
 11
13.4374486713317403
 21
-2.7194146113040332
 31
0.0
  0
LINE
  5
2D9E
  8
0
 10
13.4374486713317403
 20
-2.7194146113040332
 30
0.0
 11
13.4374486713317403
 21
-2.5973673672040332
 31
0.0
  0
LINE
  5
2D9F
  8
0
 10
12.7287872540317295
 20
-2.5973673672040332
 30
0.0
 11
13.0043778051317407
 21
-2.5973673672040332
 31
0.0
  0
LINE
  5
2DA0
  8
0
 10
13.0043778051317407
 20
-2.5973673672040332
 30
0.0
 11
13.0043778051317407
 21
-2.7194146113040332
 31
0.0
  0
LINE
  5
2DA1
  8
0
 10
13.0043778051317407
 20
-2.7194146113040332
 30
0.0
 11
12.7287872540317295
 21
-2.7194146113040332
 31
0.0
  0
LINE
  5
2DA2
  8
0
 10
12.7287872540317295
 20
-2.7194146113040332
 30
0.0
 11
12.7287872540317295
 21
-2.5973673672040332
 31
0.0
  0
LINE
  5
2DA3
  8
0
 10
12.0201258367317294
 20
-2.5973673672040332
 30
0.0
 11
12.2957163878317406
 21
-2.5973673672040332
 31
0.0
  0
LINE
  5
2DA4
  8
0
 10
12.2957163878317406
 20
-2.5973673672040332
 30
0.0
 11
12.2957163878317406
 21
-2.7194146113040332
 31
0.0
  0
LINE
  5
2DA5
  8
0
 10
12.2957163878317406
 20
-2.7194146113040332
 30
0.0
 11
12.0201258367317294
 21
-2.7194146113040332
 31
0.0
  0
LINE
  5
2DA6
  8
0
 10
12.0201258367317294
 20
-2.7194146113040332
 30
0.0
 11
12.0201258367317294
 21
-2.5973673672040332
 31
0.0
  0
LINE
  5
2DA7
  8
0
 10
11.3114644194317293
 20
-2.5973673672040332
 30
0.0
 11
11.5870549705317405
 21
-2.5973673672040332
 31
0.0
  0
LINE
  5
2DA8
  8
0
 10
11.5870549705317405
 20
-2.5973673672040332
 30
0.0
 11
11.5870549705317405
 21
-2.7194146113040332
 31
0.0
  0
LINE
  5
2DA9
  8
0
 10
11.5870549705317405
 20
-2.7194146113040332
 30
0.0
 11
11.3114644194317293
 21
-2.7194146113040332
 31
0.0
  0
LINE
  5
2DAA
  8
0
 10
11.3114644194317293
 20
-2.7194146113040332
 30
0.0
 11
11.3114644194317293
 21
-2.5973673672040332
 31
0.0
  0
LINE
  5
2DAB
  8
0
 10
10.6028030020317292
 20
-2.5973673672040332
 30
0.0
 11
10.8783935531317404
 21
-2.5973673672040332
 31
0.0
  0
LINE
  5
2DAC
  8
0
 10
10.8783935531317404
 20
-2.5973673672040332
 30
0.0
 11
10.8783935531317404
 21
-2.7194146113040332
 31
0.0
  0
LINE
  5
2DAD
  8
0
 10
10.8783935531317404
 20
-2.7194146113040332
 30
0.0
 11
10.6028030020317292
 21
-2.7194146113040332
 31
0.0
  0
LINE
  5
2DAE
  8
0
 10
10.6028030020317292
 20
-2.7194146113040332
 30
0.0
 11
10.6028030020317292
 21
-2.5973673672040332
 31
0.0
  0
LINE
  5
2DAF
  8
0
 10
9.8941415847317344
 20
-2.5973673672040332
 30
0.0
 11
10.1697321358317403
 21
-2.5973673672040332
 31
0.0
  0
LINE
  5
2DB0
  8
0
 10
10.1697321358317403
 20
-2.5973673672040332
 30
0.0
 11
10.1697321358317403
 21
-2.7194146113040332
 31
0.0
  0
LINE
  5
2DB1
  8
0
 10
10.1697321358317403
 20
-2.7194146113040332
 30
0.0
 11
9.8941415847317344
 21
-2.7194146113040332
 31
0.0
  0
LINE
  5
2DB2
  8
0
 10
9.8941415847317344
 20
-2.7194146113040332
 30
0.0
 11
9.8941415847317344
 21
-2.5973673672040332
 31
0.0
  0
LINE
  5
2DB3
  8
0
 10
9.1854801674317343
 20
-2.5973673672040332
 30
0.0
 11
9.4610707185317438
 21
-2.5973673672040332
 31
0.0
  0
LINE
  5
2DB4
  8
0
 10
9.4610707185317438
 20
-2.5973673672040332
 30
0.0
 11
9.4610707185317438
 21
-2.7194146113040332
 31
0.0
  0
LINE
  5
2DB5
  8
0
 10
9.4610707185317438
 20
-2.7194146113040332
 30
0.0
 11
9.1854801674317343
 21
-2.7194146113040332
 31
0.0
  0
LINE
  5
2DB6
  8
0
 10
9.1854801674317343
 20
-2.7194146113040332
 30
0.0
 11
9.1854801674317343
 21
-2.5973673672040332
 31
0.0
  0
LINE
  5
2DB7
  8
0
 10
8.4768187501317342
 20
-2.5973673672040332
 30
0.0
 11
8.7524093012317437
 21
-2.5973673672040332
 31
0.0
  0
LINE
  5
2DB8
  8
0
 10
8.7524093012317437
 20
-2.5973673672040332
 30
0.0
 11
8.7524093012317437
 21
-2.7194146113040332
 31
0.0
  0
LINE
  5
2DB9
  8
0
 10
8.7524093012317437
 20
-2.7194146113040332
 30
0.0
 11
8.4768187501317342
 21
-2.7194146113040332
 31
0.0
  0
LINE
  5
2DBA
  8
0
 10
8.4768187501317342
 20
-2.7194146113040332
 30
0.0
 11
8.4768187501317342
 21
-2.5973673672040332
 31
0.0
  0
LINE
  5
2DBB
  8
0
 10
7.7681573328317342
 20
-2.5973673672040332
 30
0.0
 11
8.0437478839317436
 21
-2.5973673672040332
 31
0.0
  0
LINE
  5
2DBC
  8
0
 10
8.0437478839317436
 20
-2.5973673672040332
 30
0.0
 11
8.0437478839317436
 21
-2.7194146113040332
 31
0.0
  0
LINE
  5
2DBD
  8
0
 10
8.0437478839317436
 20
-2.7194146113040332
 30
0.0
 11
7.7681573328317342
 21
-2.7194146113040332
 31
0.0
  0
LINE
  5
2DBE
  8
0
 10
7.7681573328317342
 20
-2.7194146113040332
 30
0.0
 11
7.7681573328317342
 21
-2.5973673672040332
 31
0.0
  0
LINE
  5
2DBF
  8
0
 10
7.0594959154317323
 20
-2.5973673672040332
 30
0.0
 11
7.3350864665317408
 21
-2.5973673672040332
 31
0.0
  0
LINE
  5
2DC0
  8
0
 10
7.3350864665317408
 20
-2.5973673672040332
 30
0.0
 11
7.3350864665317408
 21
-2.7194146113040332
 31
0.0
  0
LINE
  5
2DC1
  8
0
 10
7.3350864665317408
 20
-2.7194146113040332
 30
0.0
 11
7.0594959154317323
 21
-2.7194146113040332
 31
0.0
  0
LINE
  5
2DC2
  8
0
 10
7.0594959154317323
 20
-2.7194146113040332
 30
0.0
 11
7.0594959154317323
 21
-2.5973673672040332
 31
0.0
  0
LINE
  5
2DC3
  8
0
 10
6.3508344981317322
 20
-2.5973673672040332
 30
0.0
 11
6.6264250492317407
 21
-2.5973673672040332
 31
0.0
  0
LINE
  5
2DC4
  8
0
 10
6.6264250492317407
 20
-2.5973673672040332
 30
0.0
 11
6.6264250492317407
 21
-2.7194146113040332
 31
0.0
  0
LINE
  5
2DC5
  8
0
 10
6.6264250492317407
 20
-2.7194146113040332
 30
0.0
 11
6.3508344981317322
 21
-2.7194146113040332
 31
0.0
  0
LINE
  5
2DC6
  8
0
 10
6.3508344981317322
 20
-2.7194146113040332
 30
0.0
 11
6.3508344981317322
 21
-2.5973673672040332
 31
0.0
  0
LINE
  5
2DC7
  8
0
 10
16.4209132381817398
 20
-3.546186264804033
 30
0.0
 11
16.4209132381817398
 21
-3.5934303593040329
 31
0.0
  0
ARC
  5
2DC8
  8
0
 10
16.4091022145817291
 20
-3.5934303593040329
 30
0.0
 40
0.0118110236
 50
270.0
 51
359.9999999999956231
  0
LINE
  5
2DC9
  8
0
 10
16.4091022145817291
 20
-3.6052413829040328
 30
0.0
 11
16.2358738680817396
 21
-3.6052413829040328
 31
0.0
  0
ARC
  5
2DCA
  8
0
 10
16.2358738680817396
 20
-3.5934303593040329
 30
0.0
 40
0.0118110236
 50
180.0
 51
270.0000000000002274
  0
LINE
  5
2DCB
  8
0
 10
16.2240628444817396
 20
-3.5934303593040329
 30
0.0
 11
16.2240628444817396
 21
-3.546186264804033
 31
0.0
  0
LINE
  5
2DCC
  8
0
 10
15.7653226869817402
 20
-3.546186264804033
 30
0.0
 11
15.7653226869817402
 21
-3.5934303593040329
 31
0.0
  0
ARC
  5
2DCD
  8
0
 10
15.7535116633817402
 20
-3.5934303593040329
 30
0.0
 40
0.0118110236
 50
270.0
 51
359.9999999999956231
  0
LINE
  5
2DCE
  8
0
 10
15.7535116633817402
 20
-3.6052413829040328
 30
0.0
 11
15.5802833168817401
 21
-3.6052413829040328
 31
0.0
  0
ARC
  5
2DCF
  8
0
 10
15.5802833168817401
 20
-3.5934303593040329
 30
0.0
 40
0.0118110236
 50
180.0
 51
270.0000000000002274
  0
LINE
  5
2DD0
  8
0
 10
15.5684722932817401
 20
-3.5934303593040329
 30
0.0
 11
15.5684722932817401
 21
-3.546186264804033
 31
0.0
  0
LINE
  5
2DD1
  8
0
 10
15.1097321358317398
 20
-3.546186264804033
 30
0.0
 11
15.1097321358317398
 21
-3.5934303593040329
 31
0.0
  0
ARC
  5
2DD2
  8
0
 10
15.0979211122317398
 20
-3.5934303593040329
 30
0.0
 40
0.0118110236
 50
270.0
 51
359.9999999999956231
  0
LINE
  5
2DD3
  8
0
 10
15.0979211122317398
 20
-3.6052413829040328
 30
0.0
 11
14.9246927657317396
 21
-3.6052413829040328
 31
0.0
  0
ARC
  5
2DD4
  8
0
 10
14.9246927657317396
 20
-3.5934303593040329
 30
0.0
 40
0.0118110236
 50
180.0
 51
270.0000000000002274
  0
LINE
  5
2DD5
  8
0
 10
14.9128817421317397
 20
-3.5934303593040329
 30
0.0
 11
14.9128817421317397
 21
-3.546186264804033
 31
0.0
  0
LINE
  5
2DD6
  8
0
 10
14.4541415846317403
 20
-3.546186264804033
 30
0.0
 11
14.4541415846317403
 21
-3.5934303593040329
 31
0.0
  0
ARC
  5
2DD7
  8
0
 10
14.4423305610317403
 20
-3.5934303593040329
 30
0.0
 40
0.0118110236
 50
270.0
 51
359.9999999999956231
  0
LINE
  5
2DD8
  8
0
 10
14.4423305610317403
 20
-3.6052413829040328
 30
0.0
 11
14.2691022145317401
 21
-3.6052413829040328
 31
0.0
  0
ARC
  5
2DD9
  8
0
 10
14.2691022145317401
 20
-3.5934303593040329
 30
0.0
 40
0.0118110236
 50
180.0
 51
270.0000000000002274
  0
LINE
  5
2DDA
  8
0
 10
14.2572911909317401
 20
-3.5934303593040329
 30
0.0
 11
14.2572911909317401
 21
-3.546186264804033
 31
0.0
  0
LINE
  5
2DDB
  8
0
 10
13.7985510334317407
 20
-3.546186264804033
 30
0.0
 11
13.7985510334317407
 21
-3.5934303593040329
 31
0.0
  0
ARC
  5
2DDC
  8
0
 10
13.7867400098317407
 20
-3.5934303593040329
 30
0.0
 40
0.0118110236
 50
270.0
 51
359.9999999999956231
  0
LINE
  5
2DDD
  8
0
 10
13.7867400098317407
 20
-3.6052413829040328
 30
0.0
 11
13.6135116633317406
 21
-3.6052413829040328
 31
0.0
  0
ARC
  5
2DDE
  8
0
 10
13.6135116633317406
 20
-3.5934303593040329
 30
0.0
 40
0.0118110236
 50
180.0
 51
270.0000000000002274
  0
LINE
  5
2DDF
  8
0
 10
13.6017006397317406
 20
-3.5934303593040329
 30
0.0
 11
13.6017006397317406
 21
-3.546186264804033
 31
0.0
  0
LINE
  5
2DE0
  8
0
 10
13.1429604822317394
 20
-3.546186264804033
 30
0.0
 11
13.1429604822317394
 21
-3.5934303593040329
 31
0.0
  0
ARC
  5
2DE1
  8
0
 10
13.1311494586317394
 20
-3.5934303593040329
 30
0.0
 40
0.0118110236
 50
270.0
 51
359.9999999999956231
  0
LINE
  5
2DE2
  8
0
 10
13.1311494586317394
 20
-3.6052413829040328
 30
0.0
 11
12.9579211121317392
 21
-3.6052413829040328
 31
0.0
  0
ARC
  5
2DE3
  8
0
 10
12.9579211121317392
 20
-3.5934303593040329
 30
0.0
 40
0.0118110236
 50
180.0
 51
270.0000000000002274
  0
LINE
  5
2DE4
  8
0
 10
12.9461100885317393
 20
-3.5934303593040329
 30
0.0
 11
12.9461100885317393
 21
-3.546186264804033
 31
0.0
  0
LINE
  5
2DE5
  8
0
 10
12.4873699310817408
 20
-3.546186264804033
 30
0.0
 11
12.4873699310817408
 21
-3.5934303593040329
 31
0.0
  0
ARC
  5
2DE6
  8
0
 10
12.4755589074817408
 20
-3.5934303593040329
 30
0.0
 40
0.0118110236
 50
270.0
 51
359.9999999999956231
  0
LINE
  5
2DE7
  8
0
 10
12.4755589074817408
 20
-3.6052413829040328
 30
0.0
 11
12.3023305609817406
 21
-3.6052413829040328
 31
0.0
  0
ARC
  5
2DE8
  8
0
 10
12.3023305609817406
 20
-3.5934303593040329
 30
0.0
 40
0.0118110236
 50
180.0
 51
270.0000000000002274
  0
LINE
  5
2DE9
  8
0
 10
12.2905195373817406
 20
-3.5934303593040329
 30
0.0
 11
12.2905195373817406
 21
-3.546186264804033
 31
0.0
  0
LINE
  5
2DEA
  8
0
 10
11.8317793798817394
 20
-3.546186264804033
 30
0.0
 11
11.8317793798817306
 21
-3.5934303593040329
 31
0.0
  0
ARC
  5
2DEB
  8
0
 10
11.8199683562817395
 20
-3.5934303593040329
 30
0.0
 40
0.0118110236
 50
270.0
 51
359.9999999999956231
  0
LINE
  5
2DEC
  8
0
 10
11.8199683562817395
 20
-3.6052413829040328
 30
0.0
 11
11.6467400097817393
 21
-3.6052413829040328
 31
0.0
  0
ARC
  5
2DED
  8
0
 10
11.6467400097817393
 20
-3.5934303593040329
 30
0.0
 40
0.0118110236
 50
180.0
 51
270.0000000000002274
  0
LINE
  5
2DEE
  8
0
 10
11.6349289861817393
 20
-3.5934303593040329
 30
0.0
 11
11.6349289861817393
 21
-3.546186264804033
 31
0.0
  0
LINE
  5
2DEF
  8
0
 10
11.1761888287317408
 20
-3.546186264804033
 30
0.0
 11
11.1761888287317408
 21
-3.5934303593040329
 31
0.0
  0
ARC
  5
2DF0
  8
0
 10
11.1643778051317408
 20
-3.5934303593040329
 30
0.0
 40
0.0118110236
 50
270.0
 51
359.9999999999956231
  0
LINE
  5
2DF1
  8
0
 10
11.1643778051317408
 20
-3.6052413829040328
 30
0.0
 11
10.9911494586317406
 21
-3.6052413829040328
 31
0.0
  0
ARC
  5
2DF2
  8
0
 10
10.9911494586317406
 20
-3.5934303593040329
 30
0.0
 40
0.0118110236
 50
180.0
 51
270.0000000000002274
  0
LINE
  5
2DF3
  8
0
 10
10.9793384350317407
 20
-3.5934303593040329
 30
0.0
 11
10.9793384350317407
 21
-3.546186264804033
 31
0.0
  0
LINE
  5
2DF4
  8
0
 10
10.5205982775317395
 20
-3.546186264804033
 30
0.0
 11
10.5205982775317395
 21
-3.5934303593040329
 31
0.0
  0
ARC
  5
2DF5
  8
0
 10
10.5087872539317395
 20
-3.5934303593040329
 30
0.0
 40
0.0118110236
 50
270.0
 51
359.9999999999956231
  0
LINE
  5
2DF6
  8
0
 10
10.5087872539317395
 20
-3.6052413829040328
 30
0.0
 11
10.3355589074317393
 21
-3.6052413829040328
 31
0.0
  0
ARC
  5
2DF7
  8
0
 10
10.3355589074317393
 20
-3.5934303593040329
 30
0.0
 40
0.0118110236
 50
180.0
 51
270.0000000000002274
  0
LINE
  5
2DF8
  8
0
 10
10.3237478838317394
 20
-3.5934303593040329
 30
0.0
 11
10.3237478838317394
 21
-3.546186264804033
 31
0.0
  0
LINE
  5
2DF9
  8
0
 10
9.8650077263317382
 20
-3.546186264804033
 30
0.0
 11
9.8650077263317382
 21
-3.5934303593040329
 31
0.0
  0
ARC
  5
2DFA
  8
0
 10
9.8531967027317364
 20
-3.5934303593040329
 30
0.0
 40
0.0118110236
 50
270.0
 51
359.9999999999956231
  0
LINE
  5
2DFB
  8
0
 10
9.8531967027317364
 20
-3.6052413829040328
 30
0.0
 11
9.6799683562317398
 21
-3.6052413829040328
 31
0.0
  0
ARC
  5
2DFC
  8
0
 10
9.6799683562317398
 20
-3.5934303593040329
 30
0.0
 40
0.0118110236
 50
180.0
 51
270.0000000000002274
  0
LINE
  5
2DFD
  8
0
 10
9.6681573326317434
 20
-3.5934303593040329
 30
0.0
 11
9.6681573326317434
 21
-3.546186264804033
 31
0.0
  0
LINE
  5
2DFE
  8
0
 10
9.2094171751817413
 20
-3.546186264804033
 30
0.0
 11
9.2094171751817413
 21
-3.5934303593040329
 31
0.0
  0
ARC
  5
2DFF
  8
0
 10
9.1976061515817378
 20
-3.5934303593040329
 30
0.0
 40
0.0118110236
 50
270.0
 51
359.9999999999956231
  0
LINE
  5
2E00
  8
0
 10
9.1976061515817378
 20
-3.6052413829040328
 30
0.0
 11
9.0243778050817411
 21
-3.6052413829040328
 31
0.0
  0
ARC
  5
2E01
  8
0
 10
9.0243778050817411
 20
-3.5934303593040329
 30
0.0
 40
0.0118110236
 50
180.0
 51
270.0000000000002274
  0
LINE
  5
2E02
  8
0
 10
9.0125667814817447
 20
-3.5934303593040329
 30
0.0
 11
9.0125667814817447
 21
-3.546186264804033
 31
0.0
  0
LINE
  5
2E03
  8
0
 10
8.7785510334317394
 20
-3.546186264804033
 30
0.0
 11
8.7785510334317394
 21
-3.5934303593040329
 31
0.0
  0
ARC
  5
2E04
  8
0
 10
8.7667400098317412
 20
-3.5934303593040329
 30
0.0
 40
0.0118110236
 50
270.0
 51
359.9999999999956231
  0
LINE
  5
2E05
  8
0
 10
8.7667400098317412
 20
-3.6052413829040328
 30
0.0
 11
8.5935116633317392
 21
-3.6052413829040328
 31
0.0
  0
ARC
  5
2E06
  8
0
 10
8.5935116633317392
 20
-3.5934303593040329
 30
0.0
 40
0.0118110236
 50
180.0
 51
270.0000000000002274
  0
LINE
  5
2E07
  8
0
 10
8.5817006397317428
 20
-3.5934303593040329
 30
0.0
 11
8.5817006397317428
 21
-3.546186264804033
 31
0.0
  0
LINE
  5
2E08
  8
0
 10
8.5538266239817418
 20
-3.546186264804033
 30
0.0
 11
8.5538266239817418
 21
-3.5934303593040329
 31
0.0
  0
ARC
  5
2E09
  8
0
 10
8.5420156003817453
 20
-3.5934303593040329
 30
0.0
 40
0.0118110236
 50
270.0
 51
359.9999999999956231
  0
LINE
  5
2E0A
  8
0
 10
8.5420156003817453
 20
-3.6052413829040328
 30
0.0
 11
8.3687872538817416
 21
-3.6052413829040328
 31
0.0
  0
ARC
  5
2E0B
  8
0
 10
8.3687872538817416
 20
-3.5934303593040329
 30
0.0
 40
0.0118110236
 50
180.0
 51
270.0000000000002274
  0
LINE
  5
2E0C
  8
0
 10
8.3569762302817452
 20
-3.5934303593040329
 30
0.0
 11
8.3569762302817452
 21
-3.546186264804033
 31
0.0
  0
LINE
  5
2E0D
  8
0
 10
8.0683181034120608
 20
-3.6052413829040342
 30
0.0
 11
7.9231586338817399
 21
-3.6052413829040328
 31
0.0
  0
ARC
  5
2E0E
  8
0
 10
7.9231586338817399
 20
-3.5934303593040329
 30
0.0
 40
0.0118110236
 50
180.0
 51
270.0000000000002274
  0
LINE
  5
2E0F
  8
0
 10
7.9113476102817444
 20
-3.5934303593040329
 30
0.0
 11
7.9113476102817444
 21
-3.546186264804033
 31
0.0
  0
LINE
  5
2E10
  8
0
 10
7.8982360728317431
 20
-3.546186264804033
 30
0.0
 11
7.8982360728317431
 21
-3.5934303593040329
 31
0.0
  0
ARC
  5
2E11
  8
0
 10
7.8864250492317387
 20
-3.5934303593040329
 30
0.0
 40
0.0118110236
 50
270.0
 51
359.9999999999956231
  0
LINE
  5
2E12
  8
0
 10
7.8864250492317387
 20
-3.6052413829040328
 30
0.0
 11
7.7131967027317421
 21
-3.6052413829040328
 31
0.0
  0
ARC
  5
2E13
  8
0
 10
7.7131967027317421
 20
-3.5934303593040329
 30
0.0
 40
0.0118110236
 50
180.0
 51
270.0000000000002274
  0
LINE
  5
2E14
  8
0
 10
7.7013856791317457
 20
-3.5934303593040329
 30
0.0
 11
7.7013856791317457
 21
-3.546186264804033
 31
0.0
  0
LINE
  5
2E15
  8
0
 10
7.7006089565317453
 20
-3.546186264804033
 30
0.0
 11
7.7006089565317382
 21
-3.5934303593040329
 31
0.0
  0
ARC
  5
2E16
  8
0
 10
7.6887979329317409
 20
-3.5934303593040329
 30
0.0
 40
0.0118110236
 50
270.0
 51
359.9999999999956231
  0
LINE
  5
2E17
  8
0
 10
7.6887979329317409
 20
-3.6052413829040328
 30
0.0
 11
7.664846955751428
 21
-3.6052413829040342
 31
0.0
  0
LINE
  5
2E18
  8
0
 10
7.5171370011120677
 20
-3.6052413829040342
 30
0.0
 11
7.5155695864317451
 21
-3.6052413829040328
 31
0.0
  0
ARC
  5
2E19
  8
0
 10
7.5155695864317451
 20
-3.5934303593040329
 30
0.0
 40
0.0118110236
 50
180.0
 51
270.0000000000002274
  0
LINE
  5
2E1A
  8
0
 10
7.5037585628317407
 20
-3.5934303593040329
 30
0.0
 11
7.5037585628317407
 21
-3.546186264804033
 31
0.0
  0
LINE
  5
2E1B
  8
0
 10
7.2426455216317427
 20
-3.546186264804033
 30
0.0
 11
7.2426455216317427
 21
-3.5934303593040329
 31
0.0
  0
ARC
  5
2E1C
  8
0
 10
7.2308344980317401
 20
-3.5934303593040329
 30
0.0
 40
0.0118110236
 50
270.0
 51
359.9999999999956231
  0
LINE
  5
2E1D
  8
0
 10
7.2308344980317401
 20
-3.6052413829040328
 30
0.0
 11
7.1136658533514421
 21
-3.6052413829040342
 31
0.0
  0
LINE
  5
2E1E
  8
0
 10
6.9659558987120738
 20
-3.6052413829040342
 30
0.0
 11
6.8096038253317408
 21
-3.6052413829040328
 31
0.0
  0
ARC
  5
2E1F
  8
0
 10
6.8096038253317408
 20
-3.5934303593040329
 30
0.0
 40
0.0118110236
 50
180.0
 51
270.0000000000002274
  0
LINE
  5
2E20
  8
0
 10
6.7977928017317453
 20
-3.5934303593040329
 30
0.0
 11
6.7977928017317453
 21
-3.546186264804033
 31
0.0
  0
LINE
  5
2E21
  8
0
 10
6.587054970431744
 20
-3.546186264804033
 30
0.0
 11
6.587054970431736
 21
-3.5934303593040329
 31
0.0
  0
ARC
  5
2E22
  8
0
 10
6.5752439468317396
 20
-3.5934303593040329
 30
0.0
 40
0.0118110236
 50
270.0
 51
359.9999999999956231
  0
LINE
  5
2E23
  8
0
 10
6.5752439468317396
 20
-3.6052413829040328
 30
0.0
 11
6.562484750951441
 21
-3.6052413829040328
 31
0.0
  0
LINE
  5
2E24
  8
0
 10
6.4147747963120727
 20
-3.6052413829040342
 30
0.0
 11
6.402015600331743
 21
-3.6052413829040328
 31
0.0
  0
ARC
  5
2E25
  8
0
 10
6.402015600331743
 20
-3.5934303593040329
 30
0.0
 40
0.0118110236
 50
180.0
 51
270.0000000000002274
  0
LINE
  5
2E26
  8
0
 10
6.3902045767317404
 20
-3.5934303593040329
 30
0.0
 11
6.3902045767317404
 21
-3.546186264804033
 31
0.0
  0
LINE
  5
2E27
  8
0
 10
8.2165484897317427
 20
-3.546186264804033
 30
0.0
 11
8.2159797998317501
 21
-3.6107174040040331
 31
0.0
  0
ARC
  5
2E28
  8
0
 10
8.1421730807317516
 20
-3.3503588327205232
 30
0.0
 40
0.2706178438778508
 50
254.1729721790017038
 51
285.8270278209981825
  0
LINE
  5
2E29
  8
0
 10
8.068366361631746
 20
-3.6107174040040331
 30
0.0
 11
8.0677976938134606
 21
-3.5461887704886541
 31
0.0
  0
LINE
  5
2E2A
  8
0
 10
7.6653673874317434
 20
-3.546186264804033
 30
0.0
 11
7.6647986975317499
 21
-3.6107174040040331
 31
0.0
  0
ARC
  5
2E2B
  8
0
 10
7.5909919784317523
 20
-3.3503588327205232
 30
0.0
 40
0.2706178438778508
 50
254.1729721790017038
 51
285.8270278209981825
  0
LINE
  5
2E2C
  8
0
 10
7.5171852593317459
 20
-3.6107174040040331
 30
0.0
 11
7.5166165915134613
 21
-3.5461887704886541
 31
0.0
  0
LINE
  5
2E2D
  8
0
 10
7.1141862850317494
 20
-3.546186264804033
 30
0.0
 11
7.113617595131756
 21
-3.6107174040040331
 31
0.0
  0
ARC
  5
2E2E
  8
0
 10
7.0398108760317584
 20
-3.3503588327205232
 30
0.0
 40
0.2706178438778508
 50
254.1729721790017038
 51
285.8270278209981825
  0
LINE
  5
2E2F
  8
0
 10
6.9660041569317519
 20
-3.6107174040040331
 30
0.0
 11
6.9654354891134673
 21
-3.5461887704886541
 31
0.0
  0
LINE
  5
2E30
  8
0
 10
6.5630051826317484
 20
-3.546186264804033
 30
0.0
 11
6.5624364927317549
 21
-3.6107174040040331
 31
0.0
  0
ARC
  5
2E31
  8
0
 10
6.4886297736317573
 20
-3.3503588327205232
 30
0.0
 40
0.2706178438778508
 50
254.1729721790017038
 51
285.8270278209981825
  0
LINE
  5
2E32
  8
0
 10
6.4148230545317508
 20
-3.6107174040040331
 30
0.0
 11
6.4142543867134663
 21
-3.5461887704886541
 31
0.0
  0
LINE
  5
2E33
  8
0
 10
8.534829432931744
 20
-2.9000016792040331
 30
0.0
 11
8.5358738681317448
 21
-2.9398870522040328
 31
0.0
  0
LINE
  5
2E34
  8
0
 10
8.5358738681317448
 20
-3.0186272097040341
 30
0.0
 11
8.5358738681317448
 21
-3.0973675167040389
 31
0.0
  0
LINE
  5
2E35
  8
0
 10
8.2209132382317431
 20
-3.4280760286040328
 30
0.0
 11
8.2209132382317431
 21
-2.8808319341040329
 31
0.0
  0
LINE
  5
2E36
  8
0
 10
8.4965037894317401
 20
-3.0186272097040341
 30
0.0
 11
8.4965037894317401
 21
-2.9398870522040328
 31
0.0
  0
ARC
  5
2E37
  8
0
 10
8.5151511391514845
 20
-2.9005169734554679
 30
0.0
 40
0.0196850393514335
 50
1.4999999822213199
 51
90.0000000574730734
  0
LINE
  5
2E38
  8
0
 10
8.5324139801368517
 20
-3.097367367204034
 30
0.0
 11
8.8863250476317432
 21
-3.0973673672040349
 31
0.0
  0
ARC
  5
2E39
  8
0
 10
8.8859841398235488
 20
-3.1131178141945779
 30
0.0
 40
0.015754135918407
 50
359.0091736714283002
 51
88.7600650766257786
  0
LINE
  5
2E3A
  8
0
 10
8.9017359201309176
 20
-3.1133902397515079
 30
0.0
 11
8.8962431967989275
 21
-3.4280760286040328
 31
0.0
  0
ARC
  5
2E3B
  8
0
 10
8.5535054640031376
 20
-3.113352082834302
 30
0.0
 40
0.0264643500857726
 50
142.842408898268701
 51
179.5103714458439015
  0
LINE
  5
2E3C
  8
0
 10
8.4586789798086954
 20
-3.1141589191619481
 30
0.0
 11
8.4586789798086954
 21
-3.4280760286040328
 31
0.0
  0
ARC
  5
2E3D
  8
0
 10
7.7908900770309444
 20
-3.1217420466746661
 30
0.0
 40
0.0243992631229199
 50
20.6788895283227809
 51
87.4277750361398205
  0
LINE
  5
2E3E
  8
0
 10
7.7919850846315546
 20
-3.097367367204034
 30
0.0
 11
5.1852744626319351
 21
-3.0973673672040332
 31
0.0
  0
LINE
  5
2E3F
  8
0
 10
7.1355821651613516
 20
-3.113125931032759
 30
0.0
 11
7.3026076943317468
 21
-3.1244564682040332
 31
0.0
  0
ARC
  5
2E40
  8
0
 10
7.394141463847709
 20
0.4795210371963501
 30
0.0
 40
3.6051397046985261
 50
268.5451153797375241
 51
271.4548928612442182
  0
LINE
  5
2E41
  8
0
 10
7.485675751731911
 20
-3.124456455038481
 30
0.0
 11
7.8137173982094552
 21
-3.113125931032759
 31
0.0
  0
ARC
  5
2E42
  8
0
 10
7.3938919285343943
 20
-2.3674950845313991
 30
0.0
 40
0.7399065379265832
 50
266.0536476230105905
 51
273.985450106830001
  0
ARC
  5
2E43
  8
0
 10
7.3943914211990096
 20
-3.8314583676032581
 30
0.0
 40
0.7276303744694131
 50
85.9866274088762452
 51
94.0524703209666342
  0
LINE
  5
2E44
  8
0
 10
7.1355821651613516
 20
-3.113125931032759
 30
0.0
 11
7.1355821651613516
 21
-3.2548476822040331
 31
0.0
  0
LINE
  5
2E45
  8
0
 10
7.1355821651613516
 20
-3.2548476822040331
 30
0.0
 11
5.8407152347317464
 21
-3.2548476822040331
 31
0.0
  0
LINE
  5
2E46
  8
0
 10
5.8407152347317464
 20
-3.2548476822040331
 30
0.0
 11
5.8416773812049172
 21
-3.113125931032759
 31
0.0
  0
LINE
  5
2E47
  8
0
 10
15.1106770177317404
 20
-3.156422485304033
 30
0.0
 11
14.8488659941317493
 21
-3.156422485304033
 31
0.0
  0
ARC
  5
2E48
  8
0
 10
6.2569773407999127
 20
-2.9266407452301522
 30
0.0
 40
0.5012051302707802
 50
138.9313138100505114
 51
144.6739672145309044
  0
ARC
  5
2E49
  8
0
 10
17.638341197971581
 20
-11.0487029350928196
 30
0.0
 40
14.4834533627972597
 50
144.4937360310510996
 51
144.8940690163140914
  0
LINE
  5
2E4A
  8
0
 10
5.1249425499339694
 20
-3.609371660604034
 30
0.0
 11
5.3124489901754108
 21
-3.6093716606040331
 31
0.0
  0
LINE
  5
2E4B
  8
0
 10
5.4600861474880631
 20
-3.609371660604034
 30
0.0
 11
5.8636300925754048
 21
-3.609371660604034
 31
0.0
  0
LINE
  5
2E4C
  8
0
 10
6.0112672498880491
 20
-3.6093716606040331
 30
0.0
 11
6.4148111949754059
 21
-3.609371660604034
 31
0.0
  0
LINE
  5
2E4D
  8
0
 10
5.1635421490540301
 20
-3.113125931032759
 30
0.0
 11
4.4502174670353858
 21
-3.113125931032759
 31
0.0
  0
LINE
  5
2E4E
  8
0
 10
-5.3223938484682591
 20
-3.4280760286040328
 30
0.0
 11
-5.3223938484682591
 21
-3.546186264804033
 31
0.0
  0
LINE
  5
2E4F
  8
0
 10
-4.3991655020682643
 20
-3.4280760854161532
 30
0.0
 11
-4.3991655020682643
 21
-3.3690209673161551
 31
0.0
  0
LINE
  5
2E50
  8
0
 10
-4.3991655020682643
 20
-3.2997296287161548
 30
0.0
 11
-4.3991655020682643
 21
-3.2430367153161539
 31
0.0
  0
LINE
  5
2E51
  8
0
 10
-4.3991655020682643
 20
-3.2430367153161539
 30
0.0
 11
-4.3676694390682647
 21
-3.211540652316156
 31
0.0
  0
LINE
  5
2E52
  8
0
 10
-4.3676694390682647
 20
-3.211540652316156
 30
0.0
 11
-3.757433218568266
 21
-3.211540652316156
 31
0.0
  0
LINE
  5
2E53
  8
0
 10
-4.3991655020682643
 20
-3.2430367153161539
 30
0.0
 11
-3.7259371555682672
 21
-3.2430367153161539
 31
0.0
  0
LINE
  5
2E54
  8
0
 10
-4.3991655020682643
 20
-3.2997296287161548
 30
0.0
 11
-3.7259371555682672
 21
-3.2997296287161548
 31
0.0
  0
LINE
  5
2E55
  8
0
 10
-4.3991655020682643
 20
-3.3690209673161551
 30
0.0
 11
-3.7259371555682672
 21
-3.3690209673161551
 31
0.0
  0
ARC
  5
2E56
  8
0
 10
-4.3730513287682689
 20
-3.3340209673161558
 30
0.0
 40
0.0349999999999984
 50
101.5493757951566067
 51
270.0000000000032969
  0
LINE
  5
2E57
  8
0
 10
-3.7259371555682672
 20
-3.4280760854161532
 30
0.0
 11
-3.7259371555682672
 21
-3.3690209673161551
 31
0.0
  0
LINE
  5
2E58
  8
0
 10
-3.7259371555682672
 20
-3.2997296287161548
 30
0.0
 11
-3.7259371555682672
 21
-3.2430367153161539
 31
0.0
  0
LINE
  5
2E59
  8
0
 10
-3.7259371555682672
 20
-3.2430367153161539
 30
0.0
 11
-3.757433218568266
 21
-3.211540652316156
 31
0.0
  0
ARC
  5
2E5A
  8
0
 10
-3.7520513288682622
 20
-3.3340209673161558
 30
0.0
 40
0.0349999999999984
 50
269.9999999999976126
 51
78.4506242048434217
  0
LINE
  5
2E5B
  8
0
 10
-2.1334174704682591
 20
-3.156422485304033
 30
0.0
 11
-2.1334174704682591
 21
-3.4280760286040328
 31
0.0
  0
LINE
  5
2E5C
  8
0
 10
-1.8716064468682561
 20
-2.4831941389040328
 30
0.0
 11
-1.8716064468682561
 21
-3.4280760286040328
 31
0.0
  0
LINE
  5
2E5D
  8
0
 10
-0.4601891240682577
 20
-2.5973673672040332
 30
0.0
 11
-0.7357796751682671
 21
-2.5973673672040332
 31
0.0
  0
LINE
  5
2E5E
  8
0
 10
-0.7357796751682671
 20
-2.5973673672040332
 30
0.0
 11
-0.7357796751682671
 21
-2.7194146113040332
 31
0.0
  0
LINE
  5
2E5F
  8
0
 10
-0.7357796751682671
 20
-2.7194146113040332
 30
0.0
 11
-0.4601891240682577
 21
-2.7194146113040332
 31
0.0
  0
LINE
  5
2E60
  8
0
 10
-0.4601891240682577
 20
-2.7194146113040332
 30
0.0
 11
-0.4601891240682577
 21
-2.5973673672040332
 31
0.0
  0
LINE
  5
2E61
  8
0
 10
0.2484722932317496
 20
-2.5973673672040332
 30
0.0
 11
-0.0271182578682598
 21
-2.5973673672040332
 31
0.0
  0
LINE
  5
2E62
  8
0
 10
-0.0271182578682598
 20
-2.5973673672040332
 30
0.0
 11
-0.0271182578682598
 21
-2.7194146113040332
 31
0.0
  0
LINE
  5
2E63
  8
0
 10
-0.0271182578682598
 20
-2.7194146113040332
 30
0.0
 11
0.2484722932317496
 21
-2.7194146113040332
 31
0.0
  0
LINE
  5
2E64
  8
0
 10
0.2484722932317496
 20
-2.7194146113040332
 30
0.0
 11
0.2484722932317496
 21
-2.5973673672040332
 31
0.0
  0
LINE
  5
2E65
  8
0
 10
0.9571337105317496
 20
-2.5973673672040332
 30
0.0
 11
0.6815431594317403
 21
-2.5973673672040332
 31
0.0
  0
LINE
  5
2E66
  8
0
 10
0.6815431594317403
 20
-2.5973673672040332
 30
0.0
 11
0.6815431594317403
 21
-2.7194146113040332
 31
0.0
  0
LINE
  5
2E67
  8
0
 10
0.6815431594317403
 20
-2.7194146113040332
 30
0.0
 11
0.9571337105317496
 21
-2.7194146113040332
 31
0.0
  0
LINE
  5
2E68
  8
0
 10
0.9571337105317496
 20
-2.7194146113040332
 30
0.0
 11
0.9571337105317496
 21
-2.5973673672040332
 31
0.0
  0
LINE
  5
2E69
  8
0
 10
1.6657951278317491
 20
-2.5973673672040332
 30
0.0
 11
1.3902045767317399
 21
-2.5973673672040332
 31
0.0
  0
LINE
  5
2E6A
  8
0
 10
1.3902045767317399
 20
-2.5973673672040332
 30
0.0
 11
1.3902045767317399
 21
-2.7194146113040332
 31
0.0
  0
LINE
  5
2E6B
  8
0
 10
1.3902045767317399
 20
-2.7194146113040332
 30
0.0
 11
1.6657951278317491
 21
-2.7194146113040332
 31
0.0
  0
LINE
  5
2E6C
  8
0
 10
1.6657951278317491
 20
-2.7194146113040332
 30
0.0
 11
1.6657951278317491
 21
-2.5973673672040332
 31
0.0
  0
LINE
  5
2E6D
  8
0
 10
2.3744565452317512
 20
-2.5973673672040332
 30
0.0
 11
2.0988659941317418
 21
-2.5973673672040332
 31
0.0
  0
LINE
  5
2E6E
  8
0
 10
2.0988659941317418
 20
-2.5973673672040332
 30
0.0
 11
2.0988659941317418
 21
-2.7194146113040332
 31
0.0
  0
LINE
  5
2E6F
  8
0
 10
2.0988659941317418
 20
-2.7194146113040332
 30
0.0
 11
2.3744565452317512
 21
-2.7194146113040332
 31
0.0
  0
LINE
  5
2E70
  8
0
 10
2.3744565452317512
 20
-2.7194146113040332
 30
0.0
 11
2.3744565452317512
 21
-2.5973673672040332
 31
0.0
  0
LINE
  5
2E71
  8
0
 10
3.0831179625317509
 20
-2.5973673672040332
 30
0.0
 11
2.8075274114317419
 21
-2.5973673672040332
 31
0.0
  0
LINE
  5
2E72
  8
0
 10
2.8075274114317419
 20
-2.5973673672040332
 30
0.0
 11
2.8075274114317419
 21
-2.7194146113040332
 31
0.0
  0
LINE
  5
2E73
  8
0
 10
2.8075274114317419
 20
-2.7194146113040332
 30
0.0
 11
3.0831179625317509
 21
-2.7194146113040332
 31
0.0
  0
LINE
  5
2E74
  8
0
 10
3.0831179625317509
 20
-2.7194146113040332
 30
0.0
 11
3.0831179625317509
 21
-2.5973673672040332
 31
0.0
  0
LINE
  5
2E75
  8
0
 10
3.791779379831751
 20
-2.5973673672040332
 30
0.0
 11
3.516188828731742
 21
-2.5973673672040332
 31
0.0
  0
LINE
  5
2E76
  8
0
 10
3.516188828731742
 20
-2.5973673672040332
 30
0.0
 11
3.516188828731742
 21
-2.7194146113040332
 31
0.0
  0
LINE
  5
2E77
  8
0
 10
3.516188828731742
 20
-2.7194146113040332
 30
0.0
 11
3.791779379831751
 21
-2.7194146113040332
 31
0.0
  0
LINE
  5
2E78
  8
0
 10
3.791779379831751
 20
-2.7194146113040332
 30
0.0
 11
3.791779379831751
 21
-2.5973673672040332
 31
0.0
  0
LINE
  5
2E79
  8
0
 10
4.500440797131751
 20
-2.5973673672040332
 30
0.0
 11
4.2248502460317416
 21
-2.5973673672040332
 31
0.0
  0
LINE
  5
2E7A
  8
0
 10
4.2248502460317416
 20
-2.5973673672040332
 30
0.0
 11
4.2248502460317416
 21
-2.7194146113040332
 31
0.0
  0
LINE
  5
2E7B
  8
0
 10
4.2248502460317416
 20
-2.7194146113040332
 30
0.0
 11
4.500440797131751
 21
-2.7194146113040332
 31
0.0
  0
LINE
  5
2E7C
  8
0
 10
4.500440797131751
 20
-2.7194146113040332
 30
0.0
 11
4.500440797131751
 21
-2.5973673672040332
 31
0.0
  0
LINE
  5
2E7D
  8
0
 10
5.209102214431752
 20
-2.5973673672040332
 30
0.0
 11
4.9335116633317417
 21
-2.5973673672040332
 31
0.0
  0
LINE
  5
2E7E
  8
0
 10
4.9335116633317417
 20
-2.5973673672040332
 30
0.0
 11
4.9335116633317417
 21
-2.7194146113040332
 31
0.0
  0
LINE
  5
2E7F
  8
0
 10
4.9335116633317417
 20
-2.7194146113040332
 30
0.0
 11
5.209102214431752
 21
-2.7194146113040332
 31
0.0
  0
LINE
  5
2E80
  8
0
 10
5.209102214431752
 20
-2.7194146113040332
 30
0.0
 11
5.209102214431752
 21
-2.5973673672040332
 31
0.0
  0
LINE
  5
2E81
  8
0
 10
5.917763631831753
 20
-2.5973673672040332
 30
0.0
 11
5.6421730807317436
 21
-2.5973673672040332
 31
0.0
  0
LINE
  5
2E82
  8
0
 10
5.6421730807317436
 20
-2.5973673672040332
 30
0.0
 11
5.6421730807317436
 21
-2.7194146113040332
 31
0.0
  0
LINE
  5
2E83
  8
0
 10
5.6421730807317436
 20
-2.7194146113040332
 30
0.0
 11
5.917763631831753
 21
-2.7194146113040332
 31
0.0
  0
LINE
  5
2E84
  8
0
 10
5.917763631831753
 20
-2.7194146113040332
 30
0.0
 11
5.917763631831753
 21
-2.5973673672040332
 31
0.0
  0
LINE
  5
2E85
  8
0
 10
-3.4436536909182531
 20
-3.546186264804033
 30
0.0
 11
-3.4436536909182531
 21
-3.5934303593040329
 31
0.0
  0
ARC
  5
2E86
  8
0
 10
-3.4318426673182501
 20
-3.5934303593040329
 30
0.0
 40
0.0118110236
 50
180.0000000000044054
 51
270.0
  0
LINE
  5
2E87
  8
0
 10
-3.4318426673182501
 20
-3.6052413829040328
 30
0.0
 11
-3.258614320818253
 21
-3.6052413829040328
 31
0.0
  0
ARC
  5
2E88
  8
0
 10
-3.258614320818253
 20
-3.5934303593040329
 30
0.0
 40
0.0118110236
 50
270.0
 51
0.0
  0
LINE
  5
2E89
  8
0
 10
-3.246803297218257
 20
-3.5934303593040329
 30
0.0
 11
-3.246803297218257
 21
-3.546186264804033
 31
0.0
  0
LINE
  5
2E8A
  8
0
 10
-2.788063139718254
 20
-3.546186264804033
 30
0.0
 11
-2.788063139718254
 21
-3.5934303593040329
 31
0.0
  0
ARC
  5
2E8B
  8
0
 10
-2.7762521161182572
 20
-3.5934303593040329
 30
0.0
 40
0.0118110236
 50
180.0000000000044054
 51
270.0
  0
LINE
  5
2E8C
  8
0
 10
-2.7762521161182572
 20
-3.6052413829040328
 30
0.0
 11
-2.603023769618253
 21
-3.6052413829040328
 31
0.0
  0
ARC
  5
2E8D
  8
0
 10
-2.603023769618253
 20
-3.5934303593040329
 30
0.0
 40
0.0118110236
 50
270.0
 51
0.0
  0
LINE
  5
2E8E
  8
0
 10
-2.591212746018257
 20
-3.5934303593040329
 30
0.0
 11
-2.591212746018257
 21
-3.546186264804033
 31
0.0
  0
LINE
  5
2E8F
  8
0
 10
-2.1324725885682549
 20
-3.546186264804033
 30
0.0
 11
-2.1324725885682549
 21
-3.5934303593040329
 31
0.0
  0
ARC
  5
2E90
  8
0
 10
-2.1206615649682581
 20
-3.5934303593040329
 30
0.0
 40
0.0118110236
 50
180.0000000000044054
 51
270.0
  0
LINE
  5
2E91
  8
0
 10
-2.1206615649682581
 20
-3.6052413829040328
 30
0.0
 11
-1.947433218468255
 21
-3.6052413829040328
 31
0.0
  0
ARC
  5
2E92
  8
0
 10
-1.947433218468255
 20
-3.5934303593040329
 30
0.0
 40
0.0118110236
 50
270.0
 51
0.0
  0
LINE
  5
2E93
  8
0
 10
-1.9356221948682579
 20
-3.5934303593040329
 30
0.0
 11
-1.9356221948682579
 21
-3.546186264804033
 31
0.0
  0
LINE
  5
2E94
  8
0
 10
-1.476882037368255
 20
-3.546186264804033
 30
0.0
 11
-1.476882037368255
 21
-3.5934303593040329
 31
0.0
  0
ARC
  5
2E95
  8
0
 10
-1.4650710137682521
 20
-3.5934303593040329
 30
0.0
 40
0.0118110236
 50
180.0000000000044054
 51
270.0
  0
LINE
  5
2E96
  8
0
 10
-1.4650710137682521
 20
-3.6052413829040328
 30
0.0
 11
-1.291842667268255
 21
-3.6052413829040328
 31
0.0
  0
ARC
  5
2E97
  8
0
 10
-1.291842667268255
 20
-3.5934303593040329
 30
0.0
 40
0.0118110236
 50
270.0
 51
0.0
  0
LINE
  5
2E98
  8
0
 10
-1.2800316436682591
 20
-3.5934303593040329
 30
0.0
 11
-1.2800316436682591
 21
-3.546186264804033
 31
0.0
  0
LINE
  5
2E99
  8
0
 10
-0.8212914861682563
 20
-3.546186264804033
 30
0.0
 11
-0.8212914861682563
 21
-3.5934303593040329
 31
0.0
  0
ARC
  5
2E9A
  8
0
 10
-0.8094804625682598
 20
-3.5934303593040329
 30
0.0
 40
0.0118110236
 50
180.0000000000044054
 51
270.0
  0
LINE
  5
2E9B
  8
0
 10
-0.8094804625682598
 20
-3.6052413829040328
 30
0.0
 11
-0.6362521160682562
 21
-3.6052413829040328
 31
0.0
  0
ARC
  5
2E9C
  8
0
 10
-0.6362521160682562
 20
-3.5934303593040329
 30
0.0
 40
0.0118110236
 50
270.0
 51
0.0
  0
LINE
  5
2E9D
  8
0
 10
-0.6244410924682599
 20
-3.5934303593040329
 30
0.0
 11
-0.6244410924682599
 21
-3.546186264804033
 31
0.0
  0
LINE
  5
2E9E
  8
0
 10
-0.1657009349682568
 20
-3.546186264804033
 30
0.0
 11
-0.1657009349682568
 21
-3.5934303593040329
 31
0.0
  0
ARC
  5
2E9F
  8
0
 10
-0.1538899113682532
 20
-3.5934303593040329
 30
0.0
 40
0.0118110236
 50
180.0000000000044054
 51
270.0
  0
LINE
  5
2EA0
  8
0
 10
-0.1538899113682532
 20
-3.6052413829040328
 30
0.0
 11
0.0193384351317434
 21
-3.6052413829040328
 31
0.0
  0
ARC
  5
2EA1
  8
0
 10
0.0193384351317434
 20
-3.5934303593040329
 30
0.0
 40
0.0118110236
 50
270.0
 51
0.0
  0
LINE
  5
2EA2
  8
0
 10
0.0311494587317469
 20
-3.5934303593040329
 30
0.0
 11
0.0311494587317469
 21
-3.546186264804033
 31
0.0
  0
LINE
  5
2EA3
  8
0
 10
0.4898896161817419
 20
-3.546186264804033
 30
0.0
 11
0.4898896161817419
 21
-3.5934303593040329
 31
0.0
  0
ARC
  5
2EA4
  8
0
 10
0.5017006397817454
 20
-3.5934303593040329
 30
0.0
 40
0.0118110236
 50
180.0000000000044054
 51
270.0
  0
LINE
  5
2EA5
  8
0
 10
0.5017006397817454
 20
-3.6052413829040328
 30
0.0
 11
0.6749289862817421
 21
-3.6052413829040328
 31
0.0
  0
ARC
  5
2EA6
  8
0
 10
0.6749289862817421
 20
-3.5934303593040329
 30
0.0
 40
0.0118110236
 50
270.0
 51
0.0
  0
LINE
  5
2EA7
  8
0
 10
0.6867400098817456
 20
-3.5934303593040329
 30
0.0
 11
0.6867400098817456
 21
-3.546186264804033
 31
0.0
  0
LINE
  5
2EA8
  8
0
 10
1.145480167381741
 20
-3.546186264804033
 30
0.0
 11
1.1454801673817481
 21
-3.5934303593040329
 31
0.0
  0
ARC
  5
2EA9
  8
0
 10
1.157291190981744
 20
-3.5934303593040329
 30
0.0
 40
0.0118110236
 50
180.0000000000044054
 51
270.0
  0
LINE
  5
2EAA
  8
0
 10
1.157291190981744
 20
-3.6052413829040328
 30
0.0
 11
1.3305195374817409
 21
-3.6052413829040328
 31
0.0
  0
ARC
  5
2EAB
  8
0
 10
1.3305195374817409
 20
-3.5934303593040329
 30
0.0
 40
0.0118110236
 50
270.0
 51
0.0
  0
LINE
  5
2EAC
  8
0
 10
1.3423305610817451
 20
-3.5934303593040329
 30
0.0
 11
1.3423305610817451
 21
-3.546186264804033
 31
0.0
  0
LINE
  5
2EAD
  8
0
 10
1.8010707185317469
 20
-3.546186264804033
 30
0.0
 11
1.8010707185317469
 21
-3.5934303593040329
 31
0.0
  0
ARC
  5
2EAE
  8
0
 10
1.8128817421317429
 20
-3.5934303593040329
 30
0.0
 40
0.0118110236
 50
180.0000000000044054
 51
270.0
  0
LINE
  5
2EAF
  8
0
 10
1.8128817421317429
 20
-3.6052413829040328
 30
0.0
 11
1.9861100886317471
 21
-3.6052413829040328
 31
0.0
  0
ARC
  5
2EB0
  8
0
 10
1.9861100886317471
 20
-3.5934303593040329
 30
0.0
 40
0.0118110236
 50
270.0
 51
0.0
  0
LINE
  5
2EB1
  8
0
 10
1.9979211122317431
 20
-3.5934303593040329
 30
0.0
 11
1.9979211122317431
 21
-3.546186264804033
 31
0.0
  0
LINE
  5
2EB2
  8
0
 10
2.4566612697317392
 20
-3.546186264804033
 30
0.0
 11
2.4566612697317458
 21
-3.5934303593040329
 31
0.0
  0
ARC
  5
2EB3
  8
0
 10
2.4684722933317431
 20
-3.5934303593040329
 30
0.0
 40
0.0118110236
 50
180.0000000000044054
 51
270.0
  0
LINE
  5
2EB4
  8
0
 10
2.4684722933317431
 20
-3.6052413829040328
 30
0.0
 11
2.6417006398317389
 21
-3.6052413829040328
 31
0.0
  0
ARC
  5
2EB5
  8
0
 10
2.6417006398317389
 20
-3.5934303593040329
 30
0.0
 40
0.0118110236
 50
270.0
 51
0.0
  0
LINE
  5
2EB6
  8
0
 10
2.6535116634317428
 20
-3.5934303593040329
 30
0.0
 11
2.6535116634317428
 21
-3.546186264804033
 31
0.0
  0
LINE
  5
2EB7
  8
0
 10
3.1122518209317458
 20
-3.546186264804033
 30
0.0
 11
3.1122518209317458
 21
-3.5934303593040329
 31
0.0
  0
ARC
  5
2EB8
  8
0
 10
3.1240628445317489
 20
-3.5934303593040329
 30
0.0
 40
0.0118110236
 50
180.0000000000044054
 51
270.0
  0
LINE
  5
2EB9
  8
0
 10
3.1240628445317489
 20
-3.6052413829040328
 30
0.0
 11
3.2972911910317459
 21
-3.6052413829040328
 31
0.0
  0
ARC
  5
2EBA
  8
0
 10
3.2972911910317459
 20
-3.5934303593040329
 30
0.0
 40
0.0118110236
 50
270.0
 51
0.0
  0
LINE
  5
2EBB
  8
0
 10
3.3091022146317419
 20
-3.5934303593040329
 30
0.0
 11
3.3091022146317419
 21
-3.546186264804033
 31
0.0
  0
LINE
  5
2EBC
  8
0
 10
3.767842372081744
 20
-3.546186264804033
 30
0.0
 11
3.767842372081744
 21
-3.5934303593040329
 31
0.0
  0
ARC
  5
2EBD
  8
0
 10
3.779653395681748
 20
-3.5934303593040329
 30
0.0
 40
0.0118110236
 50
180.0000000000044054
 51
270.0
  0
LINE
  5
2EBE
  8
0
 10
3.779653395681748
 20
-3.6052413829040328
 30
0.0
 11
3.952881742181745
 21
-3.6052413829040328
 31
0.0
  0
ARC
  5
2EBF
  8
0
 10
3.952881742181745
 20
-3.5934303593040329
 30
0.0
 40
0.0118110236
 50
270.0
 51
0.0
  0
LINE
  5
2EC0
  8
0
 10
3.964692765781741
 20
-3.5934303593040329
 30
0.0
 11
3.964692765781741
 21
-3.546186264804033
 31
0.0
  0
LINE
  5
2EC1
  8
0
 10
4.1987085138317459
 20
-3.546186264804033
 30
0.0
 11
4.1987085138317459
 21
-3.5934303593040329
 31
0.0
  0
ARC
  5
2EC2
  8
0
 10
4.2105195374317432
 20
-3.5934303593040329
 30
0.0
 40
0.0118110236
 50
180.0000000000044054
 51
270.0
  0
LINE
  5
2EC3
  8
0
 10
4.2105195374317432
 20
-3.6052413829040328
 30
0.0
 11
4.3837478839317461
 21
-3.6052413829040328
 31
0.0
  0
ARC
  5
2EC4
  8
0
 10
4.3837478839317461
 20
-3.5934303593040329
 30
0.0
 40
0.0118110236
 50
270.0
 51
0.0
  0
LINE
  5
2EC5
  8
0
 10
4.3955589075317434
 20
-3.5934303593040329
 30
0.0
 11
4.3955589075317434
 21
-3.546186264804033
 31
0.0
  0
LINE
  5
2EC6
  8
0
 10
4.4234329232817444
 20
-3.546186264804033
 30
0.0
 11
4.4234329232817444
 21
-3.5934303593040329
 31
0.0
  0
ARC
  5
2EC7
  8
0
 10
4.43524394688174
 20
-3.5934303593040329
 30
0.0
 40
0.0118110236
 50
180.0000000000044054
 51
270.0
  0
LINE
  5
2EC8
  8
0
 10
4.43524394688174
 20
-3.6052413829040328
 30
0.0
 11
4.6084722933817437
 21
-3.6052413829040328
 31
0.0
  0
ARC
  5
2EC9
  8
0
 10
4.6084722933817437
 20
-3.5934303593040329
 30
0.0
 40
0.0118110236
 50
270.0
 51
0.0
  0
LINE
  5
2ECA
  8
0
 10
4.6202833169817401
 20
-3.5934303593040329
 30
0.0
 11
4.6202833169817401
 21
-3.546186264804033
 31
0.0
  0
LINE
  5
2ECB
  8
0
 10
4.9089414438514254
 20
-3.6052413829040342
 30
0.0
 11
5.0541009133817454
 21
-3.6052413829040328
 31
0.0
  0
ARC
  5
2ECC
  8
0
 10
5.0541009133817454
 20
-3.5934303593040329
 30
0.0
 40
0.0118110236
 50
270.0
 51
0.0
  0
LINE
  5
2ECD
  8
0
 10
5.0659119369817409
 20
-3.5934303593040329
 30
0.0
 11
5.0659119369817409
 21
-3.546186264804033
 31
0.0
  0
LINE
  5
2ECE
  8
0
 10
5.0790234744317431
 20
-3.546186264804033
 30
0.0
 11
5.0790234744317431
 21
-3.5934303593040329
 31
0.0
  0
ARC
  5
2ECF
  8
0
 10
5.0908344980317457
 20
-3.5934303593040329
 30
0.0
 40
0.0118110236
 50
180.0000000000044054
 51
270.0
  0
LINE
  5
2ED0
  8
0
 10
5.0908344980317457
 20
-3.6052413829040328
 30
0.0
 11
5.2640628445317432
 21
-3.6052413829040328
 31
0.0
  0
ARC
  5
2ED1
  8
0
 10
5.2640628445317432
 20
-3.5934303593040329
 30
0.0
 40
0.0118110236
 50
270.0
 51
0.0
  0
LINE
  5
2ED2
  8
0
 10
5.2758738681317388
 20
-3.5934303593040329
 30
0.0
 11
5.2758738681317388
 21
-3.546186264804033
 31
0.0
  0
LINE
  5
2ED3
  8
0
 10
5.27665059073174
 20
-3.546186264804033
 30
0.0
 11
5.276650590731748
 21
-3.5934303593040329
 31
0.0
  0
ARC
  5
2ED4
  8
0
 10
5.2884616143317444
 20
-3.5934303593040329
 30
0.0
 40
0.0118110236
 50
180.0000000000044054
 51
270.0
  0
LINE
  5
2ED5
  8
0
 10
5.2884616143317444
 20
-3.6052413829040328
 30
0.0
 11
5.3124125915120572
 21
-3.6052413829040342
 31
0.0
  0
LINE
  5
2ED6
  8
0
 10
5.4601225461514167
 20
-3.6052413829040342
 30
0.0
 11
5.4616899608317411
 21
-3.6052413829040328
 31
0.0
  0
ARC
  5
2ED7
  8
0
 10
5.4616899608317411
 20
-3.5934303593040329
 30
0.0
 40
0.0118110236
 50
270.0
 51
0.0
  0
LINE
  5
2ED8
  8
0
 10
5.4735009844317437
 20
-3.5934303593040329
 30
0.0
 11
5.4735009844317437
 21
-3.546186264804033
 31
0.0
  0
LINE
  5
2ED9
  8
0
 10
5.7346140256317417
 20
-3.546186264804033
 30
0.0
 11
5.7346140256317417
 21
-3.5934303593040329
 31
0.0
  0
ARC
  5
2EDA
  8
0
 10
5.7464250492317461
 20
-3.5934303593040329
 30
0.0
 40
0.0118110236
 50
180.0000000000044054
 51
270.0
  0
LINE
  5
2EDB
  8
0
 10
5.7464250492317461
 20
-3.6052413829040328
 30
0.0
 11
5.8635936939120441
 21
-3.6052413829040342
 31
0.0
  0
LINE
  5
2EDC
  8
0
 10
6.0113036485514106
 20
-3.6052413829040342
 30
0.0
 11
6.1676557219317436
 21
-3.6052413829040328
 31
0.0
  0
ARC
  5
2EDD
  8
0
 10
6.1676557219317436
 20
-3.5934303593040329
 30
0.0
 40
0.0118110236
 50
270.0
 51
0.0
  0
LINE
  5
2EDE
  8
0
 10
6.17946674553174
 20
-3.5934303593040329
 30
0.0
 11
6.17946674553174
 21
-3.546186264804033
 31
0.0
  0
LINE
  5
2EDF
  8
0
 10
4.7607110575317426
 20
-3.546186264804033
 30
0.0
 11
4.7612797474317361
 21
-3.6107174040040331
 31
0.0
  0
ARC
  5
2EE0
  8
0
 10
4.8350864665317337
 20
-3.3503588327205232
 30
0.0
 40
0.2706178438778508
 50
254.1729721790015049
 51
285.8270278209985236
  0
LINE
  5
2EE1
  8
0
 10
4.9088931856317402
 20
-3.6107174040040331
 30
0.0
 11
4.9094618534500247
 21
-3.5461887704886541
 31
0.0
  0
LINE
  5
2EE2
  8
0
 10
5.3118921598317419
 20
-3.546186264804033
 30
0.0
 11
5.3124608497317354
 21
-3.6107174040040331
 31
0.0
  0
ARC
  5
2EE3
  8
0
 10
5.386267568831733
 20
-3.3503588327205232
 30
0.0
 40
0.2706178438778508
 50
254.1729721790015049
 51
285.8270278209985236
  0
LINE
  5
2EE4
  8
0
 10
5.4600742879317394
 20
-3.6107174040040331
 30
0.0
 11
5.460642955750024
 21
-3.5461887704886541
 31
0.0
  0
LINE
  5
2EE5
  8
0
 10
5.8630732622317359
 20
-3.546186264804033
 30
0.0
 11
5.8636419521317293
 21
-3.6107174040040331
 31
0.0
  0
ARC
  5
2EE6
  8
0
 10
5.9374486712317269
 20
-3.3503588327205232
 30
0.0
 40
0.2706178438778508
 50
254.1729721790015049
 51
285.8270278209985236
  0
LINE
  5
2EE7
  8
0
 10
6.0112553903317334
 20
-3.6107174040040331
 30
0.0
 11
6.011824058150018
 21
-3.5461887704886541
 31
0.0
  0
LINE
  5
2EE8
  8
0
 10
4.4424301143317422
 20
-2.9000016792040331
 30
0.0
 11
4.4413856791317414
 21
-2.9398870522040328
 31
0.0
  0
LINE
  5
2EE9
  8
0
 10
4.4413856791317414
 20
-3.0186272097040341
 30
0.0
 11
4.4413856791317414
 21
-3.0973675167040389
 31
0.0
  0
LINE
  5
2EEA
  8
0
 10
4.7563463090317413
 20
-3.4280760286040328
 30
0.0
 11
4.7563463090317413
 21
-2.8808319341040329
 31
0.0
  0
LINE
  5
2EEB
  8
0
 10
4.4807557578317443
 20
-3.0186272097040341
 30
0.0
 11
4.4807557578317443
 21
-2.9398870522040328
 31
0.0
  0
ARC
  5
2EEC
  8
0
 10
4.4621084081120008
 20
-2.9005169734554679
 30
0.0
 40
0.0196850393514335
 50
89.9999999425273245
 51
178.5000000177786035
  0
LINE
  5
2EED
  8
0
 10
4.4448455671266336
 20
-3.097367367204034
 30
0.0
 11
4.090934499631742
 21
-3.0973673672040349
 31
0.0
  0
ARC
  5
2EEE
  8
0
 10
4.0912754074399373
 20
-3.1131178141945779
 30
0.0
 40
0.015754135918407
 50
91.2399349233744204
 51
180.9908263285715861
  0
LINE
  5
2EEF
  8
0
 10
4.0755236271325677
 20
-3.1133902397515079
 30
0.0
 11
4.0810163504645578
 21
-3.4280760286040328
 31
0.0
  0
ARC
  5
2EF0
  8
0
 10
4.4237540832603477
 20
-3.113352082834302
 30
0.0
 40
0.0264643500857726
 50
0.4896285541561453
 51
37.1575911017315121
  0
LINE
  5
2EF1
  8
0
 10
4.5185805674547899
 20
-3.1141589191619481
 30
0.0
 11
4.5185805674547899
 21
-3.4280760286040328
 31
0.0
  0
ARC
  5
2EF2
  8
0
 10
5.1863694702325409
 20
-3.1217420466746661
 30
0.0
 40
0.0243992631229199
 50
92.5722249638601937
 51
159.3211104716772013
  0
LINE
  5
2EF3
  8
0
 10
5.8416773821021328
 20
-3.113125931032759
 30
0.0
 11
5.6746518529317376
 21
-3.1244564682040332
 31
0.0
  0
ARC
  5
2EF4
  8
0
 10
5.5831180834157763
 20
0.4795210371963501
 30
0.0
 40
3.6051397046985261
 50
268.5451071387556112
 51
271.4548846202625896
  0
LINE
  5
2EF5
  8
0
 10
5.4915837955315752
 20
-3.124456455038481
 30
0.0
 11
5.1635421490540301
 21
-3.113125931032759
 31
0.0
  0
ARC
  5
2EF6
  8
0
 10
5.583367618729091
 20
-2.3674950845313991
 30
0.0
 40
0.7399065379265832
 50
266.0145498931697716
 51
273.9463523769892959
  0
ARC
  5
2EF7
  8
0
 10
5.5828681260644748
 20
-3.8314583676032581
 30
0.0
 40
0.7276303744694131
 50
85.9475296790329537
 51
94.0133725911237548
  0
LINE
  5
2EF8
  8
0
 10
-2.1334174704682591
 20
-3.156422485304033
 30
0.0
 11
-1.8716064468682629
 21
-3.156422485304033
 31
0.0
  0
ENDSEC
  0
EOF
