  0
SECTION
  2
HEADER
  9
$ACADVER
  1
AC1009
  9
$INSBASE
 10
3255.4834151979807757
 20
143.8495970039190865
 30
0.0
  9
$EXTMIN
 10
3251.1043621103058285
 20
131.265801374346097
 30
-0.0000000000112498
  9
$EXTMAX
 10
3256.5702365212378027
 20
152.4309521462058115
 30
0.0000000000002956
  9
$LIMMIN
 10
0.0
 20
0.0
  9
$LIMMAX
 10
11.6929133858000007
 20
8.2677165353999982
  9
$ORTHOMODE
 70
     0
  9
$REGENMODE
 70
     1
  9
$FILLMODE
 70
     1
  9
$QTEXTMODE
 70
     0
  9
$MIRRTEXT
 70
     0
  9
$DRAGMODE
 70
     2
  9
$LTSCALE
 40
0.6431102362
  9
$OSMODE
 70
  4095
  9
$ATTMODE
 70
     1
  9
$TEXTSIZE
 40
0.2
  9
$TRACEWID
 40
0.05
  9
$TEXTSTYLE
  7
STANDARD
  9
$CLAYER
  8
0
  9
$CELTYPE
  6
BYLAYER
  9
$CECOLOR
 62
   256
  9
$DIMSCALE
 40
1.0
  9
$DIMASZ
 40
0.1875
  9
$DIMEXO
 40
0.0625
  9
$DIMDLI
 40
0.4443307087
  9
$DIMRND
 40
0.0
  9
$DIMDLE
 40
0.0
  9
$DIMEXE
 40
0.125
  9
$DIMTP
 40
0.01
  9
$DIMTM
 40
0.01
  9
$DIMTXT
 40
2.0
  9
$DIMCEN
 40
0.1052362205
  9
$DIMTSZ
 40
0.0
  9
$DIMTOL
 70
     1
  9
$DIMLIM
 70
     0
  9
$DIMTIH
 70
     1
  9
$DIMTOH
 70
     1
  9
$DIMSE1
 70
     0
  9
$DIMSE2
 70
     0
  9
$DIMTAD
 70
     0
  9
$DIMZIN
 70
     0
  9
$DIMBLK
  1

  9
$DIMASO
 70
     1
  9
$DIMSHO
 70
     1
  9
$DIMPOST
  1
\X
  9
$DIMAPOST
  1

  9
$DIMALT
 70
     1
  9
$DIMALTD
 70
     2
  9
$DIMALTF
 40
25.3999999999999986
  9
$DIMLFAC
 40
1.0
  9
$DIMTOFL
 70
     0
  9
$DIMTVP
 40
0.0
  9
$DIMTIX
 70
     0
  9
$DIMSOXD
 70
     0
  9
$DIMSAH
 70
     0
  9
$DIMBLK1
  1

  9
$DIMBLK2
  1

  9
$DIMSTYLE
  2
STANDARD
  9
$DIMCLRD
 70
     0
  9
$DIMCLRE
 70
     0
  9
$DIMCLRT
 70
     0
  9
$DIMTFAC
 40
1.0
  9
$DIMGAP
 40
0.09
  9
$LUNITS
 70
     2
  9
$LUPREC
 70
     4
  9
$SKETCHINC
 40
0.1
  9
$FILLETRAD
 40
0.0
  9
$AUNITS
 70
     0
  9
$AUPREC
 70
     0
  9
$MENU
  1
.
  9
$ELEVATION
 40
0.0
  9
$PELEVATION
 40
0.0
  9
$THICKNESS
 40
0.0
  9
$LIMCHECK
 70
     0
  9
$BLIPMODE
 70
     0
  9
$CHAMFERA
 40
0.0
  9
$CHAMFERB
 40
0.0
  9
$SKPOLY
 70
     0
  9
$TDCREATE
 40
2458060.468368056230247
  9
$TDUPDATE
 40
2459655.472835648804903
  9
$TDINDWG
 40
0.5964653935000001
  9
$TDUSRTIMER
 40
0.5964653935000001
  9
$USRTIMER
 70
     1
  9
$ANGBASE
 50
0.0
  9
$ANGDIR
 70
     0
  9
$PDMODE
 70
     0
  9
$PDSIZE
 40
0.3125
  9
$PLINEWID
 40
0.0
  9
$COORDS
 70
     1
  9
$SPLFRAME
 70
     0
  9
$SPLINETYPE
 70
     6
  9
$SPLINESEGS
 70
     8
  9
$ATTDIA
 70
     1
  9
$ATTREQ
 70
     1
  9
$HANDLING
 70
     1
  9
$HANDSEED
  5
24B61
  9
$SURFTAB1
 70
     6
  9
$SURFTAB2
 70
     6
  9
$SURFTYPE
 70
     6
  9
$SURFU
 70
     6
  9
$SURFV
 70
     6
  9
$UCSNAME
  2

  9
$UCSORG
 10
0.0
 20
0.0
 30
0.0
  9
$UCSXDIR
 10
1.0
 20
0.0
 30
0.0
  9
$UCSYDIR
 10
0.0
 20
1.0
 30
0.0
  9
$PUCSNAME
  2

  9
$PUCSORG
 10
0.0
 20
0.0
 30
0.0
  9
$PUCSXDIR
 10
1.0
 20
0.0
 30
0.0
  9
$PUCSYDIR
 10
0.0
 20
1.0
 30
0.0
  9
$USERI1
 70
     0
  9
$USERI2
 70
     0
  9
$USERI3
 70
     0
  9
$USERI4
 70
     0
  9
$USERI5
 70
     0
  9
$USERR1
 40
0.0
  9
$USERR2
 40
0.0
  9
$USERR3
 40
0.0
  9
$USERR4
 40
0.0
  9
$USERR5
 40
0.0
  9
$WORLDVIEW
 70
     1
  9
$SHADEDGE
 70
     3
  9
$SHADEDIF
 70
    70
  9
$TILEMODE
 70
     1
  9
$MAXACTVP
 70
    64
  9
$PLIMCHECK
 70
     0
  9
$PEXTMIN
 10
1.0000000000000000E+20
 20
1.0000000000000000E+20
 30
1.0000000000000000E+20
  9
$PEXTMAX
 10
-1.0000000000000000E+20
 20
-1.0000000000000000E+20
 30
-1.0000000000000000E+20
  9
$PLIMMIN
 10
0.0
 20
0.0
  9
$PLIMMAX
 10
12.0
 20
9.0
  9
$UNITMODE
 70
     0
  9
$VISRETAIN
 70
     1
  9
$PLINEGEN
 70
     0
  9
$PSLTSCALE
 70
     1
  0
ENDSEC
  0
SECTION
  2
TABLES
  0
TABLE
  2
VPORT
 70
     1
  0
VPORT
  2
*ACTIVE
 70
     0
 10
0.0
 20
0.0
 11
1.0
 21
1.0
 12
-49.8558159186031773
 22
-53.4131348156118122
 13
0.0
 23
0.0
 14
1.0
 24
1.0
 15
0.0
 25
0.0
 16
0.0
 26
0.0
 36
96.5995694866707311
 17
3303.693115234375
 27
195.2615115758877096
 37
0.0
 40
21.2977091274246
 41
2.005224660397074
 42
50.0
 43
0.0
 44
0.0
 50
0.0
 51
0.0
 71
     0
 72
   100
 73
     1
 74
     1
 75
     0
 76
     0
 77
     0
 78
     0
  0
ENDTAB
  0
TABLE
  2
LTYPE
 70
     2
  0
LTYPE
  2
CONTINUOUS
 70
     0
  3
Solid line
 72
    65
 73
     0
 40
0.0
  0
LTYPE
  2
PHANTOM2
 70
     0
  3
___ _ _ ___ _ _ ___ _ _ ___ _ _
 72
    65
 73
     6
 40
1.25
 49
0.625
 49
-0.125
 49
0.125
 49
-0.125
 49
0.125
 49
-0.125
  0
ENDTAB
  0
TABLE
  2
LAYER
 70
     2
  0
LAYER
  2
0
 70
     0
 62
   255
  6
CONTINUOUS
  0
LAYER
  2
DEFPOINTS
 70
     0
 62
     7
  6
CONTINUOUS
  0
ENDTAB
  0
TABLE
  2
STYLE
 70
     1
  0
STYLE
  2
STANDARD
 70
     0
 40
0.0
 41
0.8
 50
0.0
 71
     0
 42
0.2
  3
txt
  4

  0
ENDTAB
  0
TABLE
  2
VIEW
 70
     0
  0
ENDTAB
  0
TABLE
  2
UCS
 70
     0
  0
ENDTAB
  0
TABLE
  2
APPID
 70
     9
  0
APPID
  2
ACAD
 70
     0
  0
APPID
  2
ACAD_MLEADERVER
 70
     0
  0
APPID
  2
ACAD_EXEMPT_FROM_CAD_STANDARDS
 70
     0
  0
APPID
  2
ACAD_NAV_VCDISPLAY
 70
     0
  0
APPID
  2
ACAECLAYERSTANDARD
 70
     0
  0
APPID
  2
ACCMTRANSPARENCY
 70
     0
  0
APPID
  2
ACAD_DSTYLE_DIMJAG
 70
     0
  0
APPID
  2
ACAD_DSTYLE_DIMTALN
 70
     0
  0
APPID
  2
ACDBATTR
 70
     0
  0
ENDTAB
  0
TABLE
  2
DIMSTYLE
 70
     1
  0
DIMSTYLE
  2
STANDARD
 70
     0
  3

  4

  5

  6

  7

 40
1.0
 41
0.1875
 42
0.0625
 43
0.38
 44
0.125
 45
0.0
 46
0.0
 47
0.01
 48
0.01
140
0.15625
141
0.09
142
0.0
143
25.3999999999999986
144
1.0
145
0.0
146
1.0
147
0.09
 71
     1
 72
     0
 73
     1
 74
     1
 75
     0
 76
     0
 77
     0
 78
     4
170
     0
171
     2
172
     0
173
     0
174
     0
175
     0
176
     0
177
     0
178
     0
  0
ENDTAB
  0
ENDSEC
  0
SECTION
  2
BLOCKS
  0
BLOCK
  8
0
  2
$MODEL_SPACE
 70
     0
 10
0.0
 20
0.0
 30
0.0
  3
$MODEL_SPACE
  1

  0
ENDBLK
  5
21
  8
0
  0
BLOCK
 67
     1
  8
0
  2
$PAPER_SPACE
 70
     0
 10
0.0
 20
0.0
 30
0.0
  3
$PAPER_SPACE
  1

  0
ENDBLK
  5
1D
 67
     1
  8
0
  0
BLOCK
  8
0
  2
_FILLED
 70
     0
 10
0.0
 20
0.0
 30
0.0
  3
_FILLED
  1

  0
SOLID
  5
2389A
  8
0
  6
BYBLOCK
 62
     0
 10
0.0
 20
0.0
 30
0.0
 11
-1.0
 21
0.1666666667
 31
0.0
 12
-1.0
 22
-0.1666666667
 32
0.0
 13
-1.0
 23
-0.1666666667
 33
0.0
  0
ENDBLK
  5
2389B
  8
0
  6
BYBLOCK
 62
     0
  0
ENDSEC
  0
SECTION
  2
ENTITIES
  0
CIRCLE
  5
24325
  8
0
 10
3255.4834051020320658
 20
151.7821958738730928
 30
0.0
 40
0.640918408210551
  0
CIRCLE
  5
24326
  8
0
 10
3255.4834051020320658
 20
151.7821954582730939
 30
0.0
 40
0.580326625379144
  0
ARC
  5
24327
  8
0
 10
3253.8658595498118302
 20
151.0789820382528035
 30
0.0
 40
1.1760549501655631
 50
358.2320568285155105
 51
13.2986594673253506
  0
LINE
  5
24328
  8
0
 10
3255.0413546721310922
 20
151.0426989400731088
 30
0.0
 11
3255.0446282884308857
 21
150.6141296268731082
 31
0.0
  0
ARC
  5
24329
  8
0
 10
3198.0250581380719268
 20
150.4658019175780908
 30
0.0
 40
57.0197630759821621
 50
357.9969911200719253
 51
0.1490458895990261
  0
ARC
  5
2432A
  8
0
 10
3584.9304713475808057
 20
137.7969569707755966
 30
0.0
 40
330.093174911504093
 50
178.1466135878895045
 51
178.2702579159283971
  0
ARC
  5
2432B
  8
0
 10
3259.3293487737041687
 20
146.8304957438064946
 30
0.0
 40
4.3936186780131044
 50
175.8462572207421033
 51
179.9807168153006955
  0
ARC
  5
2432C
  8
0
 10
3245.8779307427148524
 20
146.5630229322673017
 30
0.0
 40
9.0617916848240494
 50
0.453151293014099
 51
1.7007728720663331
  0
ARC
  5
2432D
  8
0
 10
3275.3428712459381131
 20
147.7236598018793075
 30
0.0
 40
20.4324716655176815
 50
183.0550806967773951
 51
185.632803682822896
  0
ARC
  5
2432E
  8
0
 10
3250.0748067869299121
 20
145.2422173235148932
 30
0.0
 40
4.9571543134477674
 50
1.0407399148126899
 51
5.5095026793287296
  0
ARC
  5
2432F
  8
0
 10
3255.0390603034111336
 20
145.33227078338561
 30
0.0
 40
0.0079169843599146
 50
180.1084404306583906
 51
269.0135470032785179
  0
LINE
  5
24330
  8
0
 10
3255.0389240045919905
 20
145.3243549723731007
 30
0.0
 11
3255.9278614891700272
 21
145.3243549723731007
 31
0.0
  0
ARC
  5
24331
  8
0
 10
3255.9278112624488131
 20
145.3322111316221878
 30
0.0
 40
0.0078563198045503
 50
270.3663036666775952
 51
0.4265604435093739
  0
ARC
  5
24332
  8
0
 10
3263.1752567940329754
 20
145.1252748665025081
 30
0.0
 40
7.2425480278639913
 50
174.029044125097613
 51
178.3622419984982059
  0
ARC
  5
24333
  8
0
 10
3245.4908990918820564
 20
146.9987272083693028
 30
0.0
 40
10.54077889574544
 50
353.9002996149487217
 51
359.3830768253283736
  0
ARC
  5
24334
  8
0
 10
3250.0867570308300856
 20
146.7584416627555868
 30
0.0
 40
5.9456620094035184
 50
1.2219283944974799
 51
3.6238824476943532
  0
ARC
  5
24335
  8
0
 10
3216.6920993721878403
 20
151.1432594380862042
 30
0.0
 40
39.2374294710377782
 50
359.2273250304846783
 51
359.8373078071408031
  0
ARC
  5
24336
  8
0
 10
3258.2420155176441767
 20
151.0252775344251859
 30
0.0
 40
2.3126541801893659
 50
174.4981011473689989
 51
179.8373078071425084
  0
ARC
  5
24337
  8
0
 10
3257.4639208687149221
 20
151.0095824785933019
 30
0.0
 40
1.542290419914224
 50
167.0799771426559062
 51
171.1443276807071925
  0
ARC
  5
24338
  8
0
 10
3255.4855573845889012
 20
149.0277240653404931
 30
0.0
 40
0.5579695972848905
 50
90.2199838032696846
 51
94.967231655375258
  0
ARC
  5
24339
  8
0
 10
3255.4644043634489208
 20
149.2711073033472076
 30
0.0
 40
0.3136688587555629
 50
94.967231655375258
 51
119.4683927116719957
  0
ARC
  5
2433A
  8
0
 10
3255.4301303951278896
 20
149.3608526212426
 30
0.0
 40
0.219141000358516
 50
123.2124334071616971
 51
150.911413110044009
  0
ARC
  5
2433B
  8
0
 10
3255.5798862198498682
 20
149.2817835873844956
 30
0.0
 40
0.3884660028220531
 50
151.4585452130731937
 51
168.5421173307072991
  0
ARC
  5
2433C
  8
0
 10
3256.4395038010511598
 20
149.1146132703269132
 30
0.0
 40
1.2641791845697969
 50
168.8558481094376873
 51
177.1257230240059073
  0
ARC
  5
2433D
  8
0
 10
3214.2898411463947923
 20
151.0952751216148044
 30
0.0
 40
40.932001324335971
 50
356.0993774064486956
 51
357.3152620685995089
  0
ARC
  5
2433E
  8
0
 10
3239.9697724148259113
 20
149.4002611619729066
 30
0.0
 40
15.1963538706826693
 50
354.1205231741190005
 51
355.8889195271755739
  0
ARC
  5
2433F
  8
0
 10
3247.2202306706572017
 20
148.6454979613224054
 30
0.0
 40
7.9067251536998571
 50
351.9283201191843204
 51
354.179097852706775
  0
ARC
  5
24340
  8
0
 10
3252.0764533795559146
 20
147.8986059734334901
 30
0.0
 40
2.9942941406326362
 50
346.6495103085616165
 51
353.0309723417071837
  0
ARC
  5
24341
  8
0
 10
3251.2710352454391796
 20
148.0776019907339105
 30
0.0
 40
3.8192962297620241
 50
343.8652576152924212
 51
346.8268013570511812
  0
ARC
  5
24342
  8
0
 10
3255.2681148967849367
 20
147.5034965515189924
 30
0.0
 40
0.406924227859369
 50
116.1527838772104957
 51
118.5347879884960065
  0
ARC
  5
24343
  8
0
 10
3255.2113259353018293
 20
147.6079375351010015
 30
0.0
 40
0.2880423318539629
 50
118.5347879884960065
 51
131.6405416003850064
  0
ARC
  5
24344
  8
0
 10
3255.0912932492888103
 20
147.7429410758452946
 30
0.0
 40
0.1073940500323425
 50
131.6405416003850064
 51
150.7077020330517882
  0
ARC
  5
24345
  8
0
 10
3255.0697062682052092
 20
147.7550513092527922
 30
0.0
 40
0.0826421712047061
 50
150.7077020330532093
 51
163.9480207960779126
  0
ARC
  5
24346
  8
0
 10
3255.0530258723078987
 20
147.7597083245564136
 30
0.0
 40
0.0653245585135403
 50
163.8279985877570084
 51
178.9938579348674068
  0
ARC
  5
24347
  8
0
 10
3255.1053373328500129
 20
147.7625339060982128
 30
0.0
 40
0.1176379226782553
 50
180.8175488829672872
 51
189.9549649353465099
  0
LINE
  5
24348
  8
0
 10
3254.9894705740271093
 20
147.742197361358393
 30
0.0
 11
3254.9902299571390358
 21
147.737977125631204
 31
0.0
  0
ARC
  5
24349
  8
0
 10
3168.3773095655519683
 20
301.3350516856490913
 30
0.0
 40
176.2896872047018917
 50
299.4565900081399832
 51
299.4625460868124947
  0
ARC
  5
2434A
  8
0
 10
3255.1777763020290877
 20
147.6441687769925011
 30
0.0
 40
0.2186936583962444
 50
119.4565900081399974
 51
134.2033186812219014
  0
ARC
  5
2434B
  8
0
 10
3255.1403334511151115
 20
147.6826676436832884
 30
0.0
 40
0.1649895633850539
 50
134.2033186812219014
 51
145.8045936143130916
  0
ARC
  5
2434C
  8
0
 10
3255.0674528791410012
 20
147.7321886879439887
 30
0.0
 40
0.0768765019466289
 50
145.8045936143118126
 51
164.7598294518008117
  0
ARC
  5
2434D
  8
0
 10
3255.0664267799238587
 20
147.7293928718922871
 30
0.0
 40
0.0766788446367777
 50
162.5421166179006889
 51
173.5722203161830066
  0
ARC
  5
2434E
  8
0
 10
3255.7638467355568537
 20
147.6605211470952952
 30
0.0
 40
0.7774846290833708
 50
174.2824919765083109
 51
176.064930113736807
  0
ARC
  5
2434F
  8
0
 10
3257.1339848467100637
 20
147.5104756986544885
 30
0.0
 40
2.1554085031701451
 50
174.5850685137160951
 51
178.7040295985553939
  0
ARC
  5
24350
  8
0
 10
3214.2252924788849668
 20
150.5155495581904006
 30
0.0
 40
40.8609219389314333
 50
355.2736504708174721
 51
355.8509729690632071
  0
ARC
  5
24351
  8
0
 10
3255.0700230809311506
 20
145.3325304104731117
 30
0.0
 40
0.0118110236000203
 50
223.8034866117467061
 51
269.9999999999478746
  0
LINE
  5
24352
  8
0
 10
3255.0700230809311506
 20
145.320719386873094
 30
0.0
 11
3255.8967947414012087
 21
145.3207193868724119
 31
0.0
  0
ARC
  5
24353
  8
0
 10
3255.8967947414012087
 20
145.3325292971697138
 30
0.0
 40
0.0118099102972433
 50
269.9999999999478746
 51
316.1988169558636059
  0
ARC
  5
24354
  8
0
 10
3255.0847868860309973
 20
145.2892233325731013
 30
0.0
 40
0.0314960630000028
 50
38.7449785116990881
 51
89.9574137515700443
  0
LINE
  5
24355
  8
0
 10
3255.0460313135158685
 20
145.308908349073107
 30
0.0
 11
3255.9207856865309623
 21
145.308908865272997
 31
0.0
  0
ARC
  5
24356
  8
0
 10
3255.9207856981479381
 20
145.2892230082248943
 30
0.0
 40
0.0196858570481923
 50
358.2375306446543846
 51
90.0000338107183069
  0
LINE
  5
24357
  8
0
 10
3255.9404622422312059
 20
145.2886175491730967
 30
0.0
 11
3255.9217953487709565
 21
144.682814558140592
 31
0.0
  0
ARC
  5
24358
  8
0
 10
3255.0460313251310254
 20
145.2892233096731047
 30
0.0
 40
0.0196850394000031
 50
90.0000338107443696
 51
181.7649910670913869
  0
LINE
  5
24359
  8
0
 10
3255.0263556249751673
 20
145.2886170097980028
 30
0.0
 11
3255.0450232317089103
 21
144.6828140930724089
 31
0.0
  0
ARC
  5
2435A
  8
0
 10
3255.2006952468400414
 20
143.3203876696425141
 30
0.0
 40
1.3778890120879661
 50
96.4978360374271915
 51
96.7420554198492511
  0
ARC
  5
2435B
  8
0
 10
3255.1445472122991305
 20
143.7953442269572975
 30
0.0
 40
0.8996251381447739
 50
96.7420554198492511
 51
97.3677884025613167
  0
ARC
  5
2435C
  8
0
 10
3255.0982786969871086
 20
144.1531669767072117
 30
0.0
 40
0.5388233979220253
 50
97.3677884025613167
 51
98.7120377310560855
  0
ARC
  5
2435D
  8
0
 10
3255.0395511116698799
 20
144.5364149285695134
 30
0.0
 40
0.1511019490907715
 50
98.7120377310560855
 51
101.467208014443699
  0
ARC
  5
2435E
  8
0
 10
3255.0155351594207787
 20
144.6548038880875993
 30
0.0
 40
0.0303016523268996
 50
101.467208014443699
 51
108.2611876186950042
  0
ARC
  5
2435F
  8
0
 10
3255.0066179266250401
 20
144.6818285037182079
 30
0.0
 40
0.0018438433686635
 50
108.2611876187218058
 51
129.3181214110485939
  0
ARC
  5
24360
  8
0
 10
3255.0056065850499181
 20
144.6830633246503055
 30
0.0
 40
0.0002477247899674
 50
129.3181214112406963
 51
191.8284953424526122
  0
ARC
  5
24361
  8
0
 10
3255.0055164683258226
 20
144.6830444515065039
 30
0.0
 40
0.0001556529734316
 50
191.8284953427757102
 51
257.1943916533581955
  0
ARC
  5
24362
  8
0
 10
3255.0068138330129841
 20
144.6856051125456872
 30
0.0
 40
0.0030217887013969
 50
243.8480268029553031
 51
262.1749648787708793
  0
ARC
  5
24363
  8
0
 10
3255.0210016033479405
 20
144.9237534295841101
 30
0.0
 40
0.2415834947672542
 50
266.5354359680832772
 51
272.7314078867582907
  0
ARC
  5
24364
  8
0
 10
3254.9922804833718146
 20
146.2556245303410094
 30
0.0
 40
1.573694528516657
 50
271.46500052714498
 51
271.9206414291210194
  0
ARC
  5
24365
  8
0
 10
3254.6635831970220352
 20
155.3356951751682118
 30
0.0
 40
10.6597078688554205
 50
272.0506725976508733
 51
272.3924492836310947
  0
ARC
  5
24366
  8
0
 10
3255.1098045597577766
 20
144.6656305090430124
 30
0.0
 40
0.0196876965558836
 50
53.806273581381987
 51
93.6189139628747711
  0
ARC
  5
24367
  8
0
 10
3255.1098224052911974
 20
144.6656426375099898
 30
0.0
 40
0.0196673718160965
 50
6.4638648544292217
 51
53.8273646308836575
  0
ARC
  5
24368
  8
0
 10
3255.0011460425180303
 20
144.6598264251136925
 30
0.0
 40
0.1284699315449263
 50
0.8034168572574913
 51
3.5837358916159938
  0
LINE
  5
24369
  8
0
 10
3255.1296033275129957
 20
144.6616283515155033
 30
0.0
 11
3255.1651132637198316
 21
143.3055585971756898
 31
0.0
  0
ARC
  5
2436A
  8
0
 10
3255.2167304042350224
 20
143.5019879520033896
 30
0.0
 40
0.2030980566943191
 50
244.432164822445003
 51
255.2768427551285981
  0
ARC
  5
2436B
  8
0
 10
3255.0049305964607811
 20
143.0151696427047057
 30
0.0
 40
0.3280101390581027
 50
67.760137611749073
 51
75.1211724430178691
  0
ARC
  5
2436C
  8
0
 10
3255.0789702870838482
 20
143.2936962139986861
 30
0.0
 40
0.039810703640711
 50
75.1763928982203424
 51
95.0762965204432646
  0
ARC
  5
2436D
  8
0
 10
3255.0758084184540166
 20
143.3261637491914087
 30
0.0
 40
0.0071960653588151
 50
92.8729011532144995
 51
160.1012826957388882
  0
ARC
  5
2436E
  8
0
 10
3255.0859811176510448
 20
143.3256566368353049
 30
0.0
 40
0.0171951771521145
 50
170.0999897575271973
 51
205.7973353762531872
  0
ARC
  5
2436F
  8
0
 10
3255.367937285437165
 20
143.5217935210206122
 30
0.0
 40
0.3604584307084424
 50
214.3947835001453939
 51
243.6272526624572947
  0
ARC
  5
24370
  8
0
 10
3255.4792580949329022
 20
138.7859771645472051
 30
0.0
 40
5.95419925292597
 50
94.1945715812118749
 51
95.1313827881842258
  0
ARC
  5
24371
  8
0
 10
3255.479280860918152
 20
138.7857236450608127
 30
0.0
 40
5.95445379254976
 50
95.1313827881842258
 51
95.4997697560473284
  0
ARC
  5
24372
  8
0
 10
3254.910482366395172
 20
144.6931706956517019
 30
0.0
 40
0.0196865365482708
 50
95.4997697560473284
 51
132.2775163148542958
  0
ARC
  5
24373
  8
0
 10
3255.5884562806982103
 20
143.962609095456088
 30
0.0
 40
1.016364457878667
 50
132.8505364689837052
 51
248.0032002703499074
  0
ARC
  5
24374
  8
0
 10
3255.062234930656814
 20
144.6360389708567027
 30
0.0
 40
0.0733926160553868
 50
23.5692626455270187
 51
30.0858425332673605
  0
ARC
  5
24375
  8
0
 10
3255.1099157616008597
 20
144.6610982319756999
 30
0.0
 40
0.0196988297776922
 50
36.554005459006099
 51
71.4991166680631238
  0
ARC
  5
24376
  8
0
 10
3255.1099060512019605
 20
144.6609612911757949
 30
0.0
 40
0.0198318041718398
 50
71.5980546146535346
 51
93.5149101833079897
  0
LINE
  5
24377
  8
0
 10
3255.1086901973221757
 20
144.6807557893015996
 30
0.0
 11
3255.0581371373309594
 21
144.6773696890730889
 31
0.0
  0
ARC
  5
24378
  8
0
 10
3255.0595840258970384
 20
144.6579053919145963
 30
0.0
 40
0.0195180006761362
 50
94.2512922667084467
 51
135.6779873618453109
  0
ARC
  5
24379
  8
0
 10
3255.6679134746459567
 20
144.0638050928849907
 30
0.0
 40
0.8698237595190123
 50
135.6779873618453109
 51
234.582146908728788
  0
ARC
  5
2437A
  8
0
 10
3254.9171877894441423
 20
144.7079172846158883
 30
0.0
 40
0.00986620639268
 50
150.5602693450817071
 51
162.4729938620355085
  0
ARC
  5
2437B
  8
0
 10
3254.9143305490060811
 20
144.7088196499192065
 30
0.0
 40
0.0068698609424721
 50
162.4729938620338885
 51
208.4332322297937026
  0
ARC
  5
2437C
  8
0
 10
3254.9189083119431416
 20
144.7112982695853987
 30
0.0
 40
0.0120755759703891
 50
208.4332322297964879
 51
242.3063884950470879
  0
ARC
  5
2437D
  8
0
 10
3254.9597785437131279
 20
144.7891656839643133
 30
0.0
 40
0.1000170910073139
 50
242.3063884950470879
 51
261.1341334659460927
  0
ARC
  5
2437E
  8
0
 10
3255.2889591909729461
 20
146.8994938173746903
 30
0.0
 40
2.2358646345351838
 50
261.1341334659460927
 51
262.4972700899926963
  0
ARC
  5
2437F
  8
0
 10
3255.1726858162451208
 20
146.3476012416680021
 30
0.0
 40
1.6740726816232609
 50
263.9764983859237759
 51
265.3052353534627059
  0
ARC
  5
24380
  8
0
 10
3255.2728506336848113
 20
147.5375881480921976
 30
0.0
 40
2.8682662914782111
 50
265.2566669435772724
 51
265.7069202395629759
  0
LINE
  5
24381
  8
0
 10
3255.1559532579308325
 20
143.6553651068730915
 30
0.0
 11
3255.8108645960328431
 21
143.6553651068730915
 31
0.0
  0
ARC
  5
24382
  8
0
 10
3255.7661226203090337
 20
143.3203876696406951
 30
0.0
 40
1.3778890120879661
 50
83.2579445798094184
 51
83.5043880686504849
  0
ARC
  5
24383
  8
0
 10
3255.8222706548531278
 20
143.795344226955109
 30
0.0
 40
0.8996251381447739
 50
82.6322115970708779
 51
83.2579445798094184
  0
ARC
  5
24384
  8
0
 10
3255.8685391701678782
 20
144.1531669767047958
 30
0.0
 40
0.5388233979220253
 50
81.2879622685749865
 51
82.6322115970708779
  0
ARC
  5
24385
  8
0
 10
3255.9272667554869258
 20
144.5364149285666997
 30
0.0
 40
0.1511019490907715
 50
78.5327919852100251
 51
81.2879622685749865
  0
ARC
  5
24386
  8
0
 10
3255.9512827077378461
 20
144.6548038880845866
 30
0.0
 40
0.0303016523268996
 50
71.738812380948076
 51
78.532791985184474
  0
ARC
  5
24387
  8
0
 10
3255.9601999405331298
 20
144.6818285037151952
 30
0.0
 40
0.0018438433686635
 50
50.6818785885841905
 51
71.7388123809212743
  0
ARC
  5
24388
  8
0
 10
3255.9612112821091614
 20
144.6830633246472075
 30
0.0
 40
0.0002477247899674
 50
348.1715046571854941
 51
50.6818785884122107
  0
ARC
  5
24389
  8
0
 10
3255.9613013988318926
 20
144.6830444515034912
 30
0.0
 40
0.0001556529734316
 50
282.8056083462684001
 51
348.1715046568623961
  0
ARC
  5
2438A
  8
0
 10
3255.9600040341451859
 20
144.685605112542703
 30
0.0
 40
0.0030217887013969
 50
277.8250351208610027
 51
296.1519731966944278
  0
ARC
  5
2438B
  8
0
 10
3255.9458162638129579
 20
144.9237534295812111
 30
0.0
 40
0.2415834947672542
 50
267.2685921128763766
 51
273.4645640315512765
  0
ARC
  5
2438C
  8
0
 10
3255.974537383795905
 20
146.2556245303379114
 30
0.0
 40
1.573694528516657
 50
268.079358570513989
 51
268.5349994724900853
  0
ARC
  5
2438D
  8
0
 10
3256.3032346702038922
 20
155.3356951751630959
 30
0.0
 40
10.6597078688554205
 50
267.6075507160039137
 51
267.9493274019840783
  0
ARC
  5
2438E
  8
0
 10
3255.8570133074008481
 20
144.6656305090407102
 30
0.0
 40
0.0196876965558836
 50
86.3810860367597542
 51
126.1937264182606953
  0
ARC
  5
2438F
  8
0
 10
3255.8569954618669726
 20
144.6656426375076876
 30
0.0
 40
0.0196673718160965
 50
126.1726353687591029
 51
173.5361351452104941
  0
ARC
  5
24390
  8
0
 10
3255.9656718246410492
 20
144.6598264251107082
 30
0.0
 40
0.1284699315449263
 50
176.4162641080231992
 51
179.1965831423827069
  0
LINE
  5
24391
  8
0
 10
3255.8372145396460837
 20
144.6616283515132864
 30
0.0
 11
3255.8017046034301529
 21
143.3055585971737003
 31
0.0
  0
ARC
  5
24392
  8
0
 10
3255.7500874629158716
 20
143.501987952001798
 30
0.0
 40
0.2030980566943191
 50
284.7231572444953827
 51
295.5678351771819052
  0
ARC
  5
24393
  8
0
 10
3255.9618872706878392
 20
143.015169642701693
 30
0.0
 40
0.3280101390581027
 50
104.8788275566061969
 51
112.2398623878855943
  0
ARC
  5
24394
  8
0
 10
3255.8878475800661363
 20
143.2936962139962134
 30
0.0
 40
0.039810703640711
 50
84.9237034791905359
 51
104.8236071014284931
  0
ARC
  5
24395
  8
0
 10
3255.8910094486959679
 20
143.3261637491887939
 30
0.0
 40
0.0071960653588151
 50
19.8987173038982093
 51
87.1270988464202958
  0
ARC
  5
24396
  8
0
 10
3255.8808367494980303
 20
143.3256566368328038
 30
0.0
 40
0.0171951771521145
 50
334.2026646233870224
 51
9.9000102421141527
  0
ARC
  5
24397
  8
0
 10
3255.5988805817150933
 20
143.5217935210197879
 30
0.0
 40
0.3604584307084424
 50
296.3727473371682777
 51
325.6052164994923146
  0
ARC
  5
24398
  8
0
 10
3255.4875597721879785
 20
138.7859771645470914
 30
0.0
 40
5.95419925292597
 50
84.8686172114495463
 51
85.8054284184483862
  0
ARC
  5
24399
  8
0
 10
3255.4875370062031834
 20
138.785723645060699
 30
0.0
 40
5.95445379254976
 50
84.5002302435863157
 51
84.8686172114495463
  0
ARC
  5
2439A
  8
0
 10
3256.0563355007639075
 20
144.693170695648007
 30
0.0
 40
0.0196865365482708
 50
47.722483684789708
 51
84.5002302435863157
  0
ARC
  5
2439B
  8
0
 10
3255.3783615864558669
 20
143.9626090954567985
 30
0.0
 40
1.016364457878667
 50
291.9967997292853852
 51
47.1494635306400269
  0
ARC
  5
2439C
  8
0
 10
3255.9045829365009013
 20
144.6360389708540879
 30
0.0
 40
0.0733926160553868
 50
149.9141574663707104
 51
156.4307373541089135
  0
ARC
  5
2439D
  8
0
 10
3255.8569021055568555
 20
144.6610982319733978
 30
0.0
 40
0.0196988297776922
 50
108.5008833315548031
 51
143.445994540621399
  0
ARC
  5
2439E
  8
0
 10
3255.8569118159562095
 20
144.6609612911734928
 30
0.0
 40
0.0198318041718398
 50
86.4850898163525414
 51
108.401945384989105
  0
LINE
  5
2439F
  8
0
 10
3255.8581276698359943
 20
144.6807557892992975
 30
0.0
 11
3255.9086807298272106
 21
144.6773696890703889
 31
0.0
  0
ARC
  5
243A0
  8
0
 10
3255.9072338412620411
 20
144.6579053919120099
 30
0.0
 40
0.0195180006761362
 50
44.3220126377873811
 51
85.7487077329258369
  0
ARC
  5
243A1
  8
0
 10
3255.29890439250903
 20
144.0638050928862128
 30
0.0
 40
0.8698237595190123
 50
305.4178530908945959
 51
44.3220126377873811
  0
ARC
  5
243A2
  8
0
 10
3256.0496300777149372
 20
144.7079172846123072
 30
0.0
 40
0.00986620639268
 50
17.5270061376054613
 51
29.4397306545549604
  0
ARC
  5
243A3
  8
0
 10
3256.0524873181520888
 20
144.708819649915597
 30
0.0
 40
0.0068698609424721
 50
331.5667677698526745
 51
17.5270061376070103
  0
ARC
  5
243A4
  8
0
 10
3256.0479095552159379
 20
144.7112982695819028
 30
0.0
 40
0.0120755759703891
 50
297.6936115045979818
 51
331.5667677698497755
  0
ARC
  5
243A5
  8
0
 10
3256.0070393234459516
 20
144.789165683960988
 30
0.0
 40
0.1000170910073139
 50
278.8658665336848799
 51
297.6936115045979818
  0
ARC
  5
243A6
  8
0
 10
3255.6778586761988663
 20
146.8994938173734965
 30
0.0
 40
2.2358646345351838
 50
277.5027299096652769
 51
278.8658665336848799
  0
ARC
  5
243A7
  8
0
 10
3255.7941320509230536
 20
146.3476012416660978
 30
0.0
 40
1.6740726816232609
 50
274.694764646171393
 51
276.0235016137095272
  0
ARC
  5
243A8
  8
0
 10
3255.6939672334910938
 20
147.5375881480908902
 30
0.0
 40
2.8682662914782111
 50
274.2930797600711799
 51
274.7433330560825198
  0
LINE
  5
243A9
  8
0
 10
3255.2078183758308114
 20
143.6553651374815956
 30
0.0
 11
3255.2078183758308114
 21
132.5523610252730862
 31
0.0
  0
ARC
  5
243AA
  8
0
 10
3254.8249818016811332
 20
132.5514631836823867
 30
0.0
 40
0.3828487528552873
 50
347.0713682854653257
 51
0.1343559971442649
  0
ARC
  5
243AB
  8
0
 10
3254.6840452436022133
 20
132.6237237860518121
 30
0.0
 40
0.5377883228775528
 50
302.7777711071815929
 51
342.9237795241173217
  0
ARC
  5
243AC
  8
0
 10
3253.982210691076034
 20
133.679586449805214
 30
0.0
 40
1.805588067335012
 50
281.9825116382273791
 51
303.363595876318584
  0
ARC
  5
243AD
  8
0
 10
3253.5508139627208948
 20
135.47968330522869
 30
0.0
 40
3.6563449432717618
 50
266.3411162411310897
 51
282.7389875761044209
  0
ARC
  5
243AE
  8
0
 10
3253.4645991607881115
 20
134.853713757558296
 30
0.0
 40
3.0265004290163371
 50
250.8016922063835921
 51
267.2137360137397764
  0
ARC
  5
243AF
  8
0
 10
3252.8363722878771114
 20
133.1082577602394963
 30
0.0
 40
1.171689948876862
 50
225.1752285197999015
 51
251.7462476023681006
  0
ARC
  5
243B0
  8
0
 10
3252.367624672394868
 20
132.5907185977523
 30
0.0
 40
0.4752810696361536
 50
197.6014642004626012
 51
221.2702265505677133
  0
ARC
  5
243B1
  8
0
 10
3252.2664190243108351
 20
132.5460757380946859
 30
0.0
 40
0.3655091888954032
 50
179.8223251763459132
 51
195.728082661965999
  0
LINE
  5
243B2
  8
0
 10
3251.9009115928311076
 20
132.5472091841731128
 30
0.0
 11
3251.8940229302311309
 21
138.567258751773096
 31
0.0
  0
LINE
  5
243B3
  8
0
 10
3251.3428421895318934
 20
138.5666273303731089
 30
0.0
 11
3251.3498759511198841
 21
132.5465810576775141
 31
0.0
  0
ARC
  5
243B4
  8
0
 10
3252.2812926056230936
 20
132.5476693155399062
 30
0.0
 40
0.9314172902572606
 50
180.0669437827440049
 51
206.7492340046715071
  0
ARC
  5
243B5
  8
0
 10
3252.607987499256069
 20
132.7838423883189876
 30
0.0
 40
1.3309820069241109
 50
209.4992346182139045
 51
246.8098705257646088
  0
ARC
  5
243B6
  8
0
 10
3253.4822990238849343
 20
134.8112029774071914
 30
0.0
 40
3.5388318480144019
 50
246.7235961663402861
 51
270.8449815700191721
  0
ARC
  5
243B7
  8
0
 10
3253.6164791243968466
 20
134.7960861234577123
 30
0.0
 40
3.5242840651194052
 50
268.6668957550530195
 51
293.9060203609034829
  0
ARC
  5
243B8
  8
0
 10
3254.4738307363718377
 20
132.8229871443004129
 30
0.0
 40
1.373113972326051
 50
294.5642095189185738
 51
328.0210841947659901
  0
ARC
  5
243B9
  8
0
 10
3254.8302307800481685
 20
132.5532881492943034
 30
0.0
 40
0.9288280853118595
 50
330.4904202318891748
 51
357.2696811549225231
  0
ARC
  5
243BA
  8
0
 10
3256.9375551246698706
 20
132.5036705032115947
 30
0.0
 40
1.1795628942677741
 50
177.6320303239608052
 51
179.7390171920584123
  0
LINE
  5
243BB
  8
0
 10
3255.7589994781310452
 20
132.5524066247731128
 30
0.0
 11
3255.7589929256510004
 21
143.6553654627606988
 31
0.0
  0
ARC
  5
243BC
  8
0
 10
2926.0363141461798477
 20
137.7969569707755966
 30
0.0
 40
330.093174911504093
 50
1.7297420840716049
 51
1.853386412110456
  0
ARC
  5
243BD
  8
0
 10
3255.4812281091731165
 20
149.0277240653404931
 30
0.0
 40
0.5579695972848905
 50
85.0327683446247278
 51
89.7800161967303296
  0
ARC
  5
243BE
  8
0
 10
3255.5023811303130969
 20
149.2711073033472076
 30
0.0
 40
0.3136688587555629
 50
60.5316072883279332
 51
85.0327683446247278
  0
ARC
  5
243BF
  8
0
 10
3255.5366550986341281
 20
149.3608526212426
 30
0.0
 40
0.219141000358516
 50
29.0885868899559803
 51
56.7875665928383029
  0
ARC
  5
243C0
  8
0
 10
3255.3868992739107853
 20
149.2817835873844956
 30
0.0
 40
0.3884660028220531
 50
11.4578826692926601
 51
28.5414547869267992
  0
ARC
  5
243C1
  8
0
 10
3254.5272816927099484
 20
149.1146132703269132
 30
0.0
 40
1.2641791845697969
 50
2.8742769759940958
 51
11.1441518905622807
  0
ARC
  5
243C2
  8
0
 10
3296.6769443473672254
 20
151.0952751216148044
 30
0.0
 40
40.932001324335971
 50
182.6847379314004058
 51
183.9006225935511907
  0
ARC
  5
243C3
  8
0
 10
3270.997013078935197
 20
149.4002611619729066
 30
0.0
 40
15.1963538706826693
 50
184.1110804728243124
 51
185.8794768258809995
  0
ARC
  5
243C4
  8
0
 10
3263.746554823104816
 20
148.6454979613224054
 30
0.0
 40
7.9067251536998571
 50
185.8209021472931113
 51
188.0716798808140027
  0
ARC
  5
243C5
  8
0
 10
3258.8903321142061031
 20
147.8986059734334901
 30
0.0
 40
2.9942941406326362
 50
186.969027658291111
 51
193.3504896914384119
  0
ARC
  5
243C6
  8
0
 10
3259.6957502483219287
 20
148.0776019907339105
 30
0.0
 40
3.8192962297620241
 50
193.1731986429487904
 51
196.1306087110077101
  0
ARC
  5
243C7
  8
0
 10
3255.698670596977081
 20
147.5034965515189924
 30
0.0
 40
0.406924227859369
 50
61.4652120115039793
 51
63.8472161227895327
  0
ARC
  5
243C8
  8
0
 10
3255.7554595584588242
 20
147.6079375351010015
 30
0.0
 40
0.2880423318539629
 50
48.3594583996149368
 51
61.4652120115039793
  0
ARC
  5
243C9
  8
0
 10
3255.8754922444718432
 20
147.7429410758452946
 30
0.0
 40
0.1073940500323425
 50
29.2922979669482295
 51
48.3594583996149368
  0
ARC
  5
243CA
  8
0
 10
3255.8970792255568085
 20
147.7550513092527922
 30
0.0
 40
0.0826421712047061
 50
16.0519792039220484
 51
29.2922979669468084
  0
ARC
  5
243CB
  8
0
 10
3255.913759621454119
 20
147.7597083245564136
 30
0.0
 40
0.0653245585135403
 50
1.0061420651325459
 51
16.1720014122429916
  0
ARC
  5
243CC
  8
0
 10
3255.8614481609120048
 20
147.7625339060982128
 30
0.0
 40
0.1176379226782553
 50
350.0450350646535185
 51
359.1824511170327128
  0
LINE
  5
243CD
  8
0
 10
3255.977314919733999
 20
147.742197361358393
 30
0.0
 11
3255.9765555366229819
 21
147.737977125631204
 31
0.0
  0
ARC
  5
243CE
  8
0
 10
3342.58947592820914
 20
301.3350516856490913
 30
0.0
 40
176.2896872047018917
 50
240.5374539131873917
 51
240.5434099918599884
  0
ARC
  5
243CF
  8
0
 10
3255.7890091917338395
 20
147.6441687769925011
 30
0.0
 40
0.2186936583962444
 50
45.7966813187780488
 51
60.5434099918600026
  0
ARC
  5
243D0
  8
0
 10
3255.8264520426459967
 20
147.6826676436832884
 30
0.0
 40
0.1649895633850539
 50
34.1954063856868515
 51
45.7966813187780488
  0
ARC
  5
243D1
  8
0
 10
3255.8993326146210165
 20
147.7321886879439887
 30
0.0
 40
0.0768765019466289
 50
15.2401705481991598
 51
34.1954063856882016
  0
ARC
  5
243D2
  8
0
 10
3255.900358713838159
 20
147.7293928718922871
 30
0.0
 40
0.0766788446367777
 50
6.4277796838169641
 51
17.4578833820992791
  0
ARC
  5
243D3
  8
0
 10
3255.202938758205164
 20
147.6605211470952952
 30
0.0
 40
0.7774846290833708
 50
3.9350698862631508
 51
5.7175080234917317
  0
ARC
  5
243D4
  8
0
 10
3253.832800647051954
 20
147.5104756986544885
 30
0.0
 40
2.1554085031701451
 50
1.295970401444595
 51
5.4149314862838676
  0
ARC
  5
243D5
  8
0
 10
3304.5197066773939696
 20
151.099489556776291
 30
0.0
 40
48.6610033175170216
 50
184.1721624449135106
 51
184.6740485263763105
  0
ARC
  5
243D6
  8
0
 10
3309.4968956383640943
 20
150.4608205331331874
 30
0.0
 40
53.5769864013955228
 50
180.6792997537542078
 51
182.1264460268158984
  0
ARC
  5
243D7
  8
0
 10
3282.6419742105699697
 20
150.1424132006690115
 30
0.0
 40
26.7201774300679205
 50
178.9884495024182911
 51
180.6792997537542078
  0
ARC
  5
243D8
  8
0
 10
3255.1922429500891667
 20
151.9503208985616993
 30
0.0
 40
0.0232537737848373
 50
60.0148806077764903
 51
194.6435878104080928
  0
ARC
  5
243D9
  8
0
 10
3255.1922490241008745
 20
151.9503314253722124
 30
0.0
 40
0.0232416202930285
 50
329.9686062259730761
 51
60.0148806077764903
  0
ARC
  5
243DA
  8
0
 10
3255.1922269440569835
 20
151.9503441894273976
 30
0.0
 40
0.0232671242030996
 50
240.0480107578817126
 51
329.9686062259717119
  0
ARC
  5
243DB
  8
0
 10
3255.1921885119541002
 20
151.9502774940679046
 30
0.0
 40
0.0231901482485761
 50
194.5738343141163966
 51
240.0480107578817126
  0
ARC
  5
243DC
  8
0
 10
3255.1924005122800736
 20
151.9502376453013142
 30
0.0
 40
0.0443458248614029
 50
48.2190975907199899
 51
146.2411614169782865
  0
ARC
  5
243DD
  8
0
 10
3255.1924137867767968
 20
151.9502525019817938
 30
0.0
 40
0.0443259016780005
 50
350.8008980114087194
 51
48.219097590721077
  0
ARC
  5
243DE
  8
0
 10
3255.1923633992309988
 20
151.9502606621730934
 30
0.0
 40
0.0443769457135515
 50
265.3536403976872862
 51
350.8008980114087194
  0
ARC
  5
243DF
  8
0
 10
3255.1923567649259894
 20
151.9501790317931977
 30
0.0
 40
0.0442950461840395
 50
201.0909952028254963
 51
265.3536403976872862
  0
ARC
  5
243E0
  8
0
 10
3255.1924600822922002
 20
151.9502188799930025
 30
0.0
 40
0.0444057817130783
 50
146.2637435838352928
 51
201.0909952028254963
  0
CIRCLE
  5
244E9
  8
0
 10
3255.1923633992309988
 20
151.9502606621730934
 30
0.0
 40
0.0627262770803052
  0
ARC
  5
244EA
  8
0
 10
3255.339622153289838
 20
151.8624216049960012
 30
0.0
 40
0.0232537737848373
 50
60.0148806077764903
 51
194.6435878104080928
  0
ARC
  5
244EB
  8
0
 10
3255.3396282273020006
 20
151.8624321318064858
 30
0.0
 40
0.0232416202930285
 50
329.9686062259730761
 51
60.0148806077764903
  0
ARC
  5
244EC
  8
0
 10
3255.3396061472581096
 20
151.8624448958616995
 30
0.0
 40
0.0232671242030996
 50
240.0480107578817126
 51
329.9686062259717119
  0
ARC
  5
244ED
  8
0
 10
3255.3395677151552263
 20
151.8623782005022065
 30
0.0
 40
0.0231901482485761
 50
194.5738343141163966
 51
240.0480107578817126
  0
ARC
  5
244EE
  8
0
 10
3255.3397797154811997
 20
151.8623383517355876
 30
0.0
 40
0.0443458248614029
 50
48.2190975907199899
 51
146.2411614169782865
  0
ARC
  5
244EF
  8
0
 10
3255.3397929899788323
 20
151.8623532084160956
 30
0.0
 40
0.0443259016780005
 50
350.8008980114087194
 51
48.219097590721077
  0
ARC
  5
244F0
  8
0
 10
3255.3397426024321248
 20
151.8623613686073952
 30
0.0
 40
0.0443769457135515
 50
265.3536403976872862
 51
350.8008980114087194
  0
ARC
  5
244F1
  8
0
 10
3255.3397359681271155
 20
151.8622797382274996
 30
0.0
 40
0.0442950461840395
 50
201.0909952028254963
 51
265.3536403976613087
  0
ARC
  5
244F2
  8
0
 10
3255.3398392854928716
 20
151.8623195864273043
 30
0.0
 40
0.0444057817130783
 50
146.2637435838352928
 51
201.0909952028254963
  0
CIRCLE
  5
244F3
  8
0
 10
3255.3397426024321248
 20
151.8623613686073952
 30
0.0
 40
0.0627262770803052
  0
ARC
  5
244F4
  8
0
 10
3255.4827732805420055
 20
151.9485887884127067
 30
0.0
 40
0.0232537737848373
 50
60.0148806077764903
 51
194.6435878104080928
  0
ARC
  5
244F5
  8
0
 10
3255.4827793545528039
 20
151.9485993152231913
 30
0.0
 40
0.0232416202930285
 50
329.9686062259730761
 51
60.0148806077764903
  0
ARC
  5
244F6
  8
0
 10
3255.4827572745098223
 20
151.9486120792782913
 30
0.0
 40
0.0232671242030996
 50
240.0480107578817126
 51
329.9686062259717119
  0
ARC
  5
244F7
  8
0
 10
3255.4827188424069391
 20
151.9485453839187983
 30
0.0
 40
0.0231901482485761
 50
194.5738343141163966
 51
240.0480107578817126
  0
ARC
  5
244F8
  8
0
 10
3255.4829308427320029
 20
151.9485055351522078
 30
0.0
 40
0.0443458248614029
 50
48.2190975907199899
 51
146.2411614169782865
  0
ARC
  5
244F9
  8
0
 10
3255.4829441172300903
 20
151.9485203918326874
 30
0.0
 40
0.0443259016780005
 50
350.8008980114087194
 51
48.219097590721077
  0
ARC
  5
244FA
  8
0
 10
3255.4828937296829281
 20
151.948528552023987
 30
0.0
 40
0.0443769457135515
 50
265.3536403976872862
 51
350.8008980114087194
  0
ARC
  5
244FB
  8
0
 10
3255.4828870953779187
 20
151.9484469216440914
 30
0.0
 40
0.0442950461840395
 50
201.0909952028254963
 51
265.3536403976613087
  0
ARC
  5
244FC
  8
0
 10
3255.4829904127450391
 20
151.9484867698438961
 30
0.0
 40
0.0444057817130783
 50
146.2637435838352928
 51
201.0909952028254963
  0
CIRCLE
  5
244FD
  8
0
 10
3255.4828937296829281
 20
151.948528552023987
 30
0.0
 40
0.0627262770803052
  0
ARC
  5
244FE
  8
0
 10
3255.3153900366310154
 20
152.0732612978731026
 30
0.0
 40
0.0232537737848373
 50
60.0148806077764903
 51
194.6435878104080928
  0
ARC
  5
244FF
  8
0
 10
3255.315396110643178
 20
152.0732718246835873
 30
0.0
 40
0.0232416202930285
 50
329.9686062259730761
 51
60.0148806077764903
  0
ARC
  5
24500
  8
0
 10
3255.3153740306001964
 20
152.0732845887386873
 30
0.0
 40
0.0232671242030996
 50
240.0480107578817126
 51
329.9686062259717119
  0
ARC
  5
24501
  8
0
 10
3255.3153355984959489
 20
152.0732178933791943
 30
0.0
 40
0.0231901482485761
 50
194.5738343141163966
 51
240.0480107578817126
  0
ARC
  5
24502
  8
0
 10
3255.3155475988219223
 20
152.0731780446126038
 30
0.0
 40
0.0443458248614029
 50
48.2190975907199899
 51
146.2411614169782865
  0
ARC
  5
24503
  8
0
 10
3255.3155608733200097
 20
152.0731929012931118
 30
0.0
 40
0.0443259016780005
 50
350.8008980114087194
 51
48.219097590721077
  0
ARC
  5
24504
  8
0
 10
3255.3155104857728475
 20
152.0732010614844114
 30
0.0
 40
0.0443769457135515
 50
265.3536403976872862
 51
350.8008980114087194
  0
ARC
  5
24505
  8
0
 10
3255.3155038514678381
 20
152.0731194311044874
 30
0.0
 40
0.0442950461840395
 50
201.0909952028254963
 51
265.3536403976613087
  0
ARC
  5
24506
  8
0
 10
3255.3156071688349584
 20
152.0731592793042921
 30
0.0
 40
0.0444057817130783
 50
146.2637435838352928
 51
201.0909952028254963
  0
CIRCLE
  5
24507
  8
0
 10
3255.3155104857728475
 20
152.0732010614844114
 30
0.0
 40
0.0627262770803052
  0
ARC
  5
24508
  8
0
 10
3255.4827848013301264
 20
152.1191866889244011
 30
0.0
 40
0.0232537737848373
 50
60.0148806077764903
 51
194.6435878104080928
  0
ARC
  5
24509
  8
0
 10
3255.4827908753431984
 20
152.1191972157349142
 30
0.0
 40
0.0232416202930285
 50
329.9686062259730761
 51
60.0148806077764903
  0
ARC
  5
2450A
  8
0
 10
3255.4827687952988526
 20
152.1192099797900994
 30
0.0
 40
0.0232671242030996
 50
240.0480107578817126
 51
329.9686062259717119
  0
ARC
  5
2450B
  8
0
 10
3255.4827303631950599
 20
152.1191432844306064
 30
0.0
 40
0.0231901482485761
 50
194.5738343141163966
 51
240.0480107578817126
  0
ARC
  5
2450C
  8
0
 10
3255.4829423635210333
 20
152.1191034356639875
 30
0.0
 40
0.0443458248614029
 50
48.2190975907199899
 51
146.2411614169782865
  0
ARC
  5
2450D
  8
0
 10
3255.4829556380191207
 20
152.1191182923444956
 30
0.0
 40
0.0443259016780005
 50
350.8008980114087194
 51
48.219097590721077
  0
ARC
  5
2450E
  8
0
 10
3255.4829052504728679
 20
152.1191264525357951
 30
0.0
 40
0.0443769457135515
 50
265.3536403976872862
 51
350.8008980114087194
  0
ARC
  5
2450F
  8
0
 10
3255.4828986161669491
 20
152.1190448221558995
 30
0.0
 40
0.0442950461840395
 50
201.0909952028254963
 51
265.3536403976613087
  0
ARC
  5
24510
  8
0
 10
3255.4830019335340694
 20
152.1190846703557042
 30
0.0
 40
0.0444057817130783
 50
146.2637435838352928
 51
201.0909952028254963
  0
CIRCLE
  5
24511
  8
0
 10
3255.4829052504728679
 20
152.1191264525357951
 30
0.0
 40
0.0627262770803052
  0
ARC
  5
24512
  8
0
 10
3255.6510884038971199
 20
152.074607897021707
 30
0.0
 40
0.0232537737848373
 50
60.0148806077764903
 51
194.6435878104080928
  0
ARC
  5
24513
  8
0
 10
3255.6510944779088277
 20
152.0746184238321916
 30
0.0
 40
0.0232416202930285
 50
329.9686062259730761
 51
60.0148806077764903
  0
ARC
  5
24514
  8
0
 10
3255.6510723978658461
 20
152.0746311878874053
 30
0.0
 40
0.0232671242030996
 50
240.0480107578817126
 51
329.9686062259717119
  0
ARC
  5
24515
  8
0
 10
3255.6510339657620534
 20
152.0745644925279123
 30
0.0
 40
0.0231901482485761
 50
194.5738343141163966
 51
240.0480107578817126
  0
ARC
  5
24516
  8
0
 10
3255.6512459660880268
 20
152.0745246437612934
 30
0.0
 40
0.0443458248614029
 50
48.2190975907199899
 51
146.2411614169782865
  0
ARC
  5
24517
  8
0
 10
3255.6512592405852047
 20
152.0745395004418015
 30
0.0
 40
0.0443259016780005
 50
350.8008980114087194
 51
48.219097590721077
  0
ARC
  5
24518
  8
0
 10
3255.6512088530389519
 20
152.074547660633101
 30
0.0
 40
0.0443769457135515
 50
265.3536403976872862
 51
350.8008980114087194
  0
ARC
  5
24519
  8
0
 10
3255.6512022187339426
 20
152.0744660302532054
 30
0.0
 40
0.0442950461840395
 50
201.0909952028254963
 51
265.3536403976613087
  0
ARC
  5
2451A
  8
0
 10
3255.6513055361001534
 20
152.0745058784530102
 30
0.0
 40
0.0444057817130783
 50
146.2637435838352928
 51
201.0909952028254963
  0
CIRCLE
  5
2451B
  8
0
 10
3255.6512088530389519
 20
152.074547660633101
 30
0.0
 40
0.0627262770803052
  0
ARC
  5
2451C
  8
0
 10
3255.7753930341627893
 20
151.9479005768488946
 30
0.0
 40
0.0232537737848373
 50
60.0148806077764903
 51
194.6435878104080928
  0
ARC
  5
2451D
  8
0
 10
3255.7753991081758613
 20
151.9479111036594077
 30
0.0
 40
0.0232416202930285
 50
329.9686062259730761
 51
60.0148806077764903
  0
ARC
  5
2451E
  8
0
 10
3255.7753770281319703
 20
151.9479238677145077
 30
0.0
 40
0.0232671242030996
 50
240.0480107578817126
 51
329.9686062259717119
  0
ARC
  5
2451F
  8
0
 10
3255.7753385960268133
 20
151.9478571723549862
 30
0.0
 40
0.0231901482485761
 50
194.5738343141163966
 51
240.0480107578817126
  0
ARC
  5
24520
  8
0
 10
3255.7755505963541509
 20
151.9478173235885095
 30
0.0
 40
0.0443458248614029
 50
48.2190975907199899
 51
146.2411614169782865
  0
ARC
  5
24521
  8
0
 10
3255.7755638708517836
 20
151.9478321802689038
 30
0.0
 40
0.0443259016780005
 50
350.8008980114087194
 51
48.219097590721077
  0
ARC
  5
24522
  8
0
 10
3255.7755134833050761
 20
151.9478403404602034
 30
0.0
 40
0.0443769457135515
 50
265.3536403976872862
 51
350.8008980114087194
  0
ARC
  5
24523
  8
0
 10
3255.7755068489991572
 20
151.9477587100803078
 30
0.0
 40
0.0442950461840395
 50
201.0909952028254963
 51
265.3536403976613087
  0
ARC
  5
24524
  8
0
 10
3255.775610166367187
 20
151.9477985582801978
 30
0.0
 40
0.0444057817130783
 50
146.2637435838352928
 51
201.0909952028254963
  0
CIRCLE
  5
24525
  8
0
 10
3255.7755134833050761
 20
151.9478403404602034
 30
0.0
 40
0.0627262770803052
  0
ARC
  5
24526
  8
0
 10
3255.6271908111461926
 20
151.8624318532471875
 30
0.0
 40
0.0232537737848373
 50
60.0148806077764903
 51
194.6435878104080928
  0
ARC
  5
24527
  8
0
 10
3255.6271968851579004
 20
151.8624423800577006
 30
0.0
 40
0.0232416202930285
 50
329.9686062259730761
 51
60.0148806077764903
  0
ARC
  5
24528
  8
0
 10
3255.6271748051149189
 20
151.8624551441128858
 30
0.0
 40
0.0232671242030996
 50
240.0480107578817126
 51
329.9686062259717119
  0
ARC
  5
24529
  8
0
 10
3255.6271363730111261
 20
151.8623884487533928
 30
0.0
 40
0.0231901482485761
 50
194.5738343141163966
 51
240.0480107578817126
  0
ARC
  5
2452A
  8
0
 10
3255.6273483733370995
 20
151.8623485999868024
 30
0.0
 40
0.0443458248614029
 50
48.2190975907199899
 51
146.2411614169782865
  0
ARC
  5
2452B
  8
0
 10
3255.6273616478351869
 20
151.8623634566673104
 30
0.0
 40
0.0443259016780005
 50
350.8008980114087194
 51
48.219097590721077
  0
ARC
  5
2452C
  8
0
 10
3255.6273112602880246
 20
151.86237161685861
 30
0.0
 40
0.0443769457135515
 50
265.3536403976872862
 51
350.8008980114087194
  0
ARC
  5
2452D
  8
0
 10
3255.6273046259821058
 20
151.8622899864786859
 30
0.0
 40
0.0442950461840395
 50
201.0909952028254963
 51
265.3536403976613087
  0
ARC
  5
2452E
  8
0
 10
3255.6274079433501356
 20
151.8623298346784907
 30
0.0
 40
0.0444057817130783
 50
146.2637435838352928
 51
201.0909952028254963
  0
CIRCLE
  5
2452F
  8
0
 10
3255.6273112602880246
 20
151.86237161685861
 30
0.0
 40
0.0627262770803052
  0
ARC
  5
24530
  8
0
 10
3255.4834051020320658
 20
151.7821958738730928
 30
0.0
 40
0.0232537737848373
 50
60.0148806077764903
 51
194.6435878104080928
  0
ARC
  5
24531
  8
0
 10
3255.4834111760428641
 20
151.7822064006836058
 30
0.0
 40
0.0232416202930285
 50
329.9686062259730761
 51
60.0148806077764903
  0
ARC
  5
24532
  8
0
 10
3255.4833890959998826
 20
151.7822191647387058
 30
0.0
 40
0.0232671242030996
 50
240.0480107578817126
 51
329.9686062259717119
  0
ARC
  5
24533
  8
0
 10
3255.4833506638960898
 20
151.7821524693792128
 30
0.0
 40
0.0231901482485761
 50
194.5738343141163966
 51
240.0480107578817126
  0
ARC
  5
24534
  8
0
 10
3255.4835626642229727
 20
151.7821126206125939
 30
0.0
 40
0.0443458248614029
 50
48.2190975907199899
 51
146.2411614169782865
  0
ARC
  5
24535
  8
0
 10
3255.4835759387201506
 20
151.7821274772931019
 30
0.0
 40
0.0443259016780005
 50
350.8008980114087194
 51
48.219097590721077
  0
ARC
  5
24536
  8
0
 10
3255.4835255511738978
 20
151.7821356374844015
 30
0.0
 40
0.0443769457135515
 50
265.3536403976872862
 51
350.8008980114087194
  0
ARC
  5
24537
  8
0
 10
3255.4835189168670695
 20
151.7820540071045059
 30
0.0
 40
0.0442950461840395
 50
201.0909952028254963
 51
265.3536403976613087
  0
ARC
  5
24538
  8
0
 10
3255.4836222342350993
 20
151.7820938553043106
 30
0.0
 40
0.0444057817130783
 50
146.2637435838352928
 51
201.0909952028254963
  0
CIRCLE
  5
24539
  8
0
 10
3255.4835255511738978
 20
151.7821356374844015
 30
0.0
 40
0.0627262770803052
  0
ARC
  5
2453A
  8
0
 10
3255.6274049024541455
 20
151.698578912682791
 30
0.0
 40
0.0232537737848373
 50
60.0148806077764903
 51
194.6435878104080928
  0
ARC
  5
2453B
  8
0
 10
3255.6274109764658533
 20
151.6985894394933041
 30
0.0
 40
0.0232416202930285
 50
329.9686062259730761
 51
60.0148806077764903
  0
ARC
  5
2453C
  8
0
 10
3255.6273888964228718
 20
151.6986022035484893
 30
0.0
 40
0.0232671242030996
 50
240.0480107578817126
 51
329.9686062259717119
  0
ARC
  5
2453D
  8
0
 10
3255.627350464319079
 20
151.6985355081889963
 30
0.0
 40
0.0231901482485761
 50
194.5738343141163966
 51
240.0480107578817126
  0
ARC
  5
2453E
  8
0
 10
3255.6275624646459619
 20
151.6984956594224059
 30
0.0
 40
0.0443458248614029
 50
48.2190975907199899
 51
146.2411614169782865
  0
ARC
  5
2453F
  8
0
 10
3255.6275757391431398
 20
151.6985105161029139
 30
0.0
 40
0.0443259016780005
 50
350.8008980114087194
 51
48.219097590721077
  0
ARC
  5
24540
  8
0
 10
3255.6275253515959776
 20
151.6985186762942135
 30
0.0
 40
0.0443769457135515
 50
265.3536403976872862
 51
350.8008980114087194
  0
ARC
  5
24541
  8
0
 10
3255.6275187172900587
 20
151.6984370459142895
 30
0.0
 40
0.0442950461840395
 50
201.0909952028254963
 51
265.3536403976613087
  0
ARC
  5
24542
  8
0
 10
3255.6276220346580885
 20
151.6984768941140942
 30
0.0
 40
0.0444057817130783
 50
146.2637435838352928
 51
201.0909952028254963
  0
CIRCLE
  5
24543
  8
0
 10
3255.6275253515959776
 20
151.6985186762942135
 30
0.0
 40
0.0627262770803052
  0
ARC
  5
24544
  8
0
 10
3255.8197019876861305
 20
151.7826065133918121
 30
0.0
 40
0.0232537737848373
 50
60.0148806077764903
 51
194.6435878104080928
  0
ARC
  5
24545
  8
0
 10
3255.8197080616978383
 20
151.7826170402022967
 30
0.0
 40
0.0232416202930285
 50
329.9686062259730761
 51
60.0148806077764903
  0
ARC
  5
24546
  8
0
 10
3255.8196859816548567
 20
151.7826298042573967
 30
0.0
 40
0.0232671242030996
 50
240.0480107578817126
 51
329.9686062259717119
  0
ARC
  5
24547
  8
0
 10
3255.819647549551064
 20
151.7825631088979037
 30
0.0
 40
0.0231901482485761
 50
194.5738343141163966
 51
240.0480107578817126
  0
ARC
  5
24548
  8
0
 10
3255.8198595498770374
 20
151.7825232601313132
 30
0.0
 40
0.0443458248614029
 50
48.2190975907199899
 51
146.2411614169782865
  0
ARC
  5
24549
  8
0
 10
3255.8198728243751248
 20
151.7825381168117929
 30
0.0
 40
0.0443259016780005
 50
350.8008980114087194
 51
48.219097590721077
  0
ARC
  5
2454A
  8
0
 10
3255.819822436828872
 20
151.7825462770030924
 30
0.0
 40
0.0443769457135515
 50
265.3536403976872862
 51
350.8008980114087194
  0
ARC
  5
2454B
  8
0
 10
3255.8198158025220437
 20
151.7824646466231968
 30
0.0
 40
0.0442950461840395
 50
201.0909952028254963
 51
265.3536403976613087
  0
ARC
  5
2454C
  8
0
 10
3255.8199191198900735
 20
151.7825044948230016
 30
0.0
 40
0.0444057817130783
 50
146.2637435838352928
 51
201.0909952028254963
  0
CIRCLE
  5
2454D
  8
0
 10
3255.819822436828872
 20
151.7825462770030924
 30
0.0
 40
0.0627262770803052
  0
ARC
  5
2454E
  8
0
 10
3255.7744069266509541
 20
151.6134778759243034
 30
0.0
 40
0.0232537737848373
 50
60.0148806077764903
 51
194.6435878104080928
  0
ARC
  5
2454F
  8
0
 10
3255.7744130006640262
 20
151.613488402734788
 30
0.0
 40
0.0232416202930285
 50
329.9686062259730761
 51
60.0148806077764903
  0
ARC
  5
24550
  8
0
 10
3255.7743909206201351
 20
151.613501166789888
 30
0.0
 40
0.0232671242030996
 50
240.0480107578817126
 51
329.9686062259717119
  0
ARC
  5
24551
  8
0
 10
3255.7743524885158877
 20
151.613434471430395
 30
0.0
 40
0.0231901482485761
 50
194.5738343141163966
 51
240.0480107578817126
  0
ARC
  5
24552
  8
0
 10
3255.774564488841861
 20
151.6133946226638898
 30
0.0
 40
0.0443458248614029
 50
48.2190975907199899
 51
146.2411614169782865
  0
ARC
  5
24553
  8
0
 10
3255.7745777633399484
 20
151.6134094793443126
 30
0.0
 40
0.0443259016780005
 50
350.8008980114087194
 51
48.219097590721077
  0
ARC
  5
24554
  8
0
 10
3255.7745273757927862
 20
151.6134176395356121
 30
0.0
 40
0.0443769457135515
 50
265.3536403976872862
 51
350.8008980114087194
  0
ARC
  5
24555
  8
0
 10
3255.7745207414877768
 20
151.6133360091558018
 30
0.0
 40
0.0442950461840395
 50
201.0909952028254963
 51
265.3536403976613087
  0
ARC
  5
24556
  8
0
 10
3255.7746240588539877
 20
151.6133758573556065
 30
0.0
 40
0.0444057817130783
 50
146.2637435838352928
 51
201.0909952028254963
  0
CIRCLE
  5
24557
  8
0
 10
3255.7745273757927862
 20
151.6134176395356121
 30
0.0
 40
0.0627262770803052
  0
ARC
  5
24558
  8
0
 10
3255.6490744260140673
 20
151.4904613162453018
 30
0.0
 40
0.0232537737848373
 50
60.0148806077764903
 51
194.6435878104080928
  0
ARC
  5
24559
  8
0
 10
3255.6490805000271394
 20
151.4904718430557864
 30
0.0
 40
0.0232416202930285
 50
329.9686062259730761
 51
60.0148806077764903
  0
ARC
  5
2455A
  8
0
 10
3255.6490584199818841
 20
151.4904846071108864
 30
0.0
 40
0.0232671242030996
 50
240.0480107578817126
 51
329.9686062259717119
  0
ARC
  5
2455B
  8
0
 10
3255.6490199878790008
 20
151.4904179117513934
 30
0.0
 40
0.0231901482485761
 50
194.5738343141163966
 51
240.0480107578817126
  0
ARC
  5
2455C
  8
0
 10
3255.6492319882049742
 20
151.4903780629848029
 30
0.0
 40
0.0443458248614029
 50
48.2190975907199899
 51
146.2411614169782865
  0
ARC
  5
2455D
  8
0
 10
3255.6492452627030616
 20
151.490392919665311
 30
0.0
 40
0.0443259016780005
 50
350.8008980114087194
 51
48.219097590721077
  0
ARC
  5
2455E
  8
0
 10
3255.6491948751558994
 20
151.4904010798566105
 30
0.0
 40
0.0443769457135515
 50
265.3536403976872862
 51
350.8008980114087194
  0
ARC
  5
2455F
  8
0
 10
3255.64918824085089
 20
151.4903194494766865
 30
0.0
 40
0.0442950461840395
 50
201.0909952028254963
 51
265.3536403976613087
  0
ARC
  5
24560
  8
0
 10
3255.6492915582180103
 20
151.4903592976764912
 30
0.0
 40
0.0444057817130783
 50
146.2637435838352928
 51
201.0909952028254963
  0
CIRCLE
  5
24561
  8
0
 10
3255.6491948751558994
 20
151.4904010798566105
 30
0.0
 40
0.0627262770803052
  0
ARC
  5
24562
  8
0
 10
3255.4828175635730076
 20
151.4458599600289972
 30
0.0
 40
0.0232537737848373
 50
60.0148806077764903
 51
194.6435878104080928
  0
ARC
  5
24563
  8
0
 10
3255.4828236375851702
 20
151.4458704868395102
 30
0.0
 40
0.0232416202930285
 50
329.9686062259730761
 51
60.0148806077764903
  0
ARC
  5
24564
  8
0
 10
3255.4828015575421887
 20
151.4458832508946102
 30
0.0
 40
0.0232671242030996
 50
240.0480107578817126
 51
329.9686062259717119
  0
ARC
  5
24565
  8
0
 10
3255.4827631254388507
 20
151.4458165555350888
 30
0.0
 40
0.0231901482485761
 50
194.5738343141163966
 51
240.0480107578817126
  0
ARC
  5
24566
  8
0
 10
3255.4829751257639145
 20
151.445776706768612
 30
0.0
 40
0.0443458248614029
 50
48.2190975907199899
 51
146.2411614169782865
  0
ARC
  5
24567
  8
0
 10
3255.482988400262002
 20
151.4457915634490064
 30
0.0
 40
0.0443259016780005
 50
350.8008980114087194
 51
48.219097590721077
  0
ARC
  5
24568
  8
0
 10
3255.4829380127148397
 20
151.445799723640306
 30
0.0
 40
0.0443769457135515
 50
265.3536403976872862
 51
350.8008980114087194
  0
ARC
  5
24569
  8
0
 10
3255.4829313784098304
 20
151.4457180932604103
 30
0.0
 40
0.0442950461840395
 50
201.0909952028254963
 51
265.3536403976613087
  0
ARC
  5
2456A
  8
0
 10
3255.4830346957769507
 20
151.4457579414601867
 30
0.0
 40
0.0444057817130783
 50
146.2637435838352928
 51
201.0909952028254963
  0
CIRCLE
  5
2456B
  8
0
 10
3255.4829380127148397
 20
151.445799723640306
 30
0.0
 40
0.0627262770803052
  0
ARC
  5
2456C
  8
0
 10
3255.4829820948380075
 20
151.6139827184578905
 30
0.0
 40
0.0232537737848373
 50
60.0148806077764903
 51
194.6435878104080928
  0
ARC
  5
2456D
  8
0
 10
3255.48298816885017
 20
151.6139932452684036
 30
0.0
 40
0.0232416202930285
 50
329.9686062259730761
 51
60.0148806077764903
  0
ARC
  5
2456E
  8
0
 10
3255.4829660888058243
 20
151.6140060093235888
 30
0.0
 40
0.0232671242030996
 50
240.0480107578817126
 51
329.9686062259717119
  0
ARC
  5
2456F
  8
0
 10
3255.482927656702941
 20
151.6139393139640958
 30
0.0
 40
0.0231901482485761
 50
194.5738343141163966
 51
240.0480107578817126
  0
ARC
  5
24570
  8
0
 10
3255.4831396570289144
 20
151.6138994651975054
 30
0.0
 40
0.0443458248614029
 50
48.2190975907199899
 51
146.2411614169782865
  0
ARC
  5
24571
  8
0
 10
3255.4831529315260923
 20
151.6139143218780134
 30
0.0
 40
0.0443259016780005
 50
350.8008980114087194
 51
48.219097590721077
  0
ARC
  5
24572
  8
0
 10
3255.4831025439798395
 20
151.613922482069313
 30
0.0
 40
0.0443769457135515
 50
265.3536403976872862
 51
350.8008980114087194
  0
ARC
  5
24573
  8
0
 10
3255.4830959096739207
 20
151.613840851689389
 30
0.0
 40
0.0442950461840395
 50
201.0909952028254963
 51
265.3536403976613087
  0
ARC
  5
24574
  8
0
 10
3255.483199227041041
 20
151.6138806998891937
 30
0.0
 40
0.0444057817130783
 50
146.2637435838352928
 51
201.0909952028254963
  0
CIRCLE
  5
24575
  8
0
 10
3255.4831025439798395
 20
151.613922482069313
 30
0.0
 40
0.0627262770803052
  0
ARC
  5
24576
  8
0
 10
3255.3138673567377737
 20
151.4906180430737948
 30
0.0
 40
0.0232537737848373
 50
60.0148806077764903
 51
194.6435878104080928
  0
ARC
  5
24577
  8
0
 10
3255.3138734307499362
 20
151.4906285698843931
 30
0.0
 40
0.0232416202930285
 50
329.9686062259730761
 51
60.0148806077764903
  0
ARC
  5
24578
  8
0
 10
3255.3138513507060452
 20
151.4906413339394931
 30
0.0
 40
0.0232671242030996
 50
240.0480107578817126
 51
329.9686062259717119
  0
ARC
  5
24579
  8
0
 10
3255.313812918603162
 20
151.4905746385800001
 30
0.0
 40
0.0231901482485761
 50
194.5738343141163966
 51
240.0480107578817126
  0
ARC
  5
2457A
  8
0
 10
3255.3140249189291353
 20
151.4905347898134096
 30
0.0
 40
0.0443458248614029
 50
48.2190975907199899
 51
146.2411614169782865
  0
ARC
  5
2457B
  8
0
 10
3255.3140381934258585
 20
151.4905496464938892
 30
0.0
 40
0.0443259016780005
 50
350.8008980114087194
 51
48.219097590721077
  0
ARC
  5
2457C
  8
0
 10
3255.3139878058800605
 20
151.4905578066851888
 30
0.0
 40
0.0443769457135515
 50
265.3536403976872862
 51
350.8008980114087194
  0
ARC
  5
2457D
  8
0
 10
3255.3139811715750511
 20
151.4904761763052932
 30
0.0
 40
0.0442950461840395
 50
201.0909952028254963
 51
265.3536403976613087
  0
ARC
  5
2457E
  8
0
 10
3255.3140844889408072
 20
151.4905160245050979
 30
0.0
 40
0.0444057817130783
 50
146.2637435838352928
 51
201.0909952028254963
  0
CIRCLE
  5
2457F
  8
0
 10
3255.3139878058800605
 20
151.4905578066851888
 30
0.0
 40
0.0627262770803052
  0
ARC
  5
24580
  8
0
 10
3255.3390107581308257
 20
151.6989460585319023
 30
0.0
 40
0.0232537737848373
 50
60.0148806077764903
 51
194.6435878104080928
  0
ARC
  5
24581
  8
0
 10
3255.3390168321420788
 20
151.6989565853423869
 30
0.0
 40
0.0232416202930285
 50
329.9686062259730761
 51
60.0148806077764903
  0
ARC
  5
24582
  8
0
 10
3255.3389947520981877
 20
151.6989693493976006
 30
0.0
 40
0.0232671242030996
 50
240.0480107578817126
 51
329.9686062259717119
  0
ARC
  5
24583
  8
0
 10
3255.3389563199948498
 20
151.6989026540381076
 30
0.0
 40
0.0231901482485761
 50
194.5738343141163966
 51
240.0480107578817126
  0
ARC
  5
24584
  8
0
 10
3255.3391683203221874
 20
151.6988628052714887
 30
0.0
 40
0.0443458248614029
 50
48.2190975907199899
 51
146.2411614169782865
  0
ARC
  5
24585
  8
0
 10
3255.3391815948189105
 20
151.6988776619519967
 30
0.0
 40
0.0443259016780005
 50
350.8008980114087194
 51
48.219097590721077
  0
ARC
  5
24586
  8
0
 10
3255.339131207272203
 20
151.6988858221432963
 30
0.0
 40
0.0443769457135515
 50
265.3536403976872862
 51
350.8008980114087194
  0
ARC
  5
24587
  8
0
 10
3255.3391245729658294
 20
151.6988041917634007
 30
0.0
 40
0.0442950461840395
 50
201.0909952028254963
 51
265.3536403976613087
  0
ARC
  5
24588
  8
0
 10
3255.3392278903329498
 20
151.6988440399632054
 30
0.0
 40
0.0444057817130783
 50
146.2637435838352928
 51
201.0909952028254963
  0
CIRCLE
  5
24589
  8
0
 10
3255.339131207272203
 20
151.6988858221432963
 30
0.0
 40
0.0627262770803052
  0
ARC
  5
2458A
  8
0
 10
3255.1923383083308181
 20
151.6141800221730875
 30
0.0
 40
0.0232537737848373
 50
60.0148806077764903
 51
194.6435878104080928
  0
ARC
  5
2458B
  8
0
 10
3255.1923443823438902
 20
151.6141905489836006
 30
0.0
 40
0.0232416202930285
 50
329.9686062259730761
 51
60.0148806077764903
  0
ARC
  5
2458C
  8
0
 10
3255.1923223022999991
 20
151.6142033130387006
 30
0.0
 40
0.0232671242030996
 50
240.0480107578817126
 51
329.9686062259717119
  0
ARC
  5
2458D
  8
0
 10
3255.1922838701962064
 20
151.6141366176792076
 30
0.0
 40
0.0231901482485761
 50
194.5738343141163966
 51
240.0480107578817126
  0
ARC
  5
2458E
  8
0
 10
3255.1924958705221798
 20
151.6140967689127024
 30
0.0
 40
0.0443458248614029
 50
48.2190975907199899
 51
146.2411614169782865
  0
ARC
  5
2458F
  8
0
 10
3255.1925091450198124
 20
151.6141116255930967
 30
0.0
 40
0.0443259016780005
 50
350.8008980114087194
 51
48.219097590721077
  0
ARC
  5
24590
  8
0
 10
3255.1924587574731049
 20
151.6141197857843963
 30
0.0
 40
0.0443769457135515
 50
265.3536403976872862
 51
350.8008980114087194
  0
ARC
  5
24591
  8
0
 10
3255.1924521231671861
 20
151.6140381554045007
 30
0.0
 40
0.0442950461840395
 50
201.0909952028254963
 51
265.3536403976613087
  0
ARC
  5
24592
  8
0
 10
3255.1925554405338517
 20
151.6140780036043054
 30
0.0
 40
0.0444057817130783
 50
146.2637435838352928
 51
201.0909952028254963
  0
CIRCLE
  5
24593
  8
0
 10
3255.1924587574731049
 20
151.6141197857843963
 30
0.0
 40
0.0627262770803052
  0
ARC
  5
24594
  8
0
 10
3255.1464890175179789
 20
151.7837227672652887
 30
0.0
 40
0.0232537737848373
 50
60.0148806077764903
 51
194.6435878104080928
  0
ARC
  5
24595
  8
0
 10
3255.1464950915301415
 20
151.7837332940758017
 30
0.0
 40
0.0232416202930285
 50
329.9686062259730761
 51
60.0148806077764903
  0
ARC
  5
24596
  8
0
 10
3255.1464730114857957
 20
151.783746058130987
 30
0.0
 40
0.0232671242030996
 50
240.0480107578817126
 51
329.9686062259717119
  0
ARC
  5
24597
  8
0
 10
3255.1464345793829125
 20
151.783679362771494
 30
0.0
 40
0.0231901482485761
 50
194.5738343141163966
 51
240.0480107578817126
  0
ARC
  5
24598
  8
0
 10
3255.1466465797088858
 20
151.7836395140049035
 30
0.0
 40
0.0443458248614029
 50
48.2190975907199899
 51
146.2411614169782865
  0
ARC
  5
24599
  8
0
 10
3255.1466598542069733
 20
151.7836543706854115
 30
0.0
 40
0.0443259016780005
 50
350.8008980114087194
 51
48.219097590721077
  0
ARC
  5
2459A
  8
0
 10
3255.146609466659811
 20
151.7836625308767111
 30
0.0
 40
0.0443769457135515
 50
265.3536403976872862
 51
350.8008980114087194
  0
ARC
  5
2459B
  8
0
 10
3255.1466028323538922
 20
151.7835809004967871
 30
0.0
 40
0.0442950461840395
 50
201.0909952028254963
 51
265.3536403976613087
  0
ARC
  5
2459C
  8
0
 10
3255.146706149721922
 20
151.7836207486965918
 30
0.0
 40
0.0444057817130783
 50
146.2637435838352928
 51
201.0909952028254963
  0
CIRCLE
  5
2459D
  8
0
 10
3255.146609466659811
 20
151.7836625308767111
 30
0.0
 40
0.0627262770803052
  0
LINE
  5
245A0
  8
0
 10
3251.9739344472318407
 20
138.5673502967730997
 30
0.0
 11
3251.2629369910309833
 21
138.5665357925730916
 31
0.0
  0
ARC
  5
245A1
  8
0
 10
3251.262891889563889
 20
138.6059057896802926
 30
0.0
 40
0.0393700229408784
 50
182.9655596066413921
 51
270.0656368489621855
  0
LINE
  5
245A2
  8
0
 10
3251.2235745904308715
 20
138.6038689550730965
 30
0.0
 11
3251.1639700107371027
 21
139.7268463013735982
 31
0.0
  0
ARC
  5
245A3
  8
0
 10
3251.183628631351894
 20
139.7278647171773116
 30
0.0
 40
0.0196849824794074
 50
90.0707332395556932
 51
182.9655596066398004
  0
LINE
  5
245A4
  8
0
 10
3251.1836043296971184
 20
139.7475496846562066
 30
0.0
 11
3252.0491322993120775
 21
139.748539579069103
 31
0.0
  0
ARC
  5
245A5
  8
0
 10
3252.0491550530250606
 20
139.7288540700068893
 30
0.0
 40
0.0196855222123389
 50
0.0014067876894054
 51
90.066225926774294
  0
LINE
  5
245A6
  8
0
 10
3252.0688405752312065
 20
139.7288545533469915
 30
0.0
 11
3252.0132118576011635
 21
138.6047735479965013
 31
0.0
  0
ARC
  5
245A7
  8
0
 10
3251.9738899407770987
 20
138.6067203514552091
 30
0.0
 40
0.0393700798386599
 50
270.064770825573305
 51
357.1656361955259058
  0
LINE
  5
245A8
  8
0
 10
3251.468874179075101
 20
138.763622232965389
 30
0.0
 11
3251.768451588132848
 21
138.7639661253851102
 31
0.0
  0
LINE
  5
245A9
  8
0
 10
3251.768451588132848
 20
138.7639661253851102
 30
0.0
 11
3251.7453210650191977
 21
138.6044666571511925
 31
0.0
  0
ARC
  5
245AA
  8
0
 10
3251.7281859527661254
 20
138.6078195749880138
 30
0.0
 40
0.017460072448503
 50
314.6056894081540918
 51
348.9285225197514819
  0
ARC
  5
245AB
  8
0
 10
3251.6981213031672269
 20
138.6427510934566953
 30
0.0
 40
0.0635188185366277
 50
281.4665659184148012
 51
311.7856898894515894
  0
ARC
  5
245AC
  8
0
 10
3251.6430253917460504
 20
138.8574903994201009
 30
0.0
 40
0.2851492298056864
 50
272.3728110993365021
 51
283.7390892648751901
  0
ARC
  5
245AD
  8
0
 10
3251.6193935581591177
 20
139.1946901563377992
 30
0.0
 40
0.6231130053856112
 50
270.4360103662652932
 51
273.2602630643734756
  0
ARC
  5
245AE
  8
0
 10
3251.6180717297561387
 20
139.2770389351757103
 30
0.0
 40
0.7054698011070523
 50
269.8635872202810901
 51
270.4924669680675038
  0
ARC
  5
245AF
  8
0
 10
3251.6176746250071119
 20
139.2298043095181015
 30
0.0
 40
0.6582344254218478
 50
267.7276120009992155
 51
269.8883640491146139
  0
ARC
  5
245B0
  8
0
 10
3251.60065015919281
 20
138.9119217109418969
 30
0.0
 40
0.3399553447017067
 50
258.7123411901511076
 51
268.4703766394392801
  0
ARC
  5
245B1
  8
0
 10
3251.5518044428440589
 20
138.6719015932216905
 30
0.0
 40
0.0950216210618321
 50
239.0026536936885009
 51
259.2674300113292816
  0
ARC
  5
245B2
  8
0
 10
3251.5183676967058091
 20
138.6146837247991925
 30
0.0
 40
0.0287663782205622
 50
215.1748410878705045
 51
237.3982267220019082
  0
ARC
  5
245B3
  8
0
 10
3251.5068017740841242
 20
138.606532467451899
 30
0.0
 40
0.0146166940394616
 50
189.2424727522611079
 51
215.1748410878718971
  0
LINE
  5
245B4
  8
0
 10
3251.4923748416308626
 20
138.6041848378731061
 30
0.0
 11
3251.468874179075101
 21
138.763622232965389
 31
0.0
  0
ATTDEF
  5
245BD
  8
DEFPOINTS
 10
3255.4841928947771521
 20
143.8477404553219969
 30
0.0
 40
0.001
  1
K-77364IN
  3

  2
MODELNUMBER
 70
     0
1001
ACDBATTR
1070
     0
1070
     1
  0
ATTDEF
  5
245BE
  8
DEFPOINTS
 10
3255.4841928947771521
 20
143.8460737886553034
 30
0.0
 40
0.001
  1
LUXE
  3

  2
TRADENAME
 70
     0
1001
ACDBATTR
1070
     0
1070
     1
  0
ATTDEF
  5
245BF
  8
DEFPOINTS
 10
3255.4841928947771521
 20
143.8444071219886098
 30
0.0
 40
0.001
  1
HYGIENE SPRAY
  3

  2
PRODUCT
 70
     0
1001
ACDBATTR
1070
     0
1070
     1
  0
ENDSEC
  0
EOF
