  0
SECTION
  2
HEADER
  9
$ACADVER
  1
AC1009
  9
$INSBASE
 10
3267.7281606057990757
 20
169.2178238128464045
 30
0.0
  9
$EXTMIN
 10
3266.6141631228929327
 20
165.6646921639531911
 30
-0.0015258207003583
  9
$EXTMAX
 10
3272.6062975421291412
 20
169.2280398681104998
 30
0.0000000349246037
  9
$LIMMIN
 10
0.0
 20
0.0
  9
$LIMMAX
 10
11.6929133858000007
 20
8.2677165353999982
  9
$ORTHOMODE
 70
     0
  9
$REGENMODE
 70
     1
  9
$FILLMODE
 70
     1
  9
$QTEXTMODE
 70
     0
  9
$MIRRTEXT
 70
     0
  9
$DRAGMODE
 70
     2
  9
$LTSCALE
 40
0.6431102362
  9
$OSMODE
 70
  2039
  9
$ATTMODE
 70
     1
  9
$TEXTSIZE
 40
0.2
  9
$TRACEWID
 40
0.05
  9
$TEXTSTYLE
  7
STANDARD
  9
$CLAYER
  8
0
  9
$CELTYPE
  6
BYLAYER
  9
$CECOLOR
 62
   256
  9
$DIMSCALE
 40
1.0
  9
$DIMASZ
 40
0.1875
  9
$DIMEXO
 40
0.0625
  9
$DIMDLI
 40
0.4443307087
  9
$DIMRND
 40
0.0
  9
$DIMDLE
 40
0.0
  9
$DIMEXE
 40
0.125
  9
$DIMTP
 40
0.01
  9
$DIMTM
 40
0.01
  9
$DIMTXT
 40
2.0
  9
$DIMCEN
 40
0.1052362205
  9
$DIMTSZ
 40
0.0
  9
$DIMTOL
 70
     1
  9
$DIMLIM
 70
     0
  9
$DIMTIH
 70
     1
  9
$DIMTOH
 70
     1
  9
$DIMSE1
 70
     0
  9
$DIMSE2
 70
     0
  9
$DIMTAD
 70
     0
  9
$DIMZIN
 70
     0
  9
$DIMBLK
  1

  9
$DIMASO
 70
     1
  9
$DIMSHO
 70
     1
  9
$DIMPOST
  1
\X
  9
$DIMAPOST
  1

  9
$DIMALT
 70
     1
  9
$DIMALTD
 70
     2
  9
$DIMALTF
 40
25.3999999999999986
  9
$DIMLFAC
 40
1.0
  9
$DIMTOFL
 70
     0
  9
$DIMTVP
 40
0.0
  9
$DIMTIX
 70
     0
  9
$DIMSOXD
 70
     0
  9
$DIMSAH
 70
     0
  9
$DIMBLK1
  1

  9
$DIMBLK2
  1

  9
$DIMSTYLE
  2
STANDARD
  9
$DIMCLRD
 70
     0
  9
$DIMCLRE
 70
     0
  9
$DIMCLRT
 70
     0
  9
$DIMTFAC
 40
1.0
  9
$DIMGAP
 40
0.09
  9
$LUNITS
 70
     2
  9
$LUPREC
 70
     4
  9
$SKETCHINC
 40
0.1
  9
$FILLETRAD
 40
0.0
  9
$AUNITS
 70
     0
  9
$AUPREC
 70
     0
  9
$MENU
  1
.
  9
$ELEVATION
 40
0.0
  9
$PELEVATION
 40
0.0
  9
$THICKNESS
 40
0.0
  9
$LIMCHECK
 70
     0
  9
$BLIPMODE
 70
     0
  9
$CHAMFERA
 40
0.0
  9
$CHAMFERB
 40
0.0
  9
$SKPOLY
 70
     0
  9
$TDCREATE
 40
2458060.468368056230247
  9
$TDUPDATE
 40
2459236.8960648151114583
  9
$TDINDWG
 40
0.5929700231
  9
$TDUSRTIMER
 40
0.5929700231
  9
$USRTIMER
 70
     1
  9
$ANGBASE
 50
0.0
  9
$ANGDIR
 70
     0
  9
$PDMODE
 70
     0
  9
$PDSIZE
 40
0.3125
  9
$PLINEWID
 40
0.0
  9
$COORDS
 70
     1
  9
$SPLFRAME
 70
     0
  9
$SPLINETYPE
 70
     6
  9
$SPLINESEGS
 70
     8
  9
$ATTDIA
 70
     1
  9
$ATTREQ
 70
     1
  9
$HANDLING
 70
     1
  9
$HANDSEED
  5
23C2E
  9
$SURFTAB1
 70
     6
  9
$SURFTAB2
 70
     6
  9
$SURFTYPE
 70
     6
  9
$SURFU
 70
     6
  9
$SURFV
 70
     6
  9
$UCSNAME
  2

  9
$UCSORG
 10
0.0
 20
0.0
 30
0.0
  9
$UCSXDIR
 10
1.0
 20
0.0
 30
0.0
  9
$UCSYDIR
 10
0.0
 20
1.0
 30
0.0
  9
$PUCSNAME
  2

  9
$PUCSORG
 10
0.0
 20
0.0
 30
0.0
  9
$PUCSXDIR
 10
1.0
 20
0.0
 30
0.0
  9
$PUCSYDIR
 10
0.0
 20
1.0
 30
0.0
  9
$USERI1
 70
     0
  9
$USERI2
 70
     0
  9
$USERI3
 70
     0
  9
$USERI4
 70
     0
  9
$USERI5
 70
     0
  9
$USERR1
 40
0.0
  9
$USERR2
 40
0.0
  9
$USERR3
 40
0.0
  9
$USERR4
 40
0.0
  9
$USERR5
 40
0.0
  9
$WORLDVIEW
 70
     1
  9
$SHADEDGE
 70
     3
  9
$SHADEDIF
 70
    70
  9
$TILEMODE
 70
     1
  9
$MAXACTVP
 70
    64
  9
$PLIMCHECK
 70
     0
  9
$PEXTMIN
 10
1.0000000000000000E+20
 20
1.0000000000000000E+20
 30
1.0000000000000000E+20
  9
$PEXTMAX
 10
-1.0000000000000000E+20
 20
-1.0000000000000000E+20
 30
-1.0000000000000000E+20
  9
$PLIMMIN
 10
0.0
 20
0.0
  9
$PLIMMAX
 10
12.0
 20
9.0
  9
$UNITMODE
 70
     0
  9
$VISRETAIN
 70
     1
  9
$PLINEGEN
 70
     0
  9
$PSLTSCALE
 70
     1
  0
ENDSEC
  0
SECTION
  2
TABLES
  0
TABLE
  2
VPORT
 70
     1
  0
VPORT
  2
*ACTIVE
 70
     0
 10
0.0
 20
0.0
 11
1.0
 21
1.0
 12
-34.0828849018644178
 22
-27.8151455598558996
 13
0.0
 23
0.0
 14
1.0
 24
1.0
 15
0.0
 25
0.0
 16
0.0
 26
0.0
 36
96.5995694866707311
 17
3303.693115234375
 27
195.2615115758877096
 37
0.0
 40
3.5953059795308562
 41
2.8398203592814371
 42
50.0
 43
0.0
 44
0.0
 50
0.0
 51
0.0
 71
     0
 72
   100
 73
     1
 74
     1
 75
     0
 76
     0
 77
     0
 78
     0
  0
ENDTAB
  0
TABLE
  2
LTYPE
 70
     2
  0
LTYPE
  2
CONTINUOUS
 70
     0
  3
Solid line
 72
    65
 73
     0
 40
0.0
  0
LTYPE
  2
PHANTOM2
 70
     0
  3
___ _ _ ___ _ _ ___ _ _ ___ _ _
 72
    65
 73
     6
 40
1.25
 49
0.625
 49
-0.125
 49
0.125
 49
-0.125
 49
0.125
 49
-0.125
  0
ENDTAB
  0
TABLE
  2
LAYER
 70
     2
  0
LAYER
  2
0
 70
     0
 62
   255
  6
CONTINUOUS
  0
LAYER
  2
DEFPOINTS
 70
     0
 62
     7
  6
CONTINUOUS
  0
ENDTAB
  0
TABLE
  2
STYLE
 70
     1
  0
STYLE
  2
STANDARD
 70
     0
 40
0.0
 41
0.8
 50
0.0
 71
     0
 42
0.2
  3
txt
  4

  0
ENDTAB
  0
TABLE
  2
VIEW
 70
     0
  0
ENDTAB
  0
TABLE
  2
UCS
 70
     0
  0
ENDTAB
  0
TABLE
  2
APPID
 70
     9
  0
APPID
  2
ACAD
 70
     0
  0
APPID
  2
ACAD_MLEADERVER
 70
     0
  0
APPID
  2
ACAD_EXEMPT_FROM_CAD_STANDARDS
 70
     0
  0
APPID
  2
ACAD_NAV_VCDISPLAY
 70
     0
  0
APPID
  2
ACAECLAYERSTANDARD
 70
     0
  0
APPID
  2
ACCMTRANSPARENCY
 70
     0
  0
APPID
  2
ACAD_DSTYLE_DIMJAG
 70
     0
  0
APPID
  2
ACAD_DSTYLE_DIMTALN
 70
     0
  0
APPID
  2
ACDBATTR
 70
     0
  0
ENDTAB
  0
TABLE
  2
DIMSTYLE
 70
     1
  0
DIMSTYLE
  2
STANDARD
 70
     0
  3

  4

  5

  6

  7

 40
1.0
 41
0.1875
 42
0.0625
 43
0.38
 44
0.125
 45
0.0
 46
0.0
 47
0.01
 48
0.01
140
0.15625
141
0.09
142
0.0
143
25.3999999999999986
144
1.0
145
0.0
146
1.0
147
0.09
 71
     1
 72
     0
 73
     1
 74
     1
 75
     0
 76
     0
 77
     0
 78
     4
170
     0
171
     2
172
     0
173
     0
174
     0
175
     0
176
     0
177
     0
178
     0
  0
ENDTAB
  0
ENDSEC
  0
SECTION
  2
BLOCKS
  0
BLOCK
  8
0
  2
$MODEL_SPACE
 70
     0
 10
0.0
 20
0.0
 30
0.0
  3
$MODEL_SPACE
  1

  0
ENDBLK
  5
21
  8
0
  0
BLOCK
 67
     1
  8
0
  2
$PAPER_SPACE
 70
     0
 10
0.0
 20
0.0
 30
0.0
  3
$PAPER_SPACE
  1

  0
ENDBLK
  5
1D
 67
     1
  8
0
  0
BLOCK
  8
0
  2
_FILLED
 70
     0
 10
0.0
 20
0.0
 30
0.0
  3
_FILLED
  1

  0
SOLID
  5
238DB
  8
0
  6
BYBLOCK
 62
     0
 10
0.0
 20
0.0
 30
0.0
 11
-1.0
 21
0.1666666667
 31
0.0
 12
-1.0
 22
-0.1666666667
 32
0.0
 13
-1.0
 23
-0.1666666667
 33
0.0
  0
ENDBLK
  5
238DC
  8
0
  6
BYBLOCK
 62
     0
  0
ENDSEC
  0
SECTION
  2
ENTITIES
  0
ATTDEF
  5
2347F
  8
DEFPOINTS
 10
3267.7287529252930653
 20
169.2218752017870997
 30
0.0
 40
0.001
  1
K-77364X-AS
  3

  2
MODELNUMBER
 70
     0
1001
ACDBATTR
1070
     0
1070
     1
  0
ATTDEF
  5
23480
  8
DEFPOINTS
 10
3267.7287529252930653
 20
169.2202085351204914
 30
0.0
 40
0.001
  1
LUXE
  3

  2
TRADENAME
 70
     0
1001
ACDBATTR
1070
     0
1070
     1
  0
ATTDEF
  5
23481
  8
DEFPOINTS
 10
3267.7287529252930653
 20
169.2185418684537979
 30
0.0
 40
0.001
  1
HYGIENE SPRAY
  3

  2
PRODUCT
 70
     0
1001
ACDBATTR
1070
     0
1070
     1
  0
LINE
  5
239A3
  8
0
 10
3266.7439065732828567
 20
169.2178238128464045
 30
0.0
 11
3268.7124098644831065
 21
169.2178238128464045
 31
0.0
  0
LINE
  5
239A4
  8
0
 10
3268.7124098644831065
 20
169.2178238128464045
 30
0.0
 11
3268.7124105102820977
 21
169.0170364112464085
 31
0.0
  0
ARC
  5
239A5
  8
0
 10
3268.6927255341961427
 20
169.0170363479329012
 30
0.0
 40
0.0196849760865782
 50
269.9998157174347284
 51
0.0001842825489924
  0
LINE
  5
239A6
  8
0
 10
3268.6927254708830333
 20
168.9973513718464062
 30
0.0
 11
3266.763591612692835
 21
168.997357576591611
 31
0.0
  0
ARC
  5
239A7
  8
0
 10
3266.763591676006854
 20
169.0170426803136934
 30
0.0
 40
0.0196851037221629
 50
180.0182468484109108
 51
269.9998157174608195
  0
LINE
  5
239A8
  8
0
 10
3266.7439065732828567
 20
169.0170364112464085
 30
0.0
 11
3266.7439065732828567
 21
169.2178238128464045
 31
0.0
  0
LINE
  5
239A9
  8
0
 10
3267.2360325575828028
 20
168.9973513718464062
 30
0.0
 11
3267.2360325575828028
 21
167.4225482222464052
 31
0.0
  0
LINE
  5
239AA
  8
0
 10
3267.2360325575828028
 20
167.4225482222464052
 30
0.0
 11
3268.2202845260831054
 21
167.4225482222464052
 31
0.0
  0
LINE
  5
239AB
  8
0
 10
3268.2202845260831054
 20
167.4225482222464052
 30
0.0
 11
3268.2202895911859741
 21
168.9973528913594976
 31
0.0
  0
LINE
  5
239AC
  8
0
 10
3268.2491358824831877
 20
167.3556190884463888
 30
0.0
 11
3268.2491358824831877
 21
166.1555605711463954
 31
0.0
  0
ARC
  5
239AD
  8
0
 10
3268.2141159622169653
 20
166.1541348332820007
 30
0.0
 40
0.035048930709423
 50
284.8405107278194919
 51
2.331349527803745
  0
ARC
  5
239AE
  8
0
 10
3267.6772760220860619
 20
168.744682222915003
 30
0.0
 40
2.6805846753184248
 50
274.2922072890888785
 51
281.7486473079728739
  0
ARC
  5
239AF
  8
0
 10
3267.7597474409371898
 20
168.6935422889389997
 30
0.0
 40
2.6245873522601708
 50
269.5004281505865151
 51
272.5801735633169187
  0
ARC
  5
239B0
  8
0
 10
3267.7513404428018475
 20
168.7073146536455965
 30
0.0
 40
2.6382996712269211
 50
258.6371662838678844
 51
269.6856035710231936
  0
ARC
  5
239B1
  8
0
 10
3267.2434829745880052
 20
166.1555545650462875
 30
0.0
 40
0.0368179854235733
 50
185.6827718540247929
 51
251.0702269245525997
  0
ARC
  5
239B2
  8
0
 10
3267.2536063422071493
 20
166.1581278115787939
 30
0.0
 40
0.0471721466112828
 50
180.3037825665888079
 51
187.5756961785712917
  0
LINE
  5
239B3
  8
0
 10
3267.2064348586281994
 20
166.1578777057463867
 30
0.0
 11
3267.2064348586281994
 21
167.3556190884463888
 31
0.0
  0
ARC
  5
239B4
  8
0
 10
3267.22612000941308
 20
167.3556189770617095
 30
0.0
 40
0.0196851507855493
 50
90.0005324397490654
 51
179.999675802684294
  0
LINE
  5
239B5
  8
0
 10
3267.2261198264832274
 20
167.3753041278463911
 30
0.0
 11
3268.230196302008153
 21
167.3753228846244099
 31
0.0
  0
ARC
  5
239B6
  8
0
 10
3268.2274106639888487
 20
167.3536908875329914
 30
0.0
 40
0.0218106184535912
 50
5.0719420711062337
 51
82.6621779079650736
  0
LINE
  5
239B7
  8
0
 10
3267.2557182764830941
 20
167.3949891671464059
 30
0.0
 11
3267.2557182764830941
 21
167.3753041278463911
 31
0.0
  0
LINE
  5
239B8
  8
0
 10
3267.2557182764830941
 20
167.3949891671464059
 30
0.0
 11
3268.2005994866831315
 21
167.3949891671464059
 31
0.0
  0
LINE
  5
239B9
  8
0
 10
3268.2005994866831315
 20
167.3949891671464059
 30
0.0
 11
3268.2005994866831315
 21
167.3753041278463911
 31
0.0
  0
ARC
  5
239BA
  8
0
 10
3267.3147727149821549
 20
167.4442017655462962
 30
0.0
 40
0.0492125983999811
 50
206.1038811428365136
 51
270.0000000000259774
  0
ARC
  5
239BB
  8
0
 10
3268.1415443685827995
 20
167.4442017655464099
 30
0.0
 40
0.0492125984000071
 50
270.0
 51
333.8961188574634775
  0
ARC
  5
239BC
  8
0
 10
3267.6992087786297816
 20
166.4304220222396964
 30
0.0
 40
0.1179489647156618
 50
162.3870314253686047
 51
197.0219527647811049
  0
ARC
  5
239BD
  8
0
 10
3267.6989813592390419
 20
166.4304942205787938
 30
0.0
 40
0.1177103600651687
 50
129.0996398378302104
 51
162.387031425370111
  0
ARC
  5
239BE
  8
0
 10
3267.6997538403570616
 20
166.4295436705685916
 30
0.0
 40
0.118935216137796
 50
98.3917294906472506
 51
129.0996398378302104
  0
ARC
  5
239BF
  8
0
 10
3267.7003316684022138
 20
166.4256267143971115
 30
0.0
 40
0.1228945634196731
 50
83.653655861620237
 51
98.3917294906472506
  0
ARC
  5
239C0
  8
0
 10
3267.7242162546649524
 20
166.4304225952039076
 30
0.0
 40
0.1165559286762789
 50
152.7792510332407119
 51
187.0932140243677111
  0
ARC
  5
239C1
  8
0
 10
3267.7259206213539073
 20
166.4295458893224122
 30
0.0
 40
0.1184725608824873
 50
127.9963633881044984
 51
152.7792510332407119
  0
ARC
  5
239C2
  8
0
 10
3267.7272405700518902
 20
166.4278562109867892
 30
0.0
 40
0.1206166871475901
 50
109.5328209361907028
 51
127.9963633881044984
  0
ARC
  5
239C3
  8
0
 10
3267.7276666151819882
 20
166.4266552833641128
 30
0.0
 40
0.12189094834856
 50
96.4772680877805584
 51
109.5328209361907028
  0
ARC
  5
239C4
  8
0
 10
3267.7275541473140947
 20
166.4276458953063127
 30
0.0
 40
0.12089397240022
 50
79.4392014779121638
 51
96.4772680877805584
  0
ARC
  5
239C5
  8
0
 10
3267.7277653988408019
 20
166.4287789949709975
 30
0.0
 40
0.1197413484120641
 50
0.7860437750479418
 51
79.4392014779121638
  0
ARC
  5
239C6
  8
0
 10
3267.72845285539006
 20
166.4313544125870976
 30
0.0
 40
0.1190462776839073
 50
269.5940485794943129
 51
359.5510811539913902
  0
ARC
  5
239C7
  8
0
 10
3267.7268284016940925
 20
166.4316057961212891
 30
0.0
 40
0.1192972296480883
 50
187.5022156752216915
 51
270.3750972204147729
  0
ARC
  5
239C8
  8
0
 10
3267.6989994910832138
 20
166.4303548439079918
 30
0.0
 40
0.1177291798789561
 50
197.0205078550341966
 51
235.2242250005319022
  0
ARC
  5
239C9
  8
0
 10
3267.700113525946108
 20
166.431959177009503
 30
0.0
 40
0.1196823717222451
 50
235.2242250005319022
 51
276.4811981619657786
  0
CIRCLE
  5
239CA
  8
0
 10
3267.7275581231829165
 20
166.4304218838464067
 30
0.0
 40
0.1141732283000003
  0
LINE
  5
239CB
  8
0
 10
3267.2064348586281994
 20
166.1582217950449945
 30
0.0
 11
3268.2491358824831877
 21
166.1582217950449945
 31
0.0
  0
LINE
  5
239CC
  8
0
 10
3270.683866580970971
 20
169.2178238125464134
 30
0.0
 11
3272.5065008024857889
 21
169.2178238125464134
 31
0.0
  0
LINE
  5
239CD
  8
0
 10
3270.9702159450498584
 20
166.4581407773630986
 30
0.0
 11
3270.9599310912731198
 21
166.4589377989543095
 31
0.0
  0
LINE
  5
239CE
  8
0
 10
3270.9599310912731198
 20
166.4589377989543095
 30
0.0
 11
3270.9392074612828765
 21
166.460668414746408
 31
0.0
  0
ARC
  5
239CF
  8
0
 10
3270.9391053585941336
 20
166.4802282948396908
 30
0.0
 40
0.0195601465798305
 50
188.5711178868996001
 51
270.2990815880382911
  0
ARC
  5
239D0
  8
0
 10
3292.563610538858029
 20
169.7207755688172881
 30
0.0
 40
21.8855238943880188
 50
181.3168316273578
 51
188.5227019434043996
  0
ARC
  5
239D1
  8
0
 10
3271.6150043448651559
 20
167.043263406606286
 30
0.0
 40
0.5122994784335396
 50
92.2184535207722149
 51
117.8819228065760996
  0
ARC
  5
239D2
  8
0
 10
3271.5939424461262206
 20
167.0830727782561098
 30
0.0
 40
0.4672618314075595
 50
117.8819228065760996
 51
144.8836296623732096
  0
ARC
  5
239D3
  8
0
 10
3271.5596949130299436
 20
167.0076730125801134
 30
0.0
 40
0.4894332390718815
 50
135.3128052134892982
 51
148.7331535474492057
  0
ARC
  5
239D4
  8
0
 10
3271.8536739079017934
 20
166.8811385044703002
 30
0.0
 40
0.8076118728318352
 50
151.8865189646660951
 51
172.5616445047795082
  0
ARC
  5
239D5
  8
0
 10
3305.071340602607961
 20
161.3863476129614014
 30
0.0
 40
34.4762206283219967
 50
170.6530884728925059
 51
171.7227072427359076
  0
ARC
  5
239D6
  8
0
 10
3270.9641254789180493
 20
166.3504812433843938
 30
0.0
 40
0.009896265907608
 50
184.6260513551127076
 51
270.4173737333172198
  0
LINE
  5
239D7
  8
0
 10
3270.9641975680829091
 20
166.3405852400464084
 30
0.0
 11
3272.2249386395828878
 21
166.340585300946401
 31
0.0
  0
ARC
  5
239D8
  8
0
 10
3271.6675982958940949
 20
167.1355045336441094
 30
0.0
 40
0.6200931932202393
 50
178.174607066812797
 51
190.6659308544548992
  0
ARC
  5
239D9
  8
0
 10
3271.5932942536110204
 20
167.1378725960591964
 30
0.0
 40
0.545751425557743
 50
158.7901524923651095
 51
178.174607066812797
  0
ARC
  5
239DA
  8
0
 10
3271.4202062280028258
 20
167.1964180021167863
 30
0.0
 40
0.3632962596340146
 50
120.9581628097832038
 51
157.5218984993475999
  0
ARC
  5
239DB
  8
0
 10
3271.5802274520688115
 20
166.9633668922949141
 30
0.0
 40
0.6456973804167366
 50
90.8522038176775055
 51
122.4970797234436048
  0
ARC
  5
239DC
  8
0
 10
3271.5987134455458545
 20
166.8857748615581045
 30
0.0
 40
0.7237632794437042
 50
90.2802430961910432
 51
92.2242344157590708
  0
ARC
  5
239DD
  8
0
 10
3271.6097877607348892
 20
167.1682229732818996
 30
0.0
 40
0.5180295237338913
 50
166.7730399464313109
 51
182.0302699666945898
  0
ARC
  5
239DE
  8
0
 10
3271.4805706298247969
 20
167.205112560901199
 30
0.0
 40
0.3838521244088253
 50
145.1928209546921948
 51
167.720159076620007
  0
ARC
  5
239DF
  8
0
 10
3271.5167614021520421
 20
167.1510217206036089
 30
0.0
 40
0.4450778609177801
 50
113.7082271718822994
 51
142.1334028988152056
  0
ARC
  5
239E0
  8
0
 10
3271.6974839523181799
 20
166.7380937437249031
 30
0.0
 40
0.895821689266134
 50
109.0449188367878008
 51
113.6724532807778019
  0
ARC
  5
239E1
  8
0
 10
3286.0970229984582147
 20
168.676681749107388
 30
0.0
 40
15.08221386784823
 50
177.9438156208242106
 51
181.7791572879152966
  0
ARC
  5
239E2
  8
0
 10
3291.599527938582014
 20
168.9647013640403941
 30
0.0
 40
20.59134100324016
 50
182.1048349833610018
 51
184.6133997384789893
  0
ARC
  5
239E3
  8
0
 10
3269.1939865890299188
 20
133.88520057634571
 30
0.0
 40
32.5084388095894568
 50
86.3725838048651156
 51
86.7261535800754757
  0
ARC
  5
239E4
  8
0
 10
3271.2204830830469291
 20
166.23909290540999
 30
0.0
 40
0.0943961577274039
 50
71.3095568604274206
 51
76.4006998567437137
  0
ARC
  5
239E5
  8
0
 10
3271.2443458410862149
 20
166.314455300797988
 30
0.0
 40
0.0154387475134354
 50
27.0385001442927901
 51
65.5627191165249883
  0
ARC
  5
239E6
  8
0
 10
3271.7503828192639048
 20
166.5727224782928886
 30
0.0
 40
0.5526944747635281
 50
207.0385001442928115
 51
207.7342698327834967
  0
ARC
  5
239E7
  8
0
 10
3271.271653550971223
 20
166.3216072015883924
 30
0.0
 40
0.0121131163200509
 50
210.199236632210301
 51
262.3432017903188012
  0
ARC
  5
239E8
  8
0
 10
3271.3407659256358784
 20
167.1096416780760023
 30
0.0
 40
0.8031597347538028
 50
264.9479850908618914
 51
269.7598982417393927
  0
ARC
  5
239E9
  8
0
 10
3271.3375410419162108
 20
166.3187021380419992
 30
0.0
 40
0.0122140295963318
 50
269.293761072314112
 51
335.3195202685445793
  0
ARC
  5
239EA
  8
0
 10
3271.3668352233758014
 20
166.3052404097774115
 30
0.0
 40
0.0200251886840612
 50
114.1710601543351942
 51
155.319520268541595
  0
ARC
  5
239EB
  8
0
 10
3271.3667234592930981
 20
166.305489432466203
 30
0.0
 40
0.0197522353733088
 50
88.3567730469702042
 51
114.1710601543351942
  0
ARC
  5
239EC
  8
0
 10
3271.2513767695859315
 20
165.1370815683123965
 30
0.0
 40
1.1937926816147171
 50
84.4280011675100326
 51
90.4174761865808847
  0
ARC
  5
239ED
  8
0
 10
3271.2915914293339483
 20
166.0248766064738959
 30
0.0
 40
0.2844339444273275
 50
82.7964560717882563
 51
92.1254586439214478
  0
ARC
  5
239EE
  8
0
 10
3271.3243852260579843
 20
166.7644133795573964
 30
0.0
 40
0.4573569037569529
 50
264.5620316762754101
 51
270.3598813318695875
  0
ARC
  5
239EF
  8
0
 10
3271.3626040282210852
 20
166.3038979232848931
 30
0.0
 40
0.0258589957969715
 50
61.0446508609248397
 51
84.0069847255871878
  0
ARC
  5
239F0
  8
0
 10
3271.3670152722261264
 20
166.3118706647335046
 30
0.0
 40
0.0167472627084557
 50
18.875784875866831
 51
61.0446508609279803
  0
ARC
  5
239F1
  8
0
 10
3271.3949006829247992
 20
166.3214048098641911
 30
0.0
 40
0.0127229943860979
 50
198.875784875869897
 51
260.1018198455273023
  0
ARC
  5
239F2
  8
0
 10
3271.4135767800348731
 20
166.4464838243229963
 30
0.0
 40
0.1391851482508374
 50
261.3791607103373167
 51
267.5975155640891217
  0
ARC
  5
239F3
  8
0
 10
3271.4477559295528408
 20
167.1296659264843925
 30
0.0
 40
0.8232179429965285
 50
267.2139614855511809
 51
270.1400576852497011
  0
ARC
  5
239F4
  8
0
 10
3271.4517264451192204
 20
166.3802055723986939
 30
0.0
 40
0.0737811195952343
 50
268.4791627418896951
 51
277.1011425123608092
  0
ARC
  5
239F5
  8
0
 10
3271.4589439083461002
 20
166.322269734955114
 30
0.0
 40
0.0153974486271869
 50
277.1011425123608092
 51
307.719417450150388
  0
ARC
  5
239F6
  8
0
 10
3271.4623489011610218
 20
166.317867273406307
 30
0.0
 40
0.0098318719484722
 50
307.7194174501523776
 51
341.1760169803104077
  0
ARC
  5
239F7
  8
0
 10
3271.4892793944409277
 20
166.3068839743444869
 30
0.0
 40
0.0192777880291646
 50
125.4007516955313974
 51
156.0977413783436134
  0
ARC
  5
239F8
  8
0
 10
3271.4928758542278047
 20
166.2973549953817951
 30
0.0
 40
0.0292432396417692
 50
95.7188121087179269
 51
120.3224760936300015
  0
ARC
  5
239F9
  8
0
 10
3271.410064072339992
 20
165.6356025501949034
 30
0.0
 40
0.6954549396862076
 50
83.4029697308319413
 51
93.6901645430397565
  0
ARC
  5
239FA
  8
0
 10
3271.4174730240110875
 20
166.3141252800839993
 30
0.0
 40
0.0118167038863465
 50
214.5659640442096929
 51
243.5012198281667111
  0
ARC
  5
239FB
  8
0
 10
3271.4177456266079389
 20
166.3146720654592059
 30
0.0
 40
0.0124276755898429
 50
243.5012198281908127
 51
267.3568011681639973
  0
ARC
  5
239FC
  8
0
 10
3271.4793332107587958
 20
167.6487393203834984
 30
0.0
 40
1.3479157778142441
 50
267.3568011681639973
 51
270.1979801887840154
  0
ARC
  5
239FD
  8
0
 10
3271.4839486721630237
 20
166.3130228119958076
 30
0.0
 40
0.0121912952716583
 50
270.1979801887579242
 51
335.8865295825328872
  0
ARC
  5
239FE
  8
0
 10
3271.5136287663840449
 20
166.2997378892355869
 30
0.0
 40
0.020326348641954
 50
90.5056462145166734
 51
155.8865295825299881
  0
ARC
  5
239FF
  8
0
 10
3271.464201715371928
 20
165.5908882744726895
 30
0.0
 40
0.7308363451763548
 50
86.1361759735275569
 51
89.008774275226699
  0
ARC
  5
23A00
  8
0
 10
3271.5952285502239647
 20
165.7326912922798101
 30
0.0
 40
0.5985813851849401
 50
84.0255563994057866
 51
95.9837104039696669
  0
ARC
  5
23A01
  8
0
 10
3271.6582835838139545
 20
166.3071410099346963
 30
0.0
 40
0.0208939543554002
 50
92.0619845183488366
 51
135.1547519852497885
  0
ARC
  5
23A02
  8
0
 10
3271.6561766213981173
 20
166.3092366214567903
 30
0.0
 40
0.0179222749870018
 50
135.1547519852520907
 51
159.3284388706319135
  0
ARC
  5
23A03
  8
0
 10
3271.6286712148389597
 20
166.3196144497152034
 30
0.0
 40
0.0114757982391767
 50
299.0549419339417909
 51
339.3284388706258028
  0
ARC
  5
23A04
  8
0
 10
3271.6260951774670502
 20
166.324251252582286
 30
0.0
 40
0.016780127543299
 50
268.9685052209703144
 51
299.0549419339409951
  0
ARC
  5
23A05
  8
0
 10
3271.5955305932138799
 20
166.7377915921595957
 30
0.0
 40
0.4313805553983911
 50
265.5247245905878799
 51
274.0227575228324781
  0
ARC
  5
23A06
  8
0
 10
3271.5637453885178729
 20
166.3234057458323036
 30
0.0
 40
0.0157911764312142
 50
241.0889902212863092
 51
263.1809816907788786
  0
ARC
  5
23A07
  8
0
 10
3271.5621936425341119
 20
166.3200430709732132
 30
0.0
 40
0.012100347129975
 50
201.6244982439766034
 51
239.8230526169575114
  0
ARC
  5
23A08
  8
0
 10
3271.5337690993419528
 20
166.3089504954434972
 30
0.0
 40
0.0184122304767205
 50
21.1166328119078912
 51
46.6222470457413323
  0
ARC
  5
23A09
  8
0
 10
3271.5341296520218748
 20
166.3120313296768984
 30
0.0
 40
0.0160328645374212
 50
39.9823240163068405
 51
94.6531505629432388
  0
ARC
  5
23A0A
  8
0
 10
3271.5471799908777939
 20
166.2188870652061894
 30
0.0
 40
0.103597689865908
 50
90.4925748757760289
 51
98.027452383804345
  0
ARC
  5
23A0B
  8
0
 10
3271.5323735928182032
 20
166.3014730035069135
 30
0.0
 40
0.019999503294546
 50
49.4954714725393501
 51
89.0280959865828834
  0
ARC
  5
23A0C
  8
0
 10
3271.5309708675608817
 20
166.299830886081395
 30
0.0
 40
0.0221591763678223
 50
18.2838597182241003
 51
49.4954714725404017
  0
ARC
  5
23A0D
  8
0
 10
3271.5617044577961678
 20
166.313237175545396
 30
0.0
 40
0.0116454435510189
 50
213.6585697727107913
 51
270.2209703248129813
  0
ARC
  5
23A0E
  8
0
 10
3271.5953280222970534
 20
167.1600577019426055
 30
0.0
 40
0.8591223421255575
 50
267.7600335526665276
 51
272.2203457794972223
  0
ARC
  5
23A0F
  8
0
 10
3271.6286114056238148
 20
166.3132911690790081
 30
0.0
 40
0.0117107990638316
 50
270.0063076807273887
 51
326.8495412151403912
  0
ARC
  5
23A10
  8
0
 10
3271.7120062349990803
 20
166.2720718259710111
 30
0.0
 40
0.0814101800493948
 50
150.2070295699494125
 51
154.6812104730678072
  0
ARC
  5
23A11
  8
0
 10
3271.6597920722570052
 20
166.2983332232429063
 30
0.0
 40
0.0232636000379702
 50
95.3036498084209143
 51
142.4170901000607046
  0
ARC
  5
23A12
  8
0
 10
3271.6431410933869302
 20
166.2155090938200885
 30
0.0
 40
0.1069754776298704
 50
82.2095178174784138
 51
89.4880931861494417
  0
ARC
  5
23A13
  8
0
 10
3271.6578374344990152
 20
166.2996405908779991
 30
0.0
 40
0.0196852400099448
 50
90.5812738103618074
 51
158.4005418903655027
  0
ARC
  5
23A14
  8
0
 10
3271.6285460698059069
 20
166.3112375027384076
 30
0.0
 40
0.0118182901153398
 50
268.385696013126676
 51
338.400719405010193
  0
LINE
  5
23A15
  8
0
 10
3271.6282131344828485
 20
166.2994239031463906
 30
0.0
 11
3271.5617724683120286
 21
166.2994239790922109
 31
0.0
  0
ARC
  5
23A16
  8
0
 10
3271.5618064735240296
 20
166.3112344079515879
 30
0.0
 40
0.0118104778139183
 50
201.5981380500749935
 51
269.8350317925838908
  0
ARC
  5
23A17
  8
0
 10
3271.5325228469819194
 20
166.2996413008021079
 30
0.0
 40
0.0196844569670261
 50
21.5981380500750291
 51
89.4321271442582741
  0
ARC
  5
23A18
  8
0
 10
3271.5369363648928811
 20
167.7067763035609005
 30
0.0
 40
1.3874579254713371
 50
268.8579200188898994
 51
270.1835126120529935
  0
ARC
  5
23A19
  8
0
 10
3271.595088459705039
 20
166.0852153561156115
 30
0.0
 40
0.2240989987946197
 50
84.0511901797608232
 51
95.9013420255217142
  0
ARC
  5
23A1A
  8
0
 10
3271.5952715133439597
 20
166.5271226592163885
 30
0.0
 40
0.2202239173603584
 50
263.9465486675982788
 51
276.0059833745809215
  0
ARC
  5
23A1B
  8
0
 10
3271.5951824428389045
 20
165.8520161851087948
 30
0.0
 40
0.4501198323613781
 50
87.0389726463369442
 51
92.9617050462600645
  0
ARC
  5
23A1C
  8
0
 10
3271.5951849023208524
 20
166.9571474939224913
 30
0.0
 40
0.6560245323956388
 50
267.968140588470078
 51
272.0309648797967839
  0
ARC
  5
23A1D
  8
0
 10
3271.4208868387190705
 20
166.0703344632337064
 30
0.0
 40
0.2389695850589225
 50
82.8739607626889239
 51
94.0484963238704665
  0
ARC
  5
23A1E
  8
0
 10
3271.4348701806079589
 20
166.5908755967371917
 30
0.0
 40
0.283849819197872
 50
263.7595549152746912
 51
273.1629021712785743
  0
ARC
  5
23A1F
  8
0
 10
3267.5915795926039209
 20
165.5634689953793952
 30
0.0
 40
3.673993036507035
 50
9.4685319577892422
 51
12.0849640110957992
  0
ARC
  5
23A20
  8
0
 10
3272.5958384507689516
 20
166.3980695786314072
 30
0.0
 40
1.3993850149582461
 50
189.468531957789196
 51
202.4552347013261056
  0
ARC
  5
23A21
  8
0
 10
3271.5806443734991262
 20
165.9784913829265065
 30
0.0
 40
0.300902026088474
 50
202.4552347013245992
 51
239.7409126106217911
  0
ARC
  5
23A22
  8
0
 10
3271.6107701874871054
 20
166.0301301473288902
 30
0.0
 40
0.3606860261005643
 50
239.7409126106217911
 51
257.7947645401844738
  0
ARC
  5
23A23
  8
0
 10
3271.5944531865447971
 20
166.0060214103633882
 30
0.0
 40
0.3338489831981235
 50
259.6574048434673045
 51
270.1236069028660154
  0
LINE
  5
23A24
  8
0
 10
3272.2195638430830513
 20
166.4580968347464136
 30
0.0
 11
3272.2304157371931979
 21
166.4589377989543095
 31
0.0
  0
LINE
  5
23A25
  8
0
 10
3272.2304157371931979
 20
166.4589377989543095
 30
0.0
 11
3272.251139367182077
 21
166.460668414746408
 31
0.0
  0
ARC
  5
23A26
  8
0
 10
3272.2512414698708199
 20
166.4802282948396908
 30
0.0
 40
0.0195601465798305
 50
269.7009184119617089
 51
351.4288821131004283
  0
ARC
  5
23A27
  8
0
 10
3250.6215699262079397
 20
169.721384424104798
 30
0.0
 40
21.8907234405121294
 50
351.4777260720001095
 51
358.6818871939516953
  0
ARC
  5
23A28
  8
0
 10
3271.5753424836011618
 20
167.043263406606286
 30
0.0
 40
0.5122994784335396
 50
62.1180771934239289
 51
87.7815464792277709
  0
ARC
  5
23A29
  8
0
 10
3271.5964043823400971
 20
167.0830727782561098
 30
0.0
 40
0.4672618314075595
 50
35.1163703376267833
 51
62.1180771934239289
  0
ARC
  5
23A2A
  8
0
 10
3271.6306519154350099
 20
167.0076730125801134
 30
0.0
 40
0.4894332390718815
 50
31.266846452550741
 51
44.6871947865106591
  0
ARC
  5
23A2B
  8
0
 10
3271.33667292056316
 20
166.8811385044703002
 30
0.0
 40
0.8076118728318352
 50
7.438355495220474
 51
28.11348103533388
  0
ARC
  5
23A2C
  8
0
 10
3237.6767730799419951
 20
161.3156682079977884
 30
0.0
 40
34.9240615051214007
 50
8.2878800673121056
 51
9.3434944143246295
  0
ARC
  5
23A2D
  8
0
 10
3272.2261004091888026
 20
166.3505383904561938
 30
0.0
 40
0.0100206636212047
 50
263.342304672074988
 51
356.1338270754407063
  0
ARC
  5
23A2E
  8
0
 10
3271.5227485325708585
 20
167.1355045336441094
 30
0.0
 40
0.6200931932202393
 50
349.3340691455434808
 51
1.825392933187185
  0
ARC
  5
23A2F
  8
0
 10
3271.5970525748548425
 20
167.1378725960591964
 30
0.0
 40
0.545751425557743
 50
1.825392933187185
 51
21.2098475076348585
  0
ARC
  5
23A30
  8
0
 10
3271.7701406004630371
 20
167.1964180021167863
 30
0.0
 40
0.3632962596340146
 50
22.4781015006524107
 51
59.0418371902168104
  0
ARC
  5
23A31
  8
0
 10
3271.6101193763970514
 20
166.9633668922949141
 30
0.0
 40
0.6456973804167366
 50
57.5029202765563809
 51
89.1477961823224945
  0
ARC
  5
23A32
  8
0
 10
3271.5916333746399687
 20
166.88577448281481
 30
0.0
 40
0.723763658222987
 50
87.7757660929593442
 51
89.7197563950769563
  0
ARC
  5
23A33
  8
0
 10
3271.5805590677309738
 20
167.1682229732818996
 30
0.0
 40
0.5180295237338913
 50
357.9697300333053249
 51
13.2269600535687104
  0
ARC
  5
23A34
  8
0
 10
3271.709776198641066
 20
167.205112560901199
 30
0.0
 40
0.3838521244088253
 50
12.2798409233800001
 51
34.8071790453077625
  0
ARC
  5
23A35
  8
0
 10
3271.6735854263138208
 20
167.1510217206036089
 30
0.0
 40
0.4450778609177801
 50
37.8665971011848228
 51
66.2917728281177148
  0
ARC
  5
23A36
  8
0
 10
3271.4928628761481377
 20
166.7380937437249031
 30
0.0
 40
0.895821689266134
 50
66.3275467192222123
 51
70.9550811632121565
  0
ARC
  5
23A37
  8
0
 10
3248.6621394119038087
 20
168.7979978766076954
 30
0.0
 40
23.5135201152257416
 50
358.5632197500344205
 51
1.023051094145742
  0
ARC
  5
23A38
  8
0
 10
3251.5908188898838489
 20
168.9647013640403941
 30
0.0
 40
20.59134100324016
 50
355.3866002615209254
 51
357.8951650166389982
  0
ARC
  5
23A39
  8
0
 10
3273.9963602394359441
 20
133.88520057634571
 30
0.0
 40
32.5084388095894568
 50
93.2738447958910939
 51
93.6274161951348844
  0
ARC
  5
23A3A
  8
0
 10
3271.9698637454189338
 20
166.23909290540999
 30
0.0
 40
0.0943961577274039
 50
103.5993001432563005
 51
108.6904431395725936
  0
ARC
  5
23A3B
  8
0
 10
3271.9460009873801027
 20
166.314455300797988
 30
0.0
 40
0.0154387475134354
 50
114.4372808834749975
 51
152.9614998557071885
  0
ARC
  5
23A3C
  8
0
 10
3271.4399640092019581
 20
166.5727224782928886
 30
0.0
 40
0.5526944747635281
 50
332.2657301672164749
 51
332.9614998557071885
  0
ARC
  5
23A3D
  8
0
 10
3271.9186932774950947
 20
166.3216072015883924
 30
0.0
 40
0.0121131163200509
 50
277.6567982096811988
 51
329.8007633677896138
  0
ARC
  5
23A3E
  8
0
 10
3271.8495809028299846
 20
167.1096416780760023
 30
0.0
 40
0.8031597347538028
 50
270.2401017582606073
 51
275.0520149091381086
  0
ARC
  5
23A3F
  8
0
 10
3271.8528057865501069
 20
166.3187021380419992
 30
0.0
 40
0.0122140295963318
 50
204.680479731455506
 51
270.7062389276857743
  0
ARC
  5
23A40
  8
0
 10
3271.823511605089152
 20
166.3052404097774115
 30
0.0
 40
0.0200251886840612
 50
24.6804797314584192
 51
65.8289398456647348
  0
ARC
  5
23A41
  8
0
 10
3271.8236233691732195
 20
166.305489432466203
 30
0.0
 40
0.0197522353733088
 50
65.8289398456647348
 51
91.6432269530297958
  0
ARC
  5
23A42
  8
0
 10
3271.938970058880841
 20
165.1370815683123965
 30
0.0
 40
1.1937926816147171
 50
89.5825238134191153
 51
95.5719988324899816
  0
ARC
  5
23A43
  8
0
 10
3271.8987553991319146
 20
166.0248766064738959
 30
0.0
 40
0.2844339444273275
 50
87.8745413560785522
 51
97.2035439282117437
  0
ARC
  5
23A44
  8
0
 10
3271.8659616024069692
 20
166.7644133795573964
 30
0.0
 40
0.4573569037569529
 50
269.6401186681304125
 51
275.4379683237245899
  0
ARC
  5
23A45
  8
0
 10
3271.8277428002447778
 20
166.3038979232848931
 30
0.0
 40
0.0258589957969715
 50
95.9930152744128264
 51
118.9553491390751958
  0
ARC
  5
23A46
  8
0
 10
3271.8233315562401913
 20
166.3118706647335046
 30
0.0
 40
0.0167472627084557
 50
118.9553491390719984
 51
161.124215124133201
  0
ARC
  5
23A47
  8
0
 10
3271.7954461455410637
 20
166.3214048098641911
 30
0.0
 40
0.0127229943860979
 50
279.8981801544726977
 51
341.124215124130103
  0
ARC
  5
23A48
  8
0
 10
3271.7767700484309898
 20
166.4464838243229963
 30
0.0
 40
0.1391851482508374
 50
272.4024844359108783
 51
278.6208392896626833
  0
ARC
  5
23A49
  8
0
 10
3271.7425908989121126
 20
167.1296659264843925
 30
0.0
 40
0.8232179429965285
 50
269.8599423147502989
 51
272.7860385144487054
  0
ARC
  5
23A4A
  8
0
 10
3271.7386203833470972
 20
166.3802055723986939
 30
0.0
 40
0.0737811195952343
 50
262.8988574876394182
 51
271.5208372581103049
  0
ARC
  5
23A4B
  8
0
 10
3271.731402920121127
 20
166.322269734955114
 30
0.0
 40
0.0153974486271869
 50
232.280582549849612
 51
262.8988574876391908
  0
ARC
  5
23A4C
  8
0
 10
3271.7279979273048411
 20
166.317867273406307
 30
0.0
 40
0.0098318719484722
 50
198.8239830196895923
 51
232.280582549847594
  0
ARC
  5
23A4D
  8
0
 10
3271.7010674340249352
 20
166.3068839743444869
 30
0.0
 40
0.0192777880291646
 50
23.9022586216563688
 51
54.5992483044685528
  0
ARC
  5
23A4E
  8
0
 10
3271.6974709742371488
 20
166.2973549953817951
 30
0.0
 40
0.0292432396417692
 50
59.6775239063700411
 51
84.2811878912821157
  0
ARC
  5
23A4F
  8
0
 10
3271.7802827561258709
 20
165.6356025501949034
 30
0.0
 40
0.6954549396862076
 50
86.3098354569602293
 51
96.5970302691680587
  0
ARC
  5
23A50
  8
0
 10
3271.7728738044538659
 20
166.3141252800839993
 30
0.0
 40
0.0118167038863465
 50
296.4987801718331752
 51
325.4340359557903071
  0
ARC
  5
23A51
  8
0
 10
3271.7726012018570145
 20
166.3146720654592059
 30
0.0
 40
0.0124276755898429
 50
272.643198831835889
 51
296.4987801718091873
  0
ARC
  5
23A52
  8
0
 10
3271.7110136177070672
 20
167.6487393203834984
 30
0.0
 40
1.3479157778142441
 50
269.8020198112159846
 51
272.643198831835889
  0
ARC
  5
23A53
  8
0
 10
3271.7063981563028392
 20
166.3130228119958076
 30
0.0
 40
0.0121912952716583
 50
204.1134704174671128
 51
269.8020198112420758
  0
ARC
  5
23A54
  8
0
 10
3271.6767180620818181
 20
166.2997378892355869
 30
0.0
 40
0.020326348641954
 50
24.1134704174700296
 51
89.4943537854833551
  0
ARC
  5
23A55
  8
0
 10
3271.7261451130930254
 20
165.5908882744726895
 30
0.0
 40
0.7308363451763548
 50
90.9912257247733152
 51
93.8638240264724573
  0
ARC
  5
23A56
  8
0
 10
3271.6534104635720723
 20
167.7067763035609005
 30
0.0
 40
1.3874579254713371
 50
269.8493046617444975
 51
271.1420799811099869
  0
ARC
  5
23A57
  8
0
 10
3271.7694599897467924
 20
166.0703344632337064
 30
0.0
 40
0.2389695850589225
 50
85.9515036761295761
 51
97.1260392373110761
  0
ARC
  5
23A58
  8
0
 10
3271.755476647857904
 20
166.5908755967371917
 30
0.0
 40
0.283849819197872
 50
266.8370978287214257
 51
276.2404450847253088
  0
ARC
  5
23A59
  8
0
 10
3275.5987672358610325
 20
165.5634689953793952
 30
0.0
 40
3.673993036507035
 50
167.9150359889042079
 51
170.5314680422106903
  0
ARC
  5
23A5A
  8
0
 10
3270.5945083776960018
 20
166.3980695786314072
 30
0.0
 40
1.3993850149582461
 50
337.5447652986738944
 51
350.5314680422106903
  0
ARC
  5
23A5B
  8
0
 10
3271.6097024549671914
 20
165.9784913829265065
 30
0.0
 40
0.300902026088474
 50
300.2590873893781804
 51
337.5447652986738944
  0
ARC
  5
23A5C
  8
0
 10
3271.5795766409792122
 20
166.0301301473288902
 30
0.0
 40
0.3606860261005643
 50
282.205235459815583
 51
300.2590873893781804
  0
ARC
  5
23A5D
  8
0
 10
3271.5958936422421175
 20
166.0060214067800928
 30
0.0
 40
0.3338489796154997
 50
269.876393040802725
 51
280.3425952128409904
  0
LINE
  5
23A5E
  8
0
 10
3268.2202872294010376
 20
168.2630441935646104
 30
0.0
 11
3270.7862726167591063
 21
167.5473659989222881
 31
0.0
  0
LINE
  5
23A5F
  8
0
 10
3270.8533736863569175
 20
166.9564000624575044
 30
0.0
 11
3268.2202853890112237
 21
167.6908436766900934
 31
0.0
  0
ARC
  5
23A61
  8
0
 10
3271.5267370901888171
 20
170.9031315303759015
 30
0.0
 40
4.5828593560962769
 50
267.8940142644784146
 51
268.1632987421297116
  0
ARC
  5
23A62
  8
0
 10
3271.6609543150971149
 20
171.0257435781780941
 30
0.0
 40
4.7054936920093526
 50
271.8211669132521138
 51
272.0836027137667088
  0
ENDSEC
  0
EOF
