  0
SECTION
  2
HEADER
  9
$ACADVER
  1
AC1009
  9
$INSBASE
 10
4264.6596028714138811
 20
171.3712916391083922
 30
0.0
  9
$EXTMIN
 10
4224.1713340720143606
 20
162.6567394873405874
 30
0.0
  9
$EXTMAX
 10
4271.8229385191616529
 20
206.9252286051724923
 30
0.0
  9
$LIMMIN
 10
0.0
 20
0.0
  9
$LIMMAX
 10
11.6929133858000007
 20
8.2677165353999982
  9
$ORTHOMODE
 70
     0
  9
$REGENMODE
 70
     1
  9
$FILLMODE
 70
     1
  9
$QTEXTMODE
 70
     0
  9
$MIRRTEXT
 70
     0
  9
$DRAGMODE
 70
     2
  9
$LTSCALE
 40
0.6431102362
  9
$OSMODE
 70
  4095
  9
$ATTMODE
 70
     1
  9
$TEXTSIZE
 40
0.2
  9
$TRACEWID
 40
0.05
  9
$TEXTSTYLE
  7
STANDARD
  9
$CLAYER
  8
0
  9
$CELTYPE
  6
BYLAYER
  9
$CECOLOR
 62
   256
  9
$DIMSCALE
 40
1.0
  9
$DIMASZ
 40
0.1875
  9
$DIMEXO
 40
0.0625
  9
$DIMDLI
 40
0.4443307087
  9
$DIMRND
 40
0.0
  9
$DIMDLE
 40
0.0
  9
$DIMEXE
 40
0.125
  9
$DIMTP
 40
0.01
  9
$DIMTM
 40
0.01
  9
$DIMTXT
 40
2.0
  9
$DIMCEN
 40
0.1052362205
  9
$DIMTSZ
 40
0.0
  9
$DIMTOL
 70
     1
  9
$DIMLIM
 70
     0
  9
$DIMTIH
 70
     1
  9
$DIMTOH
 70
     1
  9
$DIMSE1
 70
     0
  9
$DIMSE2
 70
     0
  9
$DIMTAD
 70
     0
  9
$DIMZIN
 70
     0
  9
$DIMBLK
  1

  9
$DIMASO
 70
     1
  9
$DIMSHO
 70
     1
  9
$DIMPOST
  1
\X
  9
$DIMAPOST
  1

  9
$DIMALT
 70
     1
  9
$DIMALTD
 70
     2
  9
$DIMALTF
 40
25.3999999999999986
  9
$DIMLFAC
 40
1.0
  9
$DIMTOFL
 70
     0
  9
$DIMTVP
 40
0.0
  9
$DIMTIX
 70
     0
  9
$DIMSOXD
 70
     0
  9
$DIMSAH
 70
     0
  9
$DIMBLK1
  1

  9
$DIMBLK2
  1

  9
$DIMSTYLE
  2
STANDARD
  9
$DIMCLRD
 70
     0
  9
$DIMCLRE
 70
     0
  9
$DIMCLRT
 70
     0
  9
$DIMTFAC
 40
1.0
  9
$DIMGAP
 40
0.09
  9
$LUNITS
 70
     2
  9
$LUPREC
 70
     4
  9
$SKETCHINC
 40
0.1
  9
$FILLETRAD
 40
0.0
  9
$AUNITS
 70
     0
  9
$AUPREC
 70
     0
  9
$MENU
  1
.
  9
$ELEVATION
 40
0.0
  9
$PELEVATION
 40
0.0
  9
$THICKNESS
 40
0.0
  9
$LIMCHECK
 70
     0
  9
$BLIPMODE
 70
     0
  9
$CHAMFERA
 40
0.0
  9
$CHAMFERB
 40
0.0
  9
$SKPOLY
 70
     0
  9
$TDCREATE
 40
2458060.468368056230247
  9
$TDUPDATE
 40
2459943.5571412038989365
  9
$TDINDWG
 40
0.3292663194
  9
$TDUSRTIMER
 40
0.3292663194
  9
$USRTIMER
 70
     1
  9
$ANGBASE
 50
0.0
  9
$ANGDIR
 70
     0
  9
$PDMODE
 70
     0
  9
$PDSIZE
 40
0.3125
  9
$PLINEWID
 40
0.0
  9
$COORDS
 70
     1
  9
$SPLFRAME
 70
     0
  9
$SPLINETYPE
 70
     6
  9
$SPLINESEGS
 70
     8
  9
$ATTDIA
 70
     1
  9
$ATTREQ
 70
     1
  9
$HANDLING
 70
     1
  9
$HANDSEED
  5
18B2D
  9
$SURFTAB1
 70
     6
  9
$SURFTAB2
 70
     6
  9
$SURFTYPE
 70
     6
  9
$SURFU
 70
     6
  9
$SURFV
 70
     6
  9
$UCSNAME
  2

  9
$UCSORG
 10
0.0
 20
0.0
 30
0.0
  9
$UCSXDIR
 10
1.0
 20
0.0
 30
0.0
  9
$UCSYDIR
 10
0.0
 20
1.0
 30
0.0
  9
$PUCSNAME
  2

  9
$PUCSORG
 10
0.0
 20
0.0
 30
0.0
  9
$PUCSXDIR
 10
1.0
 20
0.0
 30
0.0
  9
$PUCSYDIR
 10
0.0
 20
1.0
 30
0.0
  9
$USERI1
 70
     0
  9
$USERI2
 70
     0
  9
$USERI3
 70
     0
  9
$USERI4
 70
     0
  9
$USERI5
 70
     0
  9
$USERR1
 40
0.0
  9
$USERR2
 40
0.0
  9
$USERR3
 40
0.0
  9
$USERR4
 40
0.0
  9
$USERR5
 40
0.0
  9
$WORLDVIEW
 70
     1
  9
$SHADEDGE
 70
     3
  9
$SHADEDIF
 70
    70
  9
$TILEMODE
 70
     1
  9
$MAXACTVP
 70
    64
  9
$PLIMCHECK
 70
     0
  9
$PEXTMIN
 10
1.0000000000000000E+20
 20
1.0000000000000000E+20
 30
1.0000000000000000E+20
  9
$PEXTMAX
 10
-1.0000000000000000E+20
 20
-1.0000000000000000E+20
 30
-1.0000000000000000E+20
  9
$PLIMMIN
 10
0.0
 20
0.0
  9
$PLIMMAX
 10
12.0
 20
9.0
  9
$UNITMODE
 70
     0
  9
$VISRETAIN
 70
     1
  9
$PLINEGEN
 70
     0
  9
$PSLTSCALE
 70
     1
  0
ENDSEC
  0
SECTION
  2
TABLES
  0
TABLE
  2
VPORT
 70
     1
  0
VPORT
  2
*ACTIVE
 70
     0
 10
0.0
 20
0.0
 11
1.0
 21
1.0
 12
498.7750541031878129
 22
70.6936455625620965
 13
0.0
 23
0.0
 14
1.0
 24
1.0
 15
0.0
 25
0.0
 16
0.0
 26
0.0
 36
52.8646992989861104
 17
3760.731689453125
 27
100.8539612959256004
 37
0.0
 40
15.3488238512217592
 41
2.498684210526315
 42
50.0
 43
0.0
 44
0.0
 50
0.0
 51
0.0
 71
     0
 72
   100
 73
     1
 74
     1
 75
     0
 76
     0
 77
     0
 78
     0
  0
ENDTAB
  0
TABLE
  2
LTYPE
 70
     2
  0
LTYPE
  2
CONTINUOUS
 70
     0
  3
Solid line
 72
    65
 73
     0
 40
0.0
  0
LTYPE
  2
PHANTOM2
 70
     0
  3
___ _ _ ___ _ _ ___ _ _ ___ _ _
 72
    65
 73
     6
 40
1.25
 49
0.625
 49
-0.125
 49
0.125
 49
-0.125
 49
0.125
 49
-0.125
  0
ENDTAB
  0
TABLE
  2
LAYER
 70
     2
  0
LAYER
  2
0
 70
     0
 62
   255
  6
CONTINUOUS
  0
LAYER
  2
DEFPOINTS
 70
     0
 62
     7
  6
CONTINUOUS
  0
ENDTAB
  0
TABLE
  2
STYLE
 70
     1
  0
STYLE
  2
STANDARD
 70
     0
 40
0.0
 41
0.8
 50
0.0
 71
     0
 42
0.2
  3
txt
  4

  0
ENDTAB
  0
TABLE
  2
VIEW
 70
     0
  0
ENDTAB
  0
TABLE
  2
UCS
 70
     0
  0
ENDTAB
  0
TABLE
  2
APPID
 70
     9
  0
APPID
  2
ACAD
 70
     0
  0
APPID
  2
ACAD_MLEADERVER
 70
     0
  0
APPID
  2
ACAD_EXEMPT_FROM_CAD_STANDARDS
 70
     0
  0
APPID
  2
ACAD_NAV_VCDISPLAY
 70
     0
  0
APPID
  2
ACAECLAYERSTANDARD
 70
     0
  0
APPID
  2
ACCMTRANSPARENCY
 70
     0
  0
APPID
  2
ACAD_DSTYLE_DIMJAG
 70
     0
  0
APPID
  2
ACAD_DSTYLE_DIMTALN
 70
     0
  0
APPID
  2
ACDBATTR
 70
     0
  0
ENDTAB
  0
TABLE
  2
DIMSTYLE
 70
     1
  0
DIMSTYLE
  2
STANDARD
 70
     0
  3

  4

  5

  6

  7

 40
1.0
 41
0.1875
 42
0.0625
 43
0.38
 44
0.125
 45
0.0
 46
0.0
 47
0.01
 48
0.01
140
0.15625
141
0.09
142
0.0
143
25.3999999999999986
144
1.0
145
0.0
146
1.0
147
0.09
 71
     1
 72
     0
 73
     1
 74
     1
 75
     0
 76
     0
 77
     0
 78
     4
170
     0
171
     2
172
     0
173
     0
174
     0
175
     0
176
     0
177
     0
178
     0
  0
ENDTAB
  0
ENDSEC
  0
SECTION
  2
BLOCKS
  0
BLOCK
  8
0
  2
$MODEL_SPACE
 70
     0
 10
0.0
 20
0.0
 30
0.0
  3
$MODEL_SPACE
  1

  0
ENDBLK
  5
21
  8
0
  0
BLOCK
 67
     1
  8
0
  2
$PAPER_SPACE
 70
     0
 10
0.0
 20
0.0
 30
0.0
  3
$PAPER_SPACE
  1

  0
ENDBLK
  5
1D
 67
     1
  8
0
  0
BLOCK
  8
0
  2
_FILLED
 70
     0
 10
0.0
 20
0.0
 30
0.0
  3
_FILLED
  1

  0
SOLID
  5
1824C
  8
0
  6
BYBLOCK
 62
     0
 10
0.0
 20
0.0
 30
0.0
 11
-1.0
 21
0.1666666667
 31
0.0
 12
-1.0
 22
-0.1666666667
 32
0.0
 13
-1.0
 23
-0.1666666667
 33
0.0
  0
ENDBLK
  5
1824D
  8
0
  6
BYBLOCK
 62
     0
  0
ENDSEC
  0
SECTION
  2
ENTITIES
  0
LINE
  5
1886F
  8
0
 10
4245.4131205470148416
 20
171.7496031197084108
 30
0.0
 11
4245.4131205470148416
 21
171.6270847331622065
 31
0.0
  0
LINE
  5
18870
  8
0
 10
4245.412910913613814
 20
172.2324505198083955
 30
0.0
 11
4245.4108087722088385
 21
172.1120189196317938
 31
0.0
  0
LINE
  5
18871
  8
0
 10
4249.5250724700154024
 20
171.9565364774711895
 30
0.0
 11
4249.5250724700154024
 21
171.8974785366083893
 31
0.0
  0
LINE
  5
18872
  8
0
 10
4249.5274347754148039
 20
171.4697168359084003
 30
0.0
 11
4249.5274347754148039
 21
171.4106617178084093
 31
0.0
  0
LINE
  5
18873
  8
0
 10
4250.6072487363144319
 20
171.8936363700809977
 30
0.0
 11
4250.6072487363144319
 21
171.9565336547084087
 31
0.0
  0
LINE
  5
18874
  8
0
 10
4250.6096108404135521
 20
171.4106617178084093
 30
0.0
 11
4250.6096108404135521
 21
171.4697168359084003
 31
0.0
  0
LINE
  5
18875
  8
0
 10
4263.7633129717141856
 20
172.8029566161083892
 30
0.0
 11
4262.902777837614849
 21
172.5723108436083919
 31
0.0
  0
LINE
  5
18876
  8
0
 10
4247.9230792956468576
 20
171.1409531231242056
 30
0.0
 11
4259.8545660487152418
 21
171.2038492360084092
 31
0.0
  0
LINE
  5
18877
  8
0
 10
4250.5702484629136961
 20
171.3712916391083922
 30
0.0
 11
4249.566801336413846
 21
171.3712916391083922
 31
0.0
  0
LINE
  5
18878
  8
0
 10
4263.5006212763137228
 20
171.3712916391083922
 30
0.0
 11
4264.6596028714138811
 21
171.3712916391083922
 31
0.0
  0
LINE
  5
18879
  8
0
 10
4263.509042179413882
 20
171.429322550708406
 30
0.0
 11
4264.6565616001926173
 21
171.429322550708406
 31
0.0
  0
LINE
  5
1887A
  8
0
 10
4258.3448813772138237
 20
171.4303467572084116
 30
0.0
 11
4257.218879755114358
 21
171.4303467572084116
 31
0.0
  0
LINE
  5
1887B
  8
0
 10
4250.6096108404135521
 20
171.4697168359084003
 30
0.0
 11
4249.5274347754148039
 21
171.4697168359084003
 31
0.0
  0
LINE
  5
1887C
  8
0
 10
4258.3842413004140326
 20
171.5287719540083913
 30
0.0
 11
4257.1795198563149825
 21
171.5287719540083913
 31
0.0
  0
LINE
  5
1887D
  8
0
 10
4264.6244160793148694
 20
171.6862522690084063
 30
0.0
 11
4263.5987847631140539
 21
171.6862522690084063
 31
0.0
  0
LINE
  5
1887E
  8
0
 10
4258.3554610332148513
 20
171.9348315254084127
 30
0.0
 11
4257.2301453409154419
 21
171.8955346355083975
 31
0.0
  0
LINE
  5
1887F
  8
0
 10
4257.1556778842150379
 20
171.9914193660083868
 30
0.0
 11
4258.4235143190144299
 21
172.0356931899083861
 31
0.0
  0
LINE
  5
18880
  8
0
 10
4250.6072487363144319
 20
171.9565336547084087
 30
0.0
 11
4249.5250896683137398
 21
171.9565336547084087
 31
0.0
  0
LINE
  5
18881
  8
0
 10
4257.1873744292133779
 20
171.9925262337501124
 30
0.0
 11
4257.1894354231144462
 21
171.9335070904083977
 31
0.0
  0
LINE
  5
18882
  8
0
 10
4257.1795198563149825
 20
171.5287719540083913
 30
0.0
 11
4257.1795198563149825
 21
171.4697168359084003
 31
0.0
  0
LINE
  5
18883
  8
0
 10
4258.3934229835149381
 20
171.9755512625083895
 30
0.0
 11
4258.3913619896129603
 21
172.0345704058246099
 31
0.0
  0
LINE
  5
18884
  8
0
 10
4258.3842413004140326
 20
171.4697168359084003
 30
0.0
 11
4258.3842413004140326
 21
171.5287719540083913
 31
0.0
  0
LINE
  5
18885
  8
0
 10
4263.5006212763137228
 20
171.3712916391083922
 30
0.0
 11
4263.5006212763137228
 21
171.4049883849083926
 31
0.0
  0
LINE
  5
18886
  8
0
 10
4263.6004908168151815
 20
172.3626446878083982
 30
0.0
 11
4263.6001494103793448
 21
172.3155868711264986
 31
0.0
  0
LINE
  5
18887
  8
0
 10
4264.6596028714138811
 20
171.3712916391083922
 30
0.0
 11
4264.6440741410142437
 21
171.6675974650084129
 31
0.0
  0
LINE
  5
18888
  8
0
 10
4264.6424495321143695
 20
171.7065639824083974
 30
0.0
 11
4264.6227439371987202
 21
172.3098406767128949
 31
0.0
  0
LINE
  5
18889
  8
0
 10
4263.6001494103793448
 20
172.3155868711264986
 30
0.0
 11
4263.5807513103136444
 21
171.7065639824083974
 31
0.0
  0
LINE
  5
1888A
  8
0
 10
4263.6004908168151815
 20
172.3626446878083982
 30
0.0
 11
4263.6032871636143682
 21
172.4160021623083878
 31
0.0
  0
LINE
  5
1888B
  8
0
 10
4263.5759777614148334
 20
171.607512111508413
 30
0.0
 11
4263.5791267014137702
 21
171.6675974650084129
 31
0.0
  0
LINE
  5
1888C
  8
0
 10
4264.4842576051141805
 20
172.8824158507084121
 30
0.0
 11
4264.6034024555547148
 21
172.4775670114885884
 31
0.0
  0
LINE
  5
1888D
  8
0
 10
4264.4842576051141805
 20
172.8824158507084121
 30
0.0
 11
4264.3482849807141974
 21
173.346427084808397
 31
0.0
  0
ARC
  5
18890
  8
0
 10
4247.8359469349461506
 20
171.2451537550373075
 30
0.0
 40
0.1045019158842536
 50
261.4150187226513822
 51
265.6482101635322124
  0
ARC
  5
18891
  8
0
 10
4247.8418874948665689
 20
171.3379065458983064
 30
0.0
 40
0.1969534227741266
 50
270.0
 51
270.2982947619565834
  0
ARC
  5
18892
  8
0
 10
4247.8439551433548331
 20
171.3413395016715981
 30
0.0
 40
0.2009086220100829
 50
231.6560916442423093
 51
263.2518446430648282
  0
ARC
  5
18893
  8
0
 10
4245.5309896736380324
 20
172.2303782387012063
 30
0.0
 40
0.1180969428801169
 50
90.0073331200226647
 51
178.9945628355791882
  0
ARC
  5
18894
  8
0
 10
4261.1569567861752148
 20
169.6715913381752898
 30
0.0
 40
1.968493863251191
 50
107.8426075452258033
 51
127.0094404213464969
  0
ARC
  5
18895
  8
0
 10
4256.9321501938011352
 20
171.8671458667446927
 30
0.0
 40
0.2456059522925931
 50
32.9030455235950967
 51
85.5726034081274349
  0
ARC
  5
18896
  8
0
 10
4258.6438550009143
 20
171.9263174177083897
 30
0.0
 40
0.2362584078000263
 50
94.4273330642239443
 51
149.7207572191877887
  0
ARC
  5
18897
  8
0
 10
4259.0190849276432346
 20
169.8591049599168059
 30
0.0
 40
1.852657372603814
 50
95.4738099662901902
 51
105.7334318382813052
  0
ARC
  5
18898
  8
0
 10
4256.8341971900899807
 20
170.6920836970064101
 30
0.0
 40
0.9389657868291553
 50
75.6086486981842256
 51
84.7328750448494787
  0
ARC
  5
18899
  8
0
 10
4258.5820383527498052
 20
171.4571385659832004
 30
0.0
 40
0.1963938057992025
 50
109.4276998450061029
 51
133.222078047505704
  0
ARC
  5
1889A
  8
0
 10
4257.0137652888397497
 20
171.4130021653830909
 30
0.0
 40
0.1961089155980423
 50
54.7160823271224714
 51
74.075675488873344
  0
ARC
  5
1889B
  8
0
 10
4257.0139556603153324
 20
171.4132544074084024
 30
0.0
 40
0.1957897608
 50
41.202722879506112
 51
47.6998956042852882
  0
ARC
  5
1889C
  8
0
 10
4258.5813739777140654
 20
171.4575801835084121
 30
0.0
 40
0.195591874
 50
145.8185986200122954
 51
151.9234031649110079
  0
ARC
  5
1889D
  8
0
 10
4257.0142551892504343
 20
171.4136698021708014
 30
0.0
 40
0.195280943922508
 50
47.6828707048279696
 51
54.72026610043158
  0
ARC
  5
1889E
  8
0
 10
4258.5810764036623368
 20
171.4579845906229139
 30
0.0
 40
0.1951185718528192
 50
133.1863719917054141
 51
145.8677460055808979
  0
ARC
  5
1889F
  8
0
 10
4258.3540619456589411
 20
171.9741911955941021
 30
0.0
 40
0.0393845284739452
 50
272.0357913299844768
 51
1.978990064929073
  0
ARC
  5
188A0
  8
0
 10
4258.3448567084260503
 20
171.4697313441421045
 30
0.0
 40
0.0393845946594706
 50
270.0358875722556036
 51
359.9788937632138754
  0
ARC
  5
188A1
  8
0
 10
4257.2287953768363877
 20
171.934895942184113
 30
0.0
 40
0.0393844495484279
 50
182.0208952488092962
 51
271.9642879041749097
  0
ARC
  5
188A2
  8
0
 10
4257.2189043531261632
 20
171.4697312489753926
 30
0.0
 40
0.0393844994485252
 50
180.0209678411918901
 51
269.9642153045185751
  0
ARC
  5
188A3
  8
0
 10
4258.3659000154530077
 20
171.5752462364532107
 30
0.0
 40
0.0499626026423976
 50
291.5368942465898954
 51
329.163352353306891
  0
ARC
  5
188A4
  8
0
 10
4257.1549923332186154
 20
172.0110941288745892
 30
0.0
 40
0.0196867029745749
 50
212.3371491514490117
 51
271.9956171293866873
  0
ARC
  5
188A5
  8
0
 10
4258.4228273567096039
 20
172.0553653302995087
 30
0.0
 40
0.0196841312933216
 50
271.9999884329852193
 51
329.7278456618566906
  0
ARC
  5
188A6
  8
0
 10
4259.8535346860044228
 20
171.4006964240074069
 30
0.0
 40
0.196849889845461
 50
270.3001932125923759
 51
307.0097258220312142
  0
ARC
  5
188A7
  8
0
 10
4257.9784141697609812
 20
168.6717092364318944
 30
0.0
 40
3.4585040269346181
 50
90.5212629075038393
 51
95.8796606627227561
  0
ARC
  5
188A8
  8
0
 10
4256.9533262133227254
 20
200.5929607922037121
 30
0.0
 40
28.4802288040433105
 50
271.9993520566205802
 51
273.3662073017445096
  0
ARC
  5
188A9
  8
0
 10
4258.5665738151146797
 20
191.3946764503083955
 30
0.0
 40
18.8310889907999908
 50
286.335342814011085
 51
287.4056569143198203
  0
ARC
  5
188AA
  8
0
 10
4263.2614487741147968
 20
171.6239958773084027
 30
0.0
 40
0.3149606299
 50
321.8233695684020859
 51
356.9999999999986926
  0
ARC
  5
188AB
  8
0
 10
4263.5399913550136262
 20
171.4049883849083926
 30
0.0
 40
0.0393700787
 50
141.8233695684020859
 51
180.0
  0
ARC
  5
188AC
  8
0
 10
4263.5987847631140539
 20
171.666567229608404
 30
0.0
 40
0.0196850394
 50
90.0
 51
176.9999999999988063
  0
ARC
  5
188AD
  8
0
 10
4263.3439711110286225
 20
172.6902192448189908
 30
0.0
 40
0.2362204723827165
 50
15.0844306268756192
 51
104.6147478447550014
  0
ARC
  5
188AE
  8
0
 10
4264.1116004212135522
 20
172.3358585682084083
 30
0.0
 40
0.5118110236
 50
305.8800988133980923
 51
306.1611771230091108
  0
ARC
  5
188AF
  8
0
 10
4264.111576813245847
 20
172.3358734318296115
 30
0.0
 40
0.5118295936627845
 50
182.2715350375096932
 51
16.0715418446508806
  0
ARC
  5
188B0
  8
0
 10
4264.6244160793148694
 20
171.666567229608404
 30
0.0
 40
0.0196850394
 50
3.000000000001227
 51
90.0
  0
ARC
  5
188B1
  8
0
 10
4264.2348215835581868
 20
173.3130571929440862
 30
0.0
 40
0.118268728676862
 50
16.3887523144491816
 51
88.1065272897000114
  0
ARC
  5
188B2
  8
0
 10
4264.2351960557953134
 20
173.3121512591750957
 30
0.0
 40
0.1191351736857321
 50
91.1758566972236224
 51
107.3788693684165025
  0
ARC
  5
188B3
  8
0
 10
4310.4192909667053755
 20
16.6223071984026092
 30
0.0
 40
162.7505231593376891
 50
106.7612097382872065
 51
107.8419402363733042
  0
ARC
  5
18910
  8
0
 10
4263.6009674242741312
 20
171.7061166544845889
 30
0.0
 40
0.0202210624326018
 50
178.732406217786604
 51
259.9461871955759875
  0
ARC
  5
18911
  8
0
 10
4264.6225477846155627
 20
171.7059989472903112
 30
0.0
 40
0.0199097669034815
 50
277.1279974380558997
 51
1.6262608460147889
  0
ARC
  5
18912
  8
0
 10
4263.5311978121517313
 20
172.415719336521704
 30
0.0
 40
0.0720899062601844
 50
0.2247854980840098
 51
66.9416619769344692
  0
ARC
  5
18913
  8
0
 10
4263.460122364864219
 20
172.5386595836170898
 30
0.0
 40
0.0839717909244237
 50
287.0246056675051136
 51
304.0011997910631862
  0
ARC
  5
18914
  8
0
 10
4257.0322818855411242
 20
197.1772494566282035
 30
0.0
 40
25.53816287781369
 50
273.784284787341619
 51
278.9764298138662184
  0
ARC
  5
18915
  8
0
 10
4256.930540079214552
 20
197.8804134843520046
 30
0.0
 40
26.2485911850742291
 50
278.9563094242993202
 51
284.5099607356165166
  0
ARC
  5
18916
  8
0
 10
4257.5301766739066807
 20
196.6416487694789907
 30
0.0
 40
24.9005654390568196
 50
283.8883604274139998
 51
286.3147038618777174
  0
ARC
  5
18917
  8
0
 10
4256.7190342987951226
 20
200.7034861841314921
 30
0.0
 40
29.0774950277501603
 50
270.496918466842601
 51
273.9415904027594024
  0
ARC
  5
18918
  8
0
 10
4249.5484896996413227
 20
171.5105607765509887
 30
0.0
 40
0.0413268524262102
 50
199.5912182493881062
 51
261.2324313221212151
  0
ARC
  5
18919
  8
0
 10
4249.3217574102673098
 20
171.4334976271429127
 30
0.0
 40
0.1981490421548576
 50
18.6013660762951893
 51
45.7150574452977168
  0
ARC
  5
1891A
  8
0
 10
4249.3294227733604203
 20
171.4416766893860995
 30
0.0
 40
0.1869418143657911
 50
45.6465900003475085
 51
82.6555042119559431
  0
ARC
  5
1891B
  8
0
 10
4249.5681896272981248
 20
171.4120463671054893
 30
0.0
 40
0.0407783668835961
 50
181.9458801304919007
 51
268.0490002869790942
  0
ARC
  5
1891C
  8
0
 10
4250.5688557323774148
 20
171.4120464754660986
 30
0.0
 40
0.0407786265694412
 50
271.9572288244513061
 51
358.0539799267143053
  0
ARC
  5
1891D
  8
0
 10
4250.5927022517180376
 20
171.5092596483897012
 30
0.0
 40
0.0396462844325367
 50
274.1403990702804094
 51
336.6062238772017849
  0
ARC
  5
1891E
  8
0
 10
4250.8030001142342371
 20
171.4186015215655061
 30
0.0
 40
0.1893604946343263
 50
117.8330111344342015
 51
156.6947455780725988
  0
ARC
  5
1891F
  8
0
 10
4250.6220921476287913
 20
172.3869277328662974
 30
0.0
 40
0.8061961365506114
 50
276.5881512185803786
 51
281.3639465022109789
  0
ARC
  5
18920
  8
0
 10
4250.7455118139923798
 20
171.7734466530588975
 30
0.0
 40
0.1804235056790637
 50
281.3260067845960748
 51
289.9559190093518168
  0
ARC
  5
18921
  8
0
 10
4250.7996119665804144
 20
171.6273656033415023
 30
0.0
 40
0.0246696601109042
 50
287.6450845613089768
 51
315.3047657043517233
  0
ARC
  5
18922
  8
0
 10
4250.8143226605561722
 20
171.6124662223085977
 30
0.0
 40
0.0037411981352092
 50
319.0563519778824002
 51
12.2707233977526204
  0
ARC
  5
18923
  8
0
 10
4250.8111205789646192
 20
171.610716323288699
 30
0.0
 40
0.0073148258495387
 50
20.3605284989782582
 51
64.6435141431927605
  0
ARC
  5
18924
  8
0
 10
4250.7694892896488454
 20
171.5227185204059026
 30
0.0
 40
0.1046635663257422
 50
64.6787704139186701
 51
85.6800440516715156
  0
ARC
  5
18925
  8
0
 10
4250.8809917482103629
 20
3.0497875746790721
 30
0.0
 40
168.5202031186420868
 50
87.8566227879124426
 51
90.065239795703647
  0
ARC
  5
18926
  8
0
 10
4258.5982785848418644
 20
195.6023154349230992
 30
0.0
 40
24.18130720478322
 50
268.4076046101374118
 51
270.9334492913861823
  0
ARC
  5
18927
  8
0
 10
4258.7642835632441347
 20
184.3251219986819933
 30
0.0
 40
12.9029181337269492
 50
271.0121989558801943
 51
275.4526287440185115
  0
ARC
  5
18928
  8
0
 10
4259.4494555091632719
 20
178.6641217175356076
 30
0.0
 40
7.2038687128618273
 50
274.3060761498351781
 51
278.8181769611894083
  0
ARC
  5
18929
  8
0
 10
4257.2290407680266071
 20
171.6150761733377124
 30
0.0
 40
0.0995024571098545
 50
227.0664240521265924
 51
240.1530205331796992
  0
ARC
  5
1892A
  8
0
 10
4256.5508726599045985
 20
209.1211918043115077
 30
0.0
 40
37.2562463858682023
 50
271.1435180758073216
 51
272.7465311771838969
  0
ARC
  5
1892B
  8
0
 10
4257.0212356426991391
 20
196.9523971697608999
 30
0.0
 40
25.0791473105969303
 50
273.0053255154883232
 51
276.9146044298847187
  0
ARC
  5
1892C
  8
0
 10
4257.2280282337160315
 20
195.8237149435435924
 30
0.0
 40
23.9338792443981205
 50
276.7484503826671016
 51
283.7155091114336187
  0
ARC
  5
1892D
  8
0
 10
1826.2445171989470509
 20
8948.7048651522418368
 30
0.0
 40
9108.1256133187853266
 50
285.5227064251591855
 51
285.5264668336698719
  0
ARC
  5
1892E
  8
0
 10
4264.3707004464622514
 20
172.8449492567183086
 30
0.0
 40
0.1221148825630443
 50
28.1865465826637198
 51
104.9083978824151018
  0
ARC
  5
1892F
  8
0
 10
4257.2572259941971424
 20
195.2994674734777902
 30
0.0
 40
23.1780256327713303
 50
273.3846132759214242
 51
285.0722527021724204
  0
ARC
  5
18930
  8
0
 10
4250.575312968491744
 20
171.8976226983008928
 30
0.0
 40
0.0321835995359609
 50
308.2985774764778739
 51
352.8849517593185965
  0
ARC
  5
18931
  8
0
 10
4249.5742710749864273
 20
171.8986082954062908
 30
0.0
 40
0.0492115747158188
 50
181.3154648788427039
 51
212.2266138609998052
  0
ARC
  5
18932
  8
0
 10
4250.8413325993096805
 20
171.8787858907508053
 30
0.0
 40
0.2362287689931785
 50
99.1344695933893405
 51
157.622019645338213
  0
ARC
  5
18933
  8
0
 10
4250.6037165933175856
 20
171.9772027306750033
 30
0.0
 40
0.0209687084832992
 50
279.6976113495111917
 51
336.1427285955180082
  0
ARC
  5
18934
  8
0
 10
4249.5284667725381951
 20
171.9771632048594938
 30
0.0
 40
0.020904142469274
 50
204.1296943702714088
 51
260.7030136647172753
  0
ARC
  5
18935
  8
0
 10
4249.2914948760881089
 20
171.8774251657688978
 30
0.0
 40
0.2362074813525856
 50
22.7101123173807409
 51
83.298786316769025
  0
ARC
  5
18936
  8
0
 10
4245.8497034868269111
 20
161.5243457620227048
 30
0.0
 40
10.3483075218465004
 50
90.4274715099691377
 51
91.7956776390988836
  0
ARC
  5
18937
  8
0
 10
4245.5312443711118249
 20
171.749590597501907
 30
0.0
 40
0.1181238247605715
 50
92.8186827288067065
 51
179.9939261229922067
  0
ARC
  5
18938
  8
0
 10
4256.4224049135136738
 20
199.0818070841029908
 30
0.0
 40
26.81117505840513
 50
281.7316161442175826
 51
286.1121113587468017
  0
ARC
  5
18939
  8
0
 10
4257.4308566798063111
 20
193.8345495300266066
 30
0.0
 40
21.4686299271294097
 50
273.8690500192537911
 51
281.9438576240685279
  0
ARC
  5
1893A
  8
0
 10
4256.8583693929858782
 20
202.3388206009319958
 30
0.0
 40
29.9921481617835504
 50
270.6282069594607833
 51
273.8639786315150104
  0
ARC
  5
1893D
  8
0
 10
4246.5122965668533652
 20
169.6758642290643877
 30
0.0
 40
1.9314927193678211
 50
51.3240487411753605
 51
75.7469268798628832
  0
ARC
  5
1893E
  8
0
 10
4246.5037452349442901
 20
169.7345606545717942
 30
0.0
 40
1.8768462459353039
 50
75.0527263513826313
 51
85.6682622696275757
  0
ARC
  5
1893F
  8
0
 10
4246.0339284389574459
 20
163.880951435718714
 30
0.0
 40
7.7492648793305428
 50
85.4734725854818436
 51
88.3710644931098983
  0
LINE
  5
189CD
  8
0
 10
4257.1872051094078415
 20
172.3484751806140878
 30
0.0
 11
4245.5309745587537691
 21
172.3484751806140878
 31
0.0
  0
LINE
  5
189D0
  8
0
 10
4257.294389254957423
 20
171.8723652746421067
 30
0.0
 11
4245.7724977023763131
 21
171.8723652746421067
 31
0.0
  0
LINE
  5
189D1
  8
0
 10
4245.4131205470148416
 20
171.6270847331622065
 30
0.0
 11
4256.9712162785326655
 21
171.6270847331622065
 31
0.0
  0
LINE
  5
189D5
  8
0
 10
4264.2327512673700767
 20
173.4312613453083998
 30
0.0
 11
4264.2387293382444113
 21
173.4312613453083998
 31
0.0
  0
LINE
  5
189D6
  8
0
 10
4247.8280173238335919
 20
171.1409531231242056
 30
0.0
 11
4247.9230792956468576
 21
171.1409531231242056
 31
0.0
  0
LINE
  5
189D8
  8
0
 10
4245.4108087722088385
 20
172.1120189196317938
 30
0.0
 11
4257.624127015033082
 21
172.1120189196317938
 31
0.0
  0
LINE
  5
189DC
  8
0
 10
4264.3807935009008361
 20
173.2354906471447009
 30
0.0
 11
4263.2843683307137326
 21
172.9187966281083959
 31
0.0
  0
ATTDEF
  5
189DD
  8
DEFPOINTS
 10
4264.6608412408713775
 20
171.3745853837355071
 30
0.0
 40
0.001
  1
K-77471IN
  3

  2
MODELNUMBER
 70
     0
1001
ACDBATTR
1070
     0
1070
     1
  0
ATTDEF
  5
189DE
  8
DEFPOINTS
 10
4264.6608412408713775
 20
171.3729187170688135
 30
0.0
 40
0.001
  1
VEIL
  3

  2
TRADENAME
 70
     0
1001
ACDBATTR
1070
     0
1070
     1
  0
ATTDEF
  5
189DF
  8
DEFPOINTS
 10
4264.6608412408713775
 20
171.3712520504020915
 30
0.0
 40
0.001
  1
TOILET SEAT
  3

  2
PRODUCT
 70
     0
1001
ACDBATTR
1070
     0
1070
     1
  0
ENDSEC
  0
EOF
