  0
SECTION
  2
HEADER
  9
$ACADVER
  1
AC1009
  9
$INSBASE
 10
4666.0760633241743562
 20
512.1288753753294714
 30
0.0
  9
$EXTMIN
 10
4656.90591121873058
 20
512.0959013814991749
 30
-0.0000000349181948
  9
$EXTMAX
 10
4674.6362330103884233
 20
542.1177177860830625
 30
0.0000000814935746
  9
$LIMMIN
 10
0.0
 20
0.0
  9
$LIMMAX
 10
11.6929133858000007
 20
8.2677165353999982
  9
$ORTHOMODE
 70
     0
  9
$REGENMODE
 70
     1
  9
$FILLMODE
 70
     1
  9
$QTEXTMODE
 70
     0
  9
$MIRRTEXT
 70
     0
  9
$DRAGMODE
 70
     2
  9
$LTSCALE
 40
0.6431102362
  9
$OSMODE
 70
     7
  9
$ATTMODE
 70
     1
  9
$TEXTSIZE
 40
0.2
  9
$TRACEWID
 40
0.05
  9
$TEXTSTYLE
  7
STANDARD
  9
$CLAYER
  8
0
  9
$CELTYPE
  6
BYLAYER
  9
$CECOLOR
 62
   256
  9
$DIMSCALE
 40
1.0
  9
$DIMASZ
 40
0.1875
  9
$DIMEXO
 40
0.0625
  9
$DIMDLI
 40
0.4443307087
  9
$DIMRND
 40
0.0
  9
$DIMDLE
 40
0.0
  9
$DIMEXE
 40
0.125
  9
$DIMTP
 40
0.01
  9
$DIMTM
 40
0.01
  9
$DIMTXT
 40
2.0
  9
$DIMCEN
 40
0.1052362205
  9
$DIMTSZ
 40
0.0
  9
$DIMTOL
 70
     1
  9
$DIMLIM
 70
     0
  9
$DIMTIH
 70
     1
  9
$DIMTOH
 70
     1
  9
$DIMSE1
 70
     0
  9
$DIMSE2
 70
     0
  9
$DIMTAD
 70
     0
  9
$DIMZIN
 70
     0
  9
$DIMBLK
  1

  9
$DIMASO
 70
     1
  9
$DIMSHO
 70
     1
  9
$DIMPOST
  1
\X
  9
$DIMAPOST
  1

  9
$DIMALT
 70
     1
  9
$DIMALTD
 70
     2
  9
$DIMALTF
 40
25.3999999999999986
  9
$DIMLFAC
 40
1.0
  9
$DIMTOFL
 70
     0
  9
$DIMTVP
 40
0.0
  9
$DIMTIX
 70
     0
  9
$DIMSOXD
 70
     0
  9
$DIMSAH
 70
     0
  9
$DIMBLK1
  1

  9
$DIMBLK2
  1

  9
$DIMSTYLE
  2
STANDARD
  9
$DIMCLRD
 70
     0
  9
$DIMCLRE
 70
     0
  9
$DIMCLRT
 70
     0
  9
$DIMTFAC
 40
1.0
  9
$DIMGAP
 40
0.09
  9
$LUNITS
 70
     2
  9
$LUPREC
 70
     4
  9
$SKETCHINC
 40
0.1
  9
$FILLETRAD
 40
0.0
  9
$AUNITS
 70
     0
  9
$AUPREC
 70
     0
  9
$MENU
  1
.
  9
$ELEVATION
 40
0.0
  9
$PELEVATION
 40
0.0
  9
$THICKNESS
 40
0.0
  9
$LIMCHECK
 70
     0
  9
$BLIPMODE
 70
     0
  9
$CHAMFERA
 40
0.0
  9
$CHAMFERB
 40
0.0
  9
$SKPOLY
 70
     0
  9
$TDCREATE
 40
2458060.468368056230247
  9
$TDUPDATE
 40
2459350.8389583341777325
  9
$TDINDWG
 40
1.4903672916999999
  9
$TDUSRTIMER
 40
1.4903672916999999
  9
$USRTIMER
 70
     1
  9
$ANGBASE
 50
0.0
  9
$ANGDIR
 70
     0
  9
$PDMODE
 70
     0
  9
$PDSIZE
 40
0.3125
  9
$PLINEWID
 40
0.0
  9
$COORDS
 70
     1
  9
$SPLFRAME
 70
     0
  9
$SPLINETYPE
 70
     6
  9
$SPLINESEGS
 70
     8
  9
$ATTDIA
 70
     1
  9
$ATTREQ
 70
     1
  9
$HANDLING
 70
     1
  9
$HANDSEED
  5
1CBD3
  9
$SURFTAB1
 70
     6
  9
$SURFTAB2
 70
     6
  9
$SURFTYPE
 70
     6
  9
$SURFU
 70
     6
  9
$SURFV
 70
     6
  9
$UCSNAME
  2

  9
$UCSORG
 10
0.0
 20
0.0
 30
0.0
  9
$UCSXDIR
 10
1.0
 20
0.0
 30
0.0
  9
$UCSYDIR
 10
0.0
 20
1.0
 30
0.0
  9
$PUCSNAME
  2

  9
$PUCSORG
 10
0.0
 20
0.0
 30
0.0
  9
$PUCSXDIR
 10
1.0
 20
0.0
 30
0.0
  9
$PUCSYDIR
 10
0.0
 20
1.0
 30
0.0
  9
$USERI1
 70
     0
  9
$USERI2
 70
     0
  9
$USERI3
 70
     0
  9
$USERI4
 70
     0
  9
$USERI5
 70
     0
  9
$USERR1
 40
0.0
  9
$USERR2
 40
0.0
  9
$USERR3
 40
0.0
  9
$USERR4
 40
0.0
  9
$USERR5
 40
0.0
  9
$WORLDVIEW
 70
     1
  9
$SHADEDGE
 70
     3
  9
$SHADEDIF
 70
    70
  9
$TILEMODE
 70
     1
  9
$MAXACTVP
 70
    64
  9
$PLIMCHECK
 70
     0
  9
$PEXTMIN
 10
1.0000000000000000E+20
 20
1.0000000000000000E+20
 30
1.0000000000000000E+20
  9
$PEXTMAX
 10
-1.0000000000000000E+20
 20
-1.0000000000000000E+20
 30
-1.0000000000000000E+20
  9
$PLIMMIN
 10
0.0
 20
0.0
  9
$PLIMMAX
 10
12.0
 20
9.0
  9
$UNITMODE
 70
     0
  9
$VISRETAIN
 70
     1
  9
$PLINEGEN
 70
     0
  9
$PSLTSCALE
 70
     1
  0
ENDSEC
  0
SECTION
  2
TABLES
  0
TABLE
  2
VPORT
 70
     1
  0
VPORT
  2
*ACTIVE
 70
     0
 10
0.0
 20
0.0
 11
1.0
 21
1.0
 12
754.4057156692470016
 22
394.5272044812522267
 13
0.0
 23
0.0
 14
1.0
 24
1.0
 15
0.0
 25
0.0
 16
0.0
 26
0.0
 36
60.4960186965801583
 17
3911.3653564453120453
 27
132.5796051025390057
 37
0.0
 40
30.2524577598047699
 41
2.3461538461538458
 42
50.0
 43
0.0
 44
0.0
 50
0.0
 51
0.0
 71
     0
 72
   100
 73
     1
 74
     1
 75
     0
 76
     0
 77
     0
 78
     0
  0
ENDTAB
  0
TABLE
  2
LTYPE
 70
     2
  0
LTYPE
  2
CONTINUOUS
 70
     0
  3
Solid line
 72
    65
 73
     0
 40
0.0
  0
LTYPE
  2
PHANTOM2
 70
     0
  3
___ _ _ ___ _ _ ___ _ _ ___ _ _
 72
    65
 73
     6
 40
1.25
 49
0.625
 49
-0.125
 49
0.125
 49
-0.125
 49
0.125
 49
-0.125
  0
ENDTAB
  0
TABLE
  2
LAYER
 70
     2
  0
LAYER
  2
0
 70
     0
 62
   255
  6
CONTINUOUS
  0
LAYER
  2
DEFPOINTS
 70
     0
 62
     7
  6
CONTINUOUS
  0
ENDTAB
  0
TABLE
  2
STYLE
 70
     1
  0
STYLE
  2
STANDARD
 70
     0
 40
0.0
 41
0.8
 50
0.0
 71
     0
 42
0.2
  3
txt
  4

  0
ENDTAB
  0
TABLE
  2
VIEW
 70
     0
  0
ENDTAB
  0
TABLE
  2
UCS
 70
     0
  0
ENDTAB
  0
TABLE
  2
APPID
 70
    11
  0
APPID
  2
ACAD
 70
     0
  0
APPID
  2
ACAD_MLEADERVER
 70
     0
  0
APPID
  2
ACAD_EXEMPT_FROM_CAD_STANDARDS
 70
     0
  0
APPID
  2
ACAD_NAV_VCDISPLAY
 70
     0
  0
APPID
  2
ACAECLAYERSTANDARD
 70
     0
  0
APPID
  2
ACCMTRANSPARENCY
 70
     0
  0
APPID
  2
ACAD_DSTYLE_DIMJAG
 70
     0
  0
APPID
  2
ACAD_DSTYLE_DIMTALN
 70
     0
  0
APPID
  2
ACDBATTR
 70
     0
  0
APPID
  2
ACADANNOTATIVE
 70
     0
  0
APPID
  2
DCO15
 70
     0
  0
ENDTAB
  0
TABLE
  2
DIMSTYLE
 70
     1
  0
DIMSTYLE
  2
STANDARD
 70
     0
  3

  4

  5

  6

  7

 40
1.0
 41
0.1875
 42
0.0625
 43
0.38
 44
0.125
 45
0.0
 46
0.0
 47
0.01
 48
0.01
140
0.15625
141
0.09
142
0.0
143
25.3999999999999986
144
1.0
145
0.0
146
1.0
147
0.09
 71
     1
 72
     0
 73
     1
 74
     1
 75
     0
 76
     0
 77
     0
 78
     4
170
     0
171
     2
172
     0
173
     0
174
     0
175
     0
176
     0
177
     0
178
     0
  0
ENDTAB
  0
ENDSEC
  0
SECTION
  2
BLOCKS
  0
BLOCK
  8
0
  2
$MODEL_SPACE
 70
     0
 10
0.0
 20
0.0
 30
0.0
  3
$MODEL_SPACE
  1

  0
ENDBLK
  5
21
  8
0
  0
BLOCK
 67
     1
  8
0
  2
$PAPER_SPACE
 70
     0
 10
0.0
 20
0.0
 30
0.0
  3
$PAPER_SPACE
  1

  0
ENDBLK
  5
1D
 67
     1
  8
0
  0
ENDSEC
  0
SECTION
  2
ENTITIES
  0
ATTDEF
  5
159BF
  8
DEFPOINTS
 10
4666.0760633347226758
 20
512.1322087777715524
 30
0.0
 40
0.001
  1
K-7769T
  3

  2
MODELNUMBER
 70
     0
1001
ACDBATTR
1070
     0
1070
     1
  0
ATTDEF
  5
159C0
  8
DEFPOINTS
 10
4666.0760633347226758
 20
512.1305419373925361
 30
0.0
 40
0.001
  1
PINOIR
  3

  2
TRADENAME
 70
     0
1001
ACDBATTR
1070
     0
1070
     1
  0
ATTDEF
  5
159C1
  8
DEFPOINTS
 10
4666.0760633347226758
 20
512.1288754444383358
 30
0.0
 40
0.001
  1
TOILET
  3

  2
PRODUCT
 70
     0
1001
ACDBATTR
1070
     0
1070
     1
  0
LINE
  5
1CA64
  8
0
 10
4671.2419341063750835
 20
512.1288753753294714
 30
0.0
 11
4660.910192541973629
 21
512.1288753753294714
 31
0.0
  0
LINE
  5
1CA65
  8
0
 10
4674.3090461907167992
 20
539.216867501329375
 30
0.0
 11
4657.8431083562909407
 21
539.216867501329375
 31
0.0
  0
LINE
  5
1CA66
  8
0
 10
4674.4742178213382431
 20
539.6783430793293519
 30
0.0
 11
4657.6779088270113789
 21
539.6783430793293519
 31
0.0
  0
LINE
  5
1CA67
  8
0
 10
4673.7039879252743049
 20
525.4538675013294551
 30
0.0
 11
4658.4481387230744076
 21
525.4538675013294551
 31
0.0
  0
LINE
  5
1CA68
  8
0
 10
4659.0924531001828655
 20
527.4768662667794388
 30
0.0
 11
4673.059673548165847
 21
527.4768662667794388
 31
0.0
  0
LINE
  5
1CA69
  8
0
 10
4659.0436417795972375
 20
527.7944250522294851
 30
0.0
 11
4673.1084848687505655
 21
527.7944250522294851
 31
0.0
  0
LINE
  5
1CA6A
  8
0
 10
4667.4414989905289985
 20
528.8444250522294396
 30
0.0
 11
4667.5451203689735848
 21
528.8444250522294396
 31
0.0
  0
LINE
  5
1CA6B
  8
0
 10
4664.710345086248708
 20
528.8444250522294396
 30
0.0
 11
4664.6070062793751276
 21
528.8444250522294396
 31
0.0
  0
LINE
  5
1CA6C
  8
0
 10
4664.0465791192900724
 20
530.4760455936401513
 30
0.0
 11
4668.1055475290595496
 21
530.4760455936401513
 31
0.0
  0
LINE
  5
1CA6D
  8
0
 10
4673.3872051116049988
 20
525.3572218320292677
 30
0.0
 11
4658.7649215367428042
 21
525.3572218320292677
 31
0.0
  0
LINE
  5
1CA6E
  8
0
 10
4659.1110074104872183
 20
528.3366392840292747
 30
0.0
 11
4658.5498626106109441
 21
528.3366392840292747
 31
0.0
  0
LINE
  5
1CA6F
  8
0
 10
4659.5576199920978979
 20
527.7168651859794863
 30
0.0
 11
4658.9911837039899183
 21
527.7168651859794863
 31
0.0
  0
LINE
  5
1CA70
  8
0
 10
4657.8343873124749734
 20
541.5968683391794229
 30
0.0
 11
4674.3177925362670067
 21
541.5968683391794229
 31
0.0
  0
ARC
  5
1CA71
  8
0
 10
4657.8431485339178835
 20
539.3169129123776884
 30
0.0
 40
0.1000454191158556
 50
181.0253968277608863
 51
269.9769903656933252
  0
LINE
  5
1CA72
  8
0
 10
4657.7431191359737568
 20
539.3151225400293924
 30
0.0
 11
4657.7391610012737146
 21
539.5418840933292586
 31
0.0
  0
ARC
  5
1CA73
  8
0
 10
4657.5493592024749887
 20
539.5386645838462982
 30
0.0
 40
0.1898291022705407
 50
0.9717853992437749
 51
47.3758576362000525
  0
ARC
  5
1CA74
  8
0
 10
4657.8067992969836268
 20
539.8181682416061449
 30
0.0
 40
0.1901678975412688
 50
179.0281998178531069
 51
227.3302189349174114
  0
LINE
  5
1CA75
  8
0
 10
4657.6166587524749048
 20
539.8213935461294568
 30
0.0
 11
4657.6443911810747522
 21
541.4101836056294133
 31
0.0
  0
ARC
  5
1CA76
  8
0
 10
4657.8344137382073313
 20
541.4068159446630943
 30
0.0
 40
0.19005239635354
 50
90.0079666607718991
 51
178.9846859985061087
  0
ARC
  5
1CA77
  8
0
 10
4657.8420378254468233
 20
541.7868610290616971
 30
0.0
 40
0.189995853543678
 50
270.3306443966674806
 51
340.2343545845071162
  0
ARC
  5
1CA78
  8
0
 10
4658.1997255285596111
 20
541.658327748261172
 30
0.0
 40
0.1900847921521007
 50
90.9939775573150058
 51
160.2343545845070878
  0
ARC
  5
1CA79
  8
0
 10
4658.2933281395626182
 20
541.7673391344940228
 30
0.0
 40
0.1907799888885635
 50
91.9268583185144905
 51
161.7692723632947889
  0
ARC
  5
1CA7A
  8
0
 10
4666.0760633241743562
 20
306.1353084139628891
 30
0.0
 40
235.9513043596076045
 50
88.1082261230973813
 51
91.8917738769026045
  0
ARC
  5
1CA7B
  8
0
 10
4666.080060242640684
 20
-260.1506667020785244
 30
0.0
 40
802.0377976645535227
 50
90.4226500903596531
 51
90.5631980515429973
  0
ARC
  5
1CA7C
  8
0
 10
4666.0877549887145506
 20
-239.6418250248611912
 30
0.0
 40
781.5295869072778032
 50
89.4718357549816545
 51
90.4343052469317144
  0
LINE
  5
1CA7D
  8
0
 10
4658.1328629435738549
 20
539.216867501329375
 30
0.0
 11
4658.4223698887735736
 21
528.5109502397293681
 31
0.0
  0
LINE
  5
1CA7E
  8
0
 10
4658.6782433353746455
 20
528.1634983949294337
 30
0.0
 11
4658.6833923944750495
 21
528.0160486415294372
 31
0.0
  0
ARC
  5
1CA7F
  8
0
 10
4658.6122875853898222
 20
528.5160776992386218
 30
0.0
 40
0.1899869004145255
 50
181.5465143365925087
 51
250.8176841477801133
  0
ARC
  5
1CA80
  8
0
 10
4658.4883864792791428
 20
528.1568894892678827
 30
0.0
 40
0.1899718490728224
 50
1.9936576150985179
 51
71.1188264651103736
  0
ARC
  5
1CA81
  8
0
 10
4658.9932176831453035
 20
528.0268728235379285
 30
0.0
 40
0.3100143100177366
 50
182.0008948021333879
 51
269.6240842647565046
  0
ARC
  5
1CA82
  8
0
 10
4659.3768809750690707
 20
527.5451465543648055
 30
0.0
 40
0.2493068003889344
 50
14.7967129490050606
 51
89.0971460861121471
  0
ARC
  5
1CA83
  8
0
 10
4659.7145146065549852
 20
527.6343324858820552
 30
0.0
 40
0.0999074597595206
 50
194.7967129490050127
 51
270.0414205082950048
  0
LINE
  5
1CA84
  8
0
 10
4659.7145868320749287
 20
527.5344250522293805
 30
0.0
 11
4661.0829242423951655
 21
527.5344250522293805
 31
0.0
  0
LINE
  5
1CA85
  8
0
 10
4660.2266696045753633
 20
527.5344250522293805
 30
0.0
 11
4660.2266696045753633
 21
527.476867501329366
 31
0.0
  0
LINE
  5
1CA86
  8
0
 10
4660.8037889971737968
 20
527.5344250522293805
 30
0.0
 11
4660.8037889971737968
 21
527.476867501329366
 31
0.0
  0
LINE
  5
1CA87
  8
0
 10
4660.9487675477739685
 20
527.5344250522293805
 30
0.0
 11
4660.9487675477739685
 21
527.476867501329366
 31
0.0
  0
ARC
  5
1CA88
  8
0
 10
4661.0829037107869226
 20
527.6344250593316474
 30
0.0
 40
0.1000000092100163
 50
270.0117637434565836
 51
325.3555918842611163
  0
ARC
  5
1CA89
  8
0
 10
4661.3658833079143733
 20
527.4388866316176063
 30
0.0
 40
0.2439661651489917
 50
132.0153504551572894
 51
145.355591884263788
  0
ARC
  5
1CA8A
  8
0
 10
4659.4753017904949957
 20
524.31497511823693
 30
0.0
 40
3.7292990446451371
 50
57.9787314362566804
 51
68.9079909675820943
  0
ARC
  5
1CA8B
  8
0
 10
4661.4245619201701629
 20
527.7144693716596748
 30
0.0
 40
0.0801965011131906
 50
4.4366306156754218
 51
85.558645657119186
  0
LINE
  5
1CA8C
  8
0
 10
4661.5045181124751252
 20
527.7206730885294519
 30
0.0
 11
4661.5172783762736799
 21
527.5748379205293759
 31
0.0
  0
ARC
  5
1CA8D
  8
0
 10
4661.6268597930866235
 20
527.584425052251845
 30
0.0
 40
0.1100000000246863
 50
185.0000000094377981
 51
257.9065354157788761
  0
LINE
  5
1CA8E
  8
0
 10
4662.9471489142742939
 20
527.7944250522294851
 30
0.0
 11
4662.9279375295736827
 21
527.5748379205293759
 31
0.0
  0
ARC
  5
1CA8F
  8
0
 10
4662.8183561127616485
 20
527.584425052251845
 30
0.0
 40
0.1100000000246858
 50
282.0934645842211239
 51
354.9999999905621735
  0
ARC
  5
1CA90
  8
0
 10
4652.3261641086610325
 20
540.7475266334847674
 30
0.0
 40
13.5141577757803102
 50
301.4486833136726887
 51
305.3280143405302738
  0
ARC
  5
1CA91
  8
0
 10
4659.4315946066153629
 20
529.1290765822953972
 30
0.0
 40
0.1047821418389822
 50
121.4211718784348051
 51
164.6860596171505904
  0
LINE
  5
1CA92
  8
0
 10
4659.3305329445747702
 20
529.15675035532945
 30
0.0
 11
4659.2537875447751503
 21
528.8701508274294838
 31
0.0
  0
LINE
  5
1CA93
  8
0
 10
4659.2537875447751503
 20
528.8701508274294838
 30
0.0
 11
4659.2537875447751503
 21
528.8551824876293495
 31
0.0
  0
ARC
  5
1CA94
  8
0
 10
4659.3190901190082513
 20
528.8563814915553394
 30
0.0
 40
0.0653135806080049
 50
181.0518750172603006
 51
259.9987425063918067
  0
ARC
  5
1CA95
  8
0
 10
4659.4682518590598193
 20
529.5498948559115888
 30
0.0
 40
0.7746449526294525
 50
258.0418130322789239
 51
266.4339758236209263
  0
ARC
  5
1CA96
  8
0
 10
4661.1752558436619438
 20
559.0432070074523381
 30
0.0
 40
30.3173071122968807
 50
266.6810704818989279
 51
269.0009838546487231
  0
ARC
  5
1CA97
  8
0
 10
4395.1484919635504411
 20
-11474.6340994733691332
 30
0.0
 40
12006.3004788091493538
 50
88.7268192260564348
 51
88.7329015359061799
  0
ARC
  5
1CA98
  8
0
 10
4664.2871630033787369
 20
613.5199547682638013
 30
0.0
 40
84.850699327635553
 50
268.4019628087663136
 51
269.9582228264716832
  0
ARC
  5
1CA99
  8
0
 10
4660.8616697087527427
 20
528.6821113370986041
 30
0.0
 40
0.0449425366573239
 50
5.00395832584607
 51
73.633257858323077
  0
LINE
  5
1CA9A
  8
0
 10
4660.9064409547736432
 20
528.6860314303294217
 30
0.0
 11
4660.9079138895749566
 21
528.6691957077293864
 31
0.0
  0
ARC
  5
1CA9B
  8
0
 10
4660.9676855714806152
 20
528.6744250522460788
 30
0.0
 40
0.060000000016735
 50
184.9999999524646057
 51
269.9999768844850223
  0
ARC
  5
1CA9C
  8
0
 10
4659.3055155394558824
 20
528.5061956190602359
 30
0.0
 40
0.1441047817392831
 50
124.6831316729846009
 51
165.5621955243744026
  0
ARC
  5
1CA9D
  8
0
 10
4659.3408438018559536
 20
528.4346985726557477
 30
0.0
 40
0.2233039873853011
 50
95.1877500083797088
 51
121.6967929549953027
  0
ARC
  5
1CA9E
  8
0
 10
4659.5230298149936061
 20
527.0642890041295914
 30
0.0
 40
1.605604139520028
 50
93.812905146203164
 51
97.2410607658381565
  0
ARC
  5
1CA9F
  8
0
 10
4660.6477218774471112
 20
507.2498827823648071
 30
0.0
 40
21.4518321821472888
 50
91.6106100392123039
 51
93.2909271859609674
  0
ARC
  5
1CAA0
  8
0
 10
4662.2823413837413682
 20
455.9608232395315781
 30
0.0
 40
72.7668270295998383
 50
91.0940600207912468
 51
91.7621078508824155
  0
LINE
  5
1CAA1
  8
0
 10
4659.1659617507748408
 20
528.5421251081294258
 30
0.0
 11
4658.9860574291751618
 21
527.8694250522294169
 31
0.0
  0
LINE
  5
1CAA2
  8
0
 10
4658.9860574291751618
 20
527.8694250522294169
 30
0.0
 11
4658.9860574291751618
 21
527.8544250574293528
 31
0.0
  0
ARC
  5
1CAA3
  8
0
 10
4659.0460592378931324
 20
527.8543781601069895
 30
0.0
 40
0.0600018270454927
 50
179.9552177150692103
 51
267.690942680112073
  0
ARC
  5
1CAA4
  8
0
 10
4659.3027873570899828
 20
528.6469298742421188
 30
0.0
 40
0.0026033076063586
 50
123.0612484680013949
 51
238.2254827053436088
  0
ARC
  5
1CAA5
  8
0
 10
4659.3567098555604389
 20
528.5193312782610064
 30
0.0
 40
0.1410877923886997
 50
96.7174733707917369
 51
113.0950186098584993
  0
ARC
  5
1CAA6
  8
0
 10
4659.3748432783022508
 20
528.8206303887379818
 30
0.0
 40
0.1906229377024851
 50
247.3442306961950123
 51
264.9876607524669794
  0
ARC
  5
1CAA7
  8
0
 10
4660.0233283448087604
 20
536.2145083231731633
 30
0.0
 40
7.6128843040793486
 50
264.9876607524669794
 51
269.2572313213078132
  0
ARC
  5
1CAA8
  8
0
 10
4660.1952939178599991
 20
549.4788662276972673
 30
0.0
 40
20.8783568843392118
 50
269.2572313213078132
 51
272.1073090930013905
  0
LINE
  5
1CAA9
  8
0
 10
4660.9676855472744137
 20
528.6144250522294215
 30
0.0
 11
4661.7536530321003738
 21
528.6144250522294215
 31
0.0
  0
ARC
  5
1CAAA
  8
0
 10
4663.0720674339427205
 20
344.3076008283806004
 30
0.0
 40
184.3115397147332999
 50
89.0661251730502812
 51
90.4098507625268297
  0
LINE
  5
1CAAB
  8
0
 10
4661.6958289393742234
 20
528.7072740906294257
 30
0.0
 11
4661.6924975124748016
 21
528.6691957077293864
 31
0.0
  0
ARC
  5
1CAAC
  8
0
 10
4661.6314274141095666
 20
528.6746201269513676
 30
0.0
 40
0.0613105312169079
 50
280.9460408110580829
 51
354.9241471473241063
  0
ARC
  5
1CAAD
  8
0
 10
4664.22601578562535
 20
528.9162324906761796
 30
0.0
 40
0.246955548497311
 50
269.8325827148332223
 51
314.5050068903009901
  0
ARC
  5
1CAAE
  8
0
 10
4664.6070062793751276
 20
528.5944250522294396
 30
0.0
 40
0.2499999999999902
 50
90.0
 51
135.0143785843031878
  0
LINE
  5
1CAAF
  8
0
 10
4664.3991246091736684
 20
528.7401064615294217
 30
0.0
 11
4664.4301852268899893
 21
528.7711573792051922
 31
0.0
  0
ARC
  5
1CAB0
  8
0
 10
4666.0759220383897627
 20
557.25837546783373
 30
0.0
 40
28.446746362855599
 50
267.2484769655786181
 51
272.7515230344213819
  0
ARC
  5
1CAB1
  8
0
 10
4661.7176059380990409
 20
527.5554421578722213
 30
0.0
 40
2.6795441356693428
 50
125.2464081675127971
 51
126.047440527514695
  0
ARC
  5
1CAB2
  8
0
 10
4660.4666385480450117
 20
529.2769735759875402
 30
0.0
 40
0.5523998008654232
 50
112.3399040227273957
 51
122.3251965391987
  0
ARC
  5
1CAB3
  8
0
 10
4666.5602858106176427
 20
513.6494647418229533
 30
0.0
 40
17.3258498863974602
 50
107.7779923089770051
 51
111.3354216164739938
  0
ARC
  5
1CAB4
  8
0
 10
4663.0255605382626527
 20
524.8008215117951067
 30
0.0
 40
5.6278851061307318
 50
98.5227344299773335
 51
108.1741086432325005
  0
ARC
  5
1CAB5
  8
0
 10
4663.6949943665640603
 20
519.5240434213521894
 30
0.0
 40
10.9462614080061194
 50
91.2886223137197987
 51
97.8946774492272169
  0
ARC
  5
1CAB6
  8
0
 10
4664.0632793632812536
 20
508.3030149260815733
 30
0.0
 40
22.1730369566877705
 50
90.0431539256513247
 51
91.5879688072093074
  0
ARC
  5
1CAB7
  8
0
 10
4659.3508944038148911
 20
529.1756730255399361
 30
0.0
 40
0.0277966989102771
 50
222.9024682595006936
 51
260.2711935180499268
  0
ARC
  5
1CAB8
  8
0
 10
4659.6356931956270273
 20
530.836785540690812
 30
0.0
 40
1.713146852382506
 50
260.2711935180499268
 51
265.718994233895728
  0
ARC
  5
1CAB9
  8
0
 10
4665.0476566741535862
 20
667.1682430330479292
 30
0.0
 40
138.1509430457363123
 50
267.7018255793335015
 51
269.0264795976319192
  0
LINE
  5
1CABA
  8
0
 10
4657.8078139408744391
 20
538.3160017317294432
 30
0.0
 11
4657.2928879355740719
 21
538.2930766484292917
 31
0.0
  0
ARC
  5
1CABB
  8
0
 10
4657.2954826292379948
 20
538.2422278590462383
 30
0.0
 40
0.0509149468912785
 50
92.921134736134519
 51
177.1883171595297028
  0
LINE
  5
1CABC
  8
0
 10
4657.2991915886750576
 20
536.2215943458294305
 30
0.0
 11
4657.2446289760036962
 21
538.1368960968122792
 31
0.0
  0
LINE
  5
1CABD
  8
0
 10
4657.7550522464744063
 20
538.0367377862294234
 30
0.0
 11
4657.8004767930751768
 21
536.2244451124292937
 31
0.0
  0
ARC
  5
1CABE
  8
0
 10
4657.5705137698778344
 20
536.2164348706909323
 30
0.0
 40
0.2301024902301226
 50
358.6440550083565881
 51
1.9949622953252231
  0
LINE
  5
1CABF
  8
0
 10
4657.8005518268737433
 20
536.2109898414294094
 30
0.0
 11
4657.3392363924749588
 21
536.2066877241294378
 31
0.0
  0
ARC
  5
1CAC0
  8
0
 10
4657.3323453490520478
 20
536.7662547649870248
 30
0.0
 40
0.5596094706968575
 50
267.9677782919081892
 51
270.7055593305454977
  0
ARC
  5
1CAC1
  8
0
 10
4657.3145666449590863
 20
536.2222468612575312
 30
0.0
 40
0.0153888963918708
 50
182.4301672502886049
 51
262.2849686126943993
  0
ARC
  5
1CAC2
  8
0
 10
4657.8052494129624392
 20
538.0378385431960169
 30
0.0
 40
0.0502092341037933
 50
96.6752500358545603
 51
181.256218758326213
  0
LINE
  5
1CAC3
  8
0
 10
4657.7994130058368683
 20
538.087707406639538
 30
0.0
 11
4657.8170016340309303
 21
538.0897216369849048
 31
0.0
  0
ARC
  5
1CAC4
  8
0
 10
4657.9313098016637014
 20
538.4300721371149621
 30
0.0
 40
0.1292488123427046
 50
152.0517221733636006
 51
179.5279990769207927
  0
ARC
  5
1CAC5
  8
0
 10
4660.2655840278157484
 20
538.3578599593665786
 30
0.0
 40
2.4646082161149061
 50
178.2962498237446027
 51
180.9798479731869065
  0
LINE
  5
1CAC6
  8
0
 10
4657.8171351444743777
 20
538.4906477357294534
 30
0.0
 11
4657.9703018270747634
 21
538.7832580000294911
 31
0.0
  0
LINE
  5
1CAC7
  8
0
 10
4658.0093800346749049
 20
538.8077754210294188
 30
0.0
 11
4658.0929315850744388
 21
538.8100348099294479
 31
0.0
  0
ARC
  5
1CAC8
  8
0
 10
4658.0106660520877995
 20
538.7623236430335965
 30
0.0
 40
0.0454699677124111
 50
91.6207004499449056
 51
152.5871011260421994
  0
ARC
  5
1CAC9
  8
0
 10
4639.3999542819183262
 20
537.5892806446336181
 30
0.0
 40
18.7327958721705699
 50
359.3615904904067975
 51
3.7364236506746682
  0
LINE
  5
1CACA
  8
0
 10
4658.1315873098592419
 20
537.3805576344967676
 30
0.0
 11
4658.0480357565738814
 21
537.3782979867294216
 31
0.0
  0
ARC
  5
1CACB
  8
0
 10
4658.0468773318689273
 20
537.4237778060856954
 30
0.0
 40
0.0454945701867424
 50
210.5291494468561098
 51
271.4590756783902066
  0
LINE
  5
1CACC
  8
0
 10
4658.0076896358750673
 20
537.4006676265294118
 30
0.0
 11
4657.8389329147739772
 21
537.684572484729415
 31
0.0
  0
ARC
  5
1CACD
  8
0
 10
4657.9562649340841745
 20
537.7530372531367675
 30
0.0
 40
0.1358463369712109
 50
185.6562425629549011
 51
210.2641207447211968
  0
ARC
  5
1CACE
  8
0
 10
4660.2449238641193006
 20
537.9498354921064447
 30
0.0
 40
2.4329401295555431
 50
182.1525668446246868
 51
184.9560907079570882
  0
LINE
  5
1CACF
  8
0
 10
4657.7595812921736069
 20
537.8560434942293114
 30
0.0
 11
4657.8201939688751736
 21
537.8587420386294298
 31
0.0
  0
ARC
  5
1CAD0
  8
0
 10
4657.9137626355359316
 20
538.3139191985840171
 30
0.0
 40
0.1091282086499494
 50
171.2423476106600049
 51
178.9804673962570121
  0
ARC
  5
1CAD1
  8
0
 10
4657.697221655004796
 20
538.3088797642614054
 30
0.0
 40
0.1108213702973819
 50
3.684669141144314
 51
11.2682477334320801
  0
ARC
  5
1CAD2
  8
0
 10
4649.2778142637007477
 20
537.8562597425946024
 30
0.0
 40
8.5423800658332816
 50
0.0166493514932069
 51
3.085089659575285
  0
ARC
  5
1CAD3
  8
0
 10
4657.7312924371526606
 20
537.8587162050879442
 30
0.0
 40
0.0889015354749948
 50
350.3680967728722067
 51
0.0166493514932069
  0
ARC
  5
1CAD4
  8
0
 10
4657.9508459460112135
 20
537.8686234145657181
 30
0.0
 40
0.1342130181243341
 50
184.2829229279022059
 51
190.6405447325379896
  0
ARC
  5
1CAD5
  8
0
 10
4640.4991637177254233
 20
537.6190053069872192
 30
0.0
 40
17.5098872403338284
 50
359.2855378430905944
 51
3.8124755072121559
  0
LINE
  5
1CAD6
  8
0
 10
4658.1083364660780717
 20
538.5453545119869432
 30
0.0
 11
4658.1509906516575938
 21
538.5465079603619643
 31
0.0
  0
LINE
  5
1CAD7
  8
0
 10
4658.1326652420975734
 20
537.6456833995223406
 30
0.0
 11
4658.1753193504246155
 21
537.6468368457667566
 31
0.0
  0
ARC
  5
1CAD8
  8
0
 10
4659.0932385413470911
 20
527.2268675368859476
 30
0.0
 40
0.2499999637323538
 50
90.1800101774656468
 51
158.3784827578249974
  0
ARC
  5
1CAD9
  8
0
 10
4664.4565967519456535
 20
525.1026070525929299
 30
0.0
 40
6.0187167891140723
 50
158.392408188081788
 51
176.6542397081963998
  0
ARC
  5
1CADA
  8
0
 10
4658.0251781443112122
 20
524.9281098523621267
 30
0.0
 40
0.6747716329510574
 50
37.8156895017109633
 51
51.1840799679978886
  0
LINE
  5
1CADB
  8
0
 10
4658.5582390623749234
 20
525.3418281312294766
 30
0.0
 11
4658.6315176676744159
 21
525.3418281312294766
 31
0.0
  0
ARC
  5
1CADC
  8
0
 10
4658.8665024969468504
 20
523.8911629186078471
 30
0.0
 40
1.4695738937183269
 50
93.9636013255105667
 51
99.2010904786162371
  0
ARC
  5
1CADD
  8
0
 10
4662.6012199505948956
 20
525.8149609179928348
 30
0.0
 40
4.0572582714299559
 50
186.6967221788920881
 51
220.5689288570470978
  0
ARC
  5
1CADE
  8
0
 10
4663.9291405625090192
 20
527.0651165749394522
 30
0.0
 40
5.8796622359999811
 50
221.407189334115003
 51
246.8758736902337887
  0
ARC
  5
1CADF
  8
0
 10
4661.5480349109866438
 20
521.470881631333441
 30
0.0
 40
0.200358155490989
 50
6.2204104605499042
 51
68.933556642785689
  0
ARC
  5
1CAE0
  8
0
 10
4660.5638217211298979
 20
521.3636071059446522
 30
0.0
 40
1.190400289385712
 50
354.3244037677808933
 51
6.2204104605499042
  0
ARC
  5
1CAE1
  8
0
 10
4696.1698779523394478
 20
518.3306643760023462
 30
0.0
 40
34.5447184121909601
 50
175.1590712126856033
 51
178.5074326284646133
  0
ARC
  5
1CAE2
  8
0
 10
4576.6615461433566452
 20
524.337803472544465
 30
0.0
 40
85.1286810968093732
 50
351.7543590345724169
 51
356.5604416537694874
  0
ARC
  5
1CAE3
  8
0
 10
4661.9859519540823385
 20
521.7996151247433545
 30
0.0
 40
0.3399098661631763
 50
122.8233829120870979
 51
171.551437735053895
  0
ARC
  5
1CAE4
  8
0
 10
4662.0724998489649806
 20
521.7774623716652513
 30
0.0
 40
0.4288718881786159
 50
170.3227084119039887
 51
190.4632377570785877
  0
ARC
  5
1CAE5
  8
0
 10
4661.5637868171534137
 20
521.6835155577490468
 30
0.0
 40
0.0884432503783987
 50
335.3735056885049062
 51
10.4632377570786108
  0
ARC
  5
1CAE6
  8
0
 10
4662.5117644611545984
 20
520.8463641222673459
 30
0.0
 40
1.4279502329507281
 50
98.8344496926043377
 51
119.8188199335563979
  0
ARC
  5
1CAE7
  8
0
 10
4663.4609384911746019
 20
515.5520451003978906
 30
0.0
 40
6.8063772124306077
 50
92.5178306557375265
 51
99.8851684681415009
  0
ARC
  5
1CAE8
  8
0
 10
4666.0760633241743562
 20
427.6926715208123255
 30
0.0
 40
94.7040257852171266
 50
88.2366772205830756
 51
91.7633227794169386
  0
ARC
  5
1CAE9
  8
0
 10
4665.9350950507478046
 20
424.2697421564129172
 30
0.0
 40
105.4487937577493
 50
91.4765678067671217
 51
91.7793241701626812
  0
ARC
  5
1CAEA
  8
0
 10
4655.71944457851896
 20
723.6608864207083798
 30
0.0
 40
194.11734449890821
 50
271.620170321526416
 51
272.0492812595135206
  0
ARC
  5
1CAEB
  8
0
 10
4661.0088222906488227
 20
535.6514761412036023
 30
0.0
 40
6.0336134918984037
 50
263.4648297409627276
 51
271.8901274108595771
  0
ARC
  5
1CAEC
  8
0
 10
4660.4451730261016564
 20
530.5330209028278432
 30
0.0
 40
0.8845541389405415
 50
250.8725865870273992
 51
262.0033523590483924
  0
ARC
  5
1CAED
  8
0
 10
4660.1644703406082044
 20
529.7191195737661928
 30
0.0
 40
0.0236553096333468
 50
172.8391156450531128
 51
247.2726359973586909
  0
ARC
  5
1CAEE
  8
0
 10
4666.0760633241743562
 20
433.3854270470920937
 30
0.0
 40
96.3405012589705336
 50
88.2999260198742917
 51
91.7000739801256941
  0
LINE
  5
1CAEF
  8
0
 10
4657.2446289760036962
 20
538.1368960968122792
 30
0.0
 11
4657.2446289760036962
 21
538.2447254117978446
 31
0.0
  0
LINE
  5
1CAF0
  8
0
 10
4673.0411192378605847
 20
528.3366392840292747
 30
0.0
 11
4673.6022640377386779
 21
528.3366392840292747
 31
0.0
  0
LINE
  5
1CAF1
  8
0
 10
4672.5945066562508146
 20
527.7168651859794863
 30
0.0
 11
4673.1609429443597037
 21
527.7168651859794863
 31
0.0
  0
LINE
  5
1CAF2
  8
0
 10
4674.0192637047739481
 20
539.216867501329375
 30
0.0
 11
4673.7297567595751389
 21
528.5109502397293681
 31
0.0
  0
LINE
  5
1CAF3
  8
0
 10
4673.4738833129749764
 20
528.1634983949294337
 30
0.0
 11
4673.4687342538745725
 21
528.0160486415294372
 31
0.0
  0
ARC
  5
1CAF4
  8
0
 10
4673.5398390629579808
 20
528.5160776992386218
 30
0.0
 40
0.1899869004145255
 50
289.1823158522199151
 51
358.4534856634073776
  0
ARC
  5
1CAF5
  8
0
 10
4673.6637401690686602
 20
528.1568894892678827
 30
0.0
 40
0.1899718490728224
 50
108.8811735348895979
 51
178.0063423849013873
  0
ARC
  5
1CAF6
  8
0
 10
4673.158908965205228
 20
528.0268728235379285
 30
0.0
 40
0.3100143100177366
 50
270.3759157352436091
 51
357.9991051978665269
  0
ARC
  5
1CAF7
  8
0
 10
4672.7752456732787323
 20
527.5451465543648055
 30
0.0
 40
0.2493068003889344
 50
90.9028539138878671
 51
165.2032870509949021
  0
ARC
  5
1CAF8
  8
0
 10
4672.4376120417928178
 20
527.6343324858820552
 30
0.0
 40
0.0999074597595206
 50
269.9585794917048815
 51
345.2032870509949021
  0
LINE
  5
1CAF9
  8
0
 10
4672.4375398162737838
 20
527.5344250522293805
 30
0.0
 11
4671.069202405955366
 21
527.5344250522293805
 31
0.0
  0
LINE
  5
1CAFA
  8
0
 10
4671.9254570437760776
 20
527.5344250522293805
 30
0.0
 11
4671.9254570437760776
 21
527.476867501329366
 31
0.0
  0
LINE
  5
1CAFB
  8
0
 10
4671.3483376511749157
 20
527.5344250522293805
 30
0.0
 11
4671.3483376511749157
 21
527.476867501329366
 31
0.0
  0
LINE
  5
1CAFC
  8
0
 10
4671.2033591005747439
 20
527.5344250522293805
 30
0.0
 11
4671.2033591005747439
 21
527.476867501329366
 31
0.0
  0
ARC
  5
1CAFD
  8
0
 10
4671.0692229375608804
 20
527.6344250593316474
 30
0.0
 40
0.1000000092100108
 50
214.644408115736212
 51
269.9882362565434164
  0
ARC
  5
1CAFE
  8
0
 10
4670.7862433404343392
 20
527.4388866316176063
 30
0.0
 40
0.2439661651489917
 50
34.6444081157361978
 51
47.9846495448427319
  0
ARC
  5
1CAFF
  8
0
 10
4672.6768248578537168
 20
524.31497511823693
 30
0.0
 40
3.7292990446451371
 50
111.0920090324179057
 51
122.0212685637433054
  0
ARC
  5
1CB00
  8
0
 10
4670.7275647281803685
 20
527.7144693716596748
 30
0.0
 40
0.0801965011131906
 50
94.441354342880814
 51
175.5633693843244885
  0
LINE
  5
1CB01
  8
0
 10
4670.6476085358735872
 20
527.7206730885294519
 30
0.0
 11
4670.6348482720750326
 21
527.5748379205293759
 31
0.0
  0
ARC
  5
1CB02
  8
0
 10
4670.5252668552620889
 20
527.584425052251845
 30
0.0
 40
0.1100000000246863
 50
282.0934645842211239
 51
354.9999999905621735
  0
LINE
  5
1CB03
  8
0
 10
4669.2049777340744185
 20
527.7944250522294851
 30
0.0
 11
4669.2241891187741203
 21
527.5748379205293759
 31
0.0
  0
ARC
  5
1CB04
  8
0
 10
4669.3337705355879734
 20
527.584425052251845
 30
0.0
 40
0.1100000000246858
 50
185.0000000094377981
 51
257.9065354157788761
  0
ARC
  5
1CB05
  8
0
 10
4679.82596253968768
 20
540.7475266334847674
 30
0.0
 40
13.5141577757803102
 50
234.6719856594696978
 51
238.5513166863271977
  0
ARC
  5
1CB06
  8
0
 10
4672.7205320417342591
 20
529.1290765822953972
 30
0.0
 40
0.1047821418389822
 50
15.3139403828494203
 51
58.5788281215651878
  0
LINE
  5
1CB07
  8
0
 10
4672.8215937037748517
 20
529.15675035532945
 30
0.0
 11
4672.8983391035735622
 21
528.8701508274294838
 31
0.0
  0
LINE
  5
1CB08
  8
0
 10
4672.8983391035735622
 20
528.8701508274294838
 30
0.0
 11
4672.8983391035735622
 21
528.8551824876293495
 31
0.0
  0
ARC
  5
1CB09
  8
0
 10
4672.8330365293422801
 20
528.8563814915553394
 30
0.0
 40
0.0653135806080049
 50
280.0012574936081933
 51
358.9481249827397278
  0
ARC
  5
1CB0A
  8
0
 10
4672.6838747892898027
 20
529.5498948559115888
 30
0.0
 40
0.7746449526294525
 50
273.5660241763790168
 51
281.9581869677210761
  0
ARC
  5
1CB0B
  8
0
 10
4670.9768708046858592
 20
559.0432070074523381
 30
0.0
 40
30.3173071122968807
 50
270.9990161453513906
 51
273.3189295181010721
  0
ARC
  5
1CB0C
  8
0
 10
4937.0036354125595608
 20
-11474.6341323588403611
 30
0.0
 40
12006.3005117026696098
 50
91.2670984640938059
 51
91.2731807739435368
  0
ARC
  5
1CB0D
  8
0
 10
4667.8649636449681566
 20
613.5199547682638013
 30
0.0
 40
84.850699327635553
 50
270.0417771735283168
 51
271.5980371912336864
  0
ARC
  5
1CB0E
  8
0
 10
4671.2904569395959697
 20
528.6821113370986041
 30
0.0
 40
0.0449425366573239
 50
106.3667421416768946
 51
174.9960416741539007
  0
LINE
  5
1CB0F
  8
0
 10
4671.2456856935750693
 20
528.6860314303294217
 30
0.0
 11
4671.2442127587737559
 21
528.6691957077293864
 31
0.0
  0
ARC
  5
1CB10
  8
0
 10
4671.1844410768680973
 20
528.6744250522460788
 30
0.0
 40
0.060000000016735
 50
270.0000231155149777
 51
355.0000000475354227
  0
ARC
  5
1CB11
  8
0
 10
4672.8466111088928301
 20
528.5061956190602359
 30
0.0
 40
0.1441047817392831
 50
14.4378044756255601
 51
55.3168683270154133
  0
ARC
  5
1CB12
  8
0
 10
4672.8112828464927588
 20
528.4346985726557477
 30
0.0
 40
0.2233039873853011
 50
58.3032070450046973
 51
84.8122499916203054
  0
ARC
  5
1CB13
  8
0
 10
4672.6290968333560158
 20
527.0642890041295914
 30
0.0
 40
1.605604139520028
 50
82.7589392341618719
 51
86.1870948537968218
  0
ARC
  5
1CB14
  8
0
 10
4671.5044047709016013
 20
507.2498827823648071
 30
0.0
 40
21.4518321821472888
 50
86.7090728140390468
 51
88.3893899607877245
  0
ARC
  5
1CB15
  8
0
 10
4669.8697852646082538
 20
455.9608232395315781
 30
0.0
 40
72.7668270295998383
 50
88.2378921491175703
 51
88.9059399792087675
  0
LINE
  5
1CB16
  8
0
 10
4672.9861648975747812
 20
528.5421251081294258
 30
0.0
 11
4673.1660692191735507
 21
527.8694250522294169
 31
0.0
  0
LINE
  5
1CB17
  8
0
 10
4673.1660692191735507
 20
527.8694250522294169
 30
0.0
 11
4673.1660692191735507
 21
527.8544250574293528
 31
0.0
  0
ARC
  5
1CB18
  8
0
 10
4673.1060674104573991
 20
527.8543781601069895
 30
0.0
 40
0.0600018270454927
 50
272.309057319887927
 51
0.0447822849308342
  0
ARC
  5
1CB19
  8
0
 10
4672.8493392912587296
 20
528.6469298742421188
 30
0.0
 40
0.0026033076063586
 50
301.7745172946562775
 51
56.9387515319985766
  0
ARC
  5
1CB1A
  8
0
 10
4672.7954167927891831
 20
528.5193312782610064
 30
0.0
 40
0.1410877923886997
 50
66.9049813901415149
 51
83.2825266292082773
  0
ARC
  5
1CB1B
  8
0
 10
4672.7772833700482806
 20
528.8206303887379818
 30
0.0
 40
0.1906229377024851
 50
275.0123392475330206
 51
292.6557693038050161
  0
ARC
  5
1CB1C
  8
0
 10
4672.128798303539952
 20
536.2145083231731633
 30
0.0
 40
7.6128843040793486
 50
270.7427686786921868
 51
275.0123392475330206
  0
ARC
  5
1CB1D
  8
0
 10
4671.9568327304887134
 20
549.4788662276972673
 30
0.0
 40
20.8783568843392118
 50
267.8926909069986095
 51
270.7427686786921868
  0
LINE
  5
1CB1E
  8
0
 10
4671.1844411010752083
 20
528.6144250522294215
 30
0.0
 11
4670.3984736162492482
 21
528.6144250522294215
 31
0.0
  0
LINE
  5
1CB1F
  8
0
 10
4670.4562977089735796
 20
528.7072740906294257
 30
0.0
 11
4670.4596291358748203
 21
528.6691957077293864
 31
0.0
  0
ARC
  5
1CB20
  8
0
 10
4670.5206992342391459
 20
528.6746201269513676
 30
0.0
 40
0.0613105312169079
 50
185.0758528526758937
 51
259.0539591889418034
  0
ARC
  5
1CB21
  8
0
 10
4667.926110862724272
 20
528.9162324906761796
 30
0.0
 40
0.246955548497311
 50
225.4949931096990099
 51
270.1674172851667777
  0
ARC
  5
1CB22
  8
0
 10
4667.5451203689735848
 20
528.5944250522294396
 30
0.0
 40
0.2499999999999902
 50
44.9856214156967482
 51
90.0
  0
LINE
  5
1CB23
  8
0
 10
4667.753002039175044
 20
528.7401064615294217
 30
0.0
 11
4667.7219414214596327
 21
528.7711573792051922
 31
0.0
  0
ARC
  5
1CB24
  8
0
 10
4670.4345207102496715
 20
527.5554421578722213
 30
0.0
 40
2.6795441356693428
 50
53.9525594724852979
 51
54.7535918324871602
  0
ARC
  5
1CB25
  8
0
 10
4671.6854881003037008
 20
529.2769735759875402
 30
0.0
 40
0.5523998008654232
 50
57.6748034608012432
 51
67.6600959772725759
  0
ARC
  5
1CB26
  8
0
 10
4665.5918408377310698
 20
513.6494647418229533
 30
0.0
 40
17.3258498863974602
 50
68.6645783835260204
 51
72.2220076910229949
  0
ARC
  5
1CB27
  8
0
 10
4669.1265661100869693
 20
524.8008215117951067
 30
0.0
 40
5.6278851061307318
 50
71.8258913567674853
 51
81.4772655700226949
  0
ARC
  5
1CB28
  8
0
 10
4668.4571322817837427
 20
519.5240434213521894
 30
0.0
 40
10.9462614080061194
 50
82.1053225507727973
 51
88.711377686280187
  0
ARC
  5
1CB29
  8
0
 10
4668.0888472850683684
 20
508.3030149260815733
 30
0.0
 40
22.1730369566877705
 50
88.4120311927907068
 51
89.9568460743486753
  0
ARC
  5
1CB2A
  8
0
 10
4672.8012322445329119
 20
529.1756730255399361
 30
0.0
 40
0.0277966989102771
 50
279.7288064819500732
 51
317.0975317404992779
  0
ARC
  5
1CB2B
  8
0
 10
4672.5164334527207757
 20
530.836785540690812
 30
0.0
 40
1.713146852382506
 50
274.2810057661042151
 51
279.7288064819500732
  0
ARC
  5
1CB2C
  8
0
 10
4667.1044699741951263
 20
667.1682430330479292
 30
0.0
 40
138.1509430457363123
 50
270.9735204023680808
 51
272.2981744206664985
  0
ARC
  5
1CB2D
  8
0
 10
4673.0588881070016214
 20
527.2268675368859476
 30
0.0
 40
0.2499999637323538
 50
21.6215172421749706
 51
89.8199898225343532
  0
ARC
  5
1CB2E
  8
0
 10
4667.695529896403059
 20
525.1026070525929299
 30
0.0
 40
6.0187167891140723
 50
3.3457602918036251
 51
21.6075918119181516
  0
ARC
  5
1CB2F
  8
0
 10
4674.1269485040384097
 20
524.9281098523621267
 30
0.0
 40
0.6747716329510574
 50
128.8159200320021114
 51
142.184310498288994
  0
LINE
  5
1CB30
  8
0
 10
4673.5938875859737891
 20
525.3418281312294766
 30
0.0
 11
4673.5206089806742966
 21
525.3418281312294766
 31
0.0
  0
ARC
  5
1CB31
  8
0
 10
4673.285624151401862
 20
523.8911629186078471
 30
0.0
 40
1.4695738937183269
 50
80.7989095213837629
 51
86.0363986744894476
  0
ARC
  5
1CB32
  8
0
 10
4669.5509066977529073
 20
525.8149609179928348
 30
0.0
 40
4.0572582714299559
 50
319.4310711429528737
 51
353.3032778211078266
  0
ARC
  5
1CB33
  8
0
 10
4668.2229860858396933
 20
527.0651165749394522
 30
0.0
 40
5.8796622359999811
 50
293.1241263097660976
 51
318.5928106658851107
  0
ARC
  5
1CB34
  8
0
 10
4670.6040917373620687
 20
521.470881631333441
 30
0.0
 40
0.200358155490989
 50
111.0664433572142968
 51
173.779589539450086
  0
ARC
  5
1CB35
  8
0
 10
4671.588304927219724
 20
521.3636071059446522
 30
0.0
 40
1.190400289385712
 50
173.779589539450086
 51
185.6755962322191067
  0
ARC
  5
1CB36
  8
0
 10
4635.9822486960101742
 20
518.3306643760023462
 30
0.0
 40
34.5447184121909601
 50
1.492567371535368
 51
4.8409287873143363
  0
ARC
  5
1CB37
  8
0
 10
4755.4905805049920673
 20
524.337803472544465
 30
0.0
 40
85.1286810968093732
 50
183.4395583462305126
 51
188.2456409654276968
  0
ARC
  5
1CB38
  8
0
 10
4670.1661746942672835
 20
521.7996151247433545
 30
0.0
 40
0.3399098661631763
 50
8.4485622649461352
 51
57.1766170879128381
  0
ARC
  5
1CB39
  8
0
 10
4670.0796267993837318
 20
521.7774623716652513
 30
0.0
 40
0.4288718881786159
 50
349.5367622429213839
 51
9.6772915880960344
  0
ARC
  5
1CB3A
  8
0
 10
4670.5883398311962083
 20
521.6835155577490468
 30
0.0
 40
0.0884432503783987
 50
169.5367622429214123
 51
204.6264943114952075
  0
ARC
  5
1CB3B
  8
0
 10
4669.6403621871950236
 20
520.8463641222673459
 30
0.0
 40
1.4279502329507281
 50
60.1811800664435523
 51
81.1655503073956766
  0
ARC
  5
1CB3C
  8
0
 10
4668.6911881571741105
 20
515.5520451003978906
 30
0.0
 40
6.8063772124306077
 50
80.1148315318585276
 51
87.4821693442624735
  0
ARC
  5
1CB3D
  8
0
 10
4666.2170315976009078
 20
424.2697421564129172
 30
0.0
 40
105.4487937577493
 50
88.220675829837333
 51
88.5234321932328641
  0
ARC
  5
1CB3E
  8
0
 10
4676.4326820698297524
 20
723.6608864207083798
 30
0.0
 40
194.11734449890821
 50
267.9507187404864794
 51
268.379829678473584
  0
ARC
  5
1CB3F
  8
0
 10
4671.1433043577007993
 20
535.6514761412036023
 30
0.0
 40
6.0336134918984037
 50
268.1098725891404229
 51
276.5351702590372724
  0
ARC
  5
1CB40
  8
0
 10
4671.706953622247056
 20
530.5330209028278432
 30
0.0
 40
0.8845541389405415
 50
277.9966476409516076
 51
289.1274134129715776
  0
ARC
  5
1CB41
  8
0
 10
4671.9876563077414175
 20
529.7191195737661928
 30
0.0
 40
0.0236553096333468
 50
292.7273640026413091
 51
7.1608843549469272
  0
ARC
  5
1CB42
  8
0
 10
4673.8623049120369615
 20
567.4944362339840609
 30
0.0
 40
25.6462223492084789
 50
268.7256815526242804
 51
270.2086496306831123
  0
ARC
  5
1CB43
  8
0
 10
4666.0760633241743562
 20
677.453608385668872
 30
0.0
 40
148.4547502455396
 50
268.6970688282023048
 51
271.3029311717975816
  0
ARC
  5
1CB44
  8
0
 10
4669.0800592144050825
 20
344.3076008283946976
 30
0.0
 40
184.3115397147192027
 50
89.5901492374731845
 51
90.9338748269497472
  0
ARC
  5
1CB46
  8
0
 10
4674.3089780732943836
 20
539.3169129388601277
 30
0.0
 40
0.100045460720076
 50
270.0390106765041764
 51
358.9745884298706073
  0
LINE
  5
1CB47
  8
0
 10
4674.4090075123749557
 20
539.3151225400293924
 30
0.0
 11
4674.4129656470749978
 21
539.5418840933292586
 31
0.0
  0
ARC
  5
1CB48
  8
0
 10
4674.6027674458737238
 20
539.5386645838462982
 30
0.0
 40
0.1898291022705407
 50
132.6241423637999048
 51
179.0282146007562005
  0
ARC
  5
1CB49
  8
0
 10
4674.3453273513659951
 20
539.8181682416061449
 30
0.0
 40
0.1901678975412688
 50
312.6697810650825886
 51
0.9718001821468703
  0
LINE
  5
1CB4A
  8
0
 10
4674.5354678958738077
 20
539.8213935461294568
 30
0.0
 11
4674.5077354672748697
 21
541.4101836056294133
 31
0.0
  0
ARC
  5
1CB4B
  8
0
 10
4674.3177129101395622
 20
541.4068159446630943
 30
0.0
 40
0.19005239635354
 50
1.015314001493907
 51
89.9920333392281009
  0
ARC
  5
1CB4C
  8
0
 10
4674.3100888229018892
 20
541.7868610290616971
 30
0.0
 40
0.189995853543678
 50
199.7656454154929122
 51
269.6693556033324057
  0
ARC
  5
1CB4D
  8
0
 10
4673.9524011197872824
 20
541.658327748261172
 30
0.0
 40
0.1900847921521007
 50
19.7656454154928802
 51
89.006022442632883
  0
ARC
  5
1CB4E
  8
0
 10
4673.8587985087870038
 20
541.7673391344940228
 30
0.0
 40
0.1907799888885635
 50
18.2307276367051507
 51
88.0731416814854953
  0
ENDSEC
  0
EOF
