  0
SECTION
  2
HEADER
  9
$ACADVER
  1
AC1009
  9
$INSBASE
 10
4993.7314077693099534
 20
581.8533912704674549
 30
0.0
  9
$EXTMIN
 10
4960.2153448499429942
 20
565.8698410520444213
 30
-0.0015258207003583
  9
$EXTMAX
 10
5027.2784190808570202
 20
583.0437907822667967
 30
0.0000000349246037
  9
$LIMMIN
 10
0.0
 20
0.0
  9
$LIMMAX
 10
11.6929133858000007
 20
8.2677165353999982
  9
$ORTHOMODE
 70
     0
  9
$REGENMODE
 70
     1
  9
$FILLMODE
 70
     1
  9
$QTEXTMODE
 70
     0
  9
$MIRRTEXT
 70
     0
  9
$DRAGMODE
 70
     2
  9
$LTSCALE
 40
0.6431102362
  9
$OSMODE
 70
     7
  9
$ATTMODE
 70
     1
  9
$TEXTSIZE
 40
0.2
  9
$TRACEWID
 40
0.05
  9
$TEXTSTYLE
  7
STANDARD
  9
$CLAYER
  8
0
  9
$CELTYPE
  6
BYLAYER
  9
$CECOLOR
 62
   256
  9
$DIMSCALE
 40
1.0
  9
$DIMASZ
 40
0.1875
  9
$DIMEXO
 40
0.0625
  9
$DIMDLI
 40
0.4443307087
  9
$DIMRND
 40
0.0
  9
$DIMDLE
 40
0.0
  9
$DIMEXE
 40
0.125
  9
$DIMTP
 40
0.01
  9
$DIMTM
 40
0.01
  9
$DIMTXT
 40
2.0
  9
$DIMCEN
 40
0.1052362205
  9
$DIMTSZ
 40
0.0
  9
$DIMTOL
 70
     1
  9
$DIMLIM
 70
     0
  9
$DIMTIH
 70
     1
  9
$DIMTOH
 70
     1
  9
$DIMSE1
 70
     0
  9
$DIMSE2
 70
     0
  9
$DIMTAD
 70
     0
  9
$DIMZIN
 70
     0
  9
$DIMBLK
  1

  9
$DIMASO
 70
     1
  9
$DIMSHO
 70
     1
  9
$DIMPOST
  1
\X
  9
$DIMAPOST
  1

  9
$DIMALT
 70
     1
  9
$DIMALTD
 70
     2
  9
$DIMALTF
 40
25.3999999999999986
  9
$DIMLFAC
 40
1.0
  9
$DIMTOFL
 70
     0
  9
$DIMTVP
 40
0.0
  9
$DIMTIX
 70
     0
  9
$DIMSOXD
 70
     0
  9
$DIMSAH
 70
     0
  9
$DIMBLK1
  1

  9
$DIMBLK2
  1

  9
$DIMSTYLE
  2
STANDARD
  9
$DIMCLRD
 70
     0
  9
$DIMCLRE
 70
     0
  9
$DIMCLRT
 70
     0
  9
$DIMTFAC
 40
1.0
  9
$DIMGAP
 40
0.09
  9
$LUNITS
 70
     2
  9
$LUPREC
 70
     4
  9
$SKETCHINC
 40
0.1
  9
$FILLETRAD
 40
0.0
  9
$AUNITS
 70
     0
  9
$AUPREC
 70
     0
  9
$MENU
  1
.
  9
$ELEVATION
 40
0.0
  9
$PELEVATION
 40
0.0
  9
$THICKNESS
 40
0.0
  9
$LIMCHECK
 70
     0
  9
$BLIPMODE
 70
     0
  9
$CHAMFERA
 40
0.0
  9
$CHAMFERB
 40
0.0
  9
$SKPOLY
 70
     0
  9
$TDCREATE
 40
2458060.468368056230247
  9
$TDUPDATE
 40
2459535.4307523141615093
  9
$TDINDWG
 40
1.6974737731
  9
$TDUSRTIMER
 40
1.6974737731
  9
$USRTIMER
 70
     1
  9
$ANGBASE
 50
0.0
  9
$ANGDIR
 70
     0
  9
$PDMODE
 70
     0
  9
$PDSIZE
 40
0.3125
  9
$PLINEWID
 40
0.0
  9
$COORDS
 70
     1
  9
$SPLFRAME
 70
     0
  9
$SPLINETYPE
 70
     6
  9
$SPLINESEGS
 70
     8
  9
$ATTDIA
 70
     1
  9
$ATTREQ
 70
     1
  9
$HANDLING
 70
     1
  9
$HANDSEED
  5
1F13C
  9
$SURFTAB1
 70
     6
  9
$SURFTAB2
 70
     6
  9
$SURFTYPE
 70
     6
  9
$SURFU
 70
     6
  9
$SURFV
 70
     6
  9
$UCSNAME
  2

  9
$UCSORG
 10
0.0
 20
0.0
 30
0.0
  9
$UCSXDIR
 10
1.0
 20
0.0
 30
0.0
  9
$UCSYDIR
 10
0.0
 20
1.0
 30
0.0
  9
$PUCSNAME
  2

  9
$PUCSORG
 10
0.0
 20
0.0
 30
0.0
  9
$PUCSXDIR
 10
1.0
 20
0.0
 30
0.0
  9
$PUCSYDIR
 10
0.0
 20
1.0
 30
0.0
  9
$USERI1
 70
     0
  9
$USERI2
 70
     0
  9
$USERI3
 70
     0
  9
$USERI4
 70
     0
  9
$USERI5
 70
     0
  9
$USERR1
 40
0.0
  9
$USERR2
 40
0.0
  9
$USERR3
 40
0.0
  9
$USERR4
 40
0.0
  9
$USERR5
 40
0.0
  9
$WORLDVIEW
 70
     1
  9
$SHADEDGE
 70
     3
  9
$SHADEDIF
 70
    70
  9
$TILEMODE
 70
     1
  9
$MAXACTVP
 70
    64
  9
$PLIMCHECK
 70
     0
  9
$PEXTMIN
 10
1.0000000000000000E+20
 20
1.0000000000000000E+20
 30
1.0000000000000000E+20
  9
$PEXTMAX
 10
-1.0000000000000000E+20
 20
-1.0000000000000000E+20
 30
-1.0000000000000000E+20
  9
$PLIMMIN
 10
0.0
 20
0.0
  9
$PLIMMAX
 10
12.0
 20
9.0
  9
$UNITMODE
 70
     0
  9
$VISRETAIN
 70
     1
  9
$PLINEGEN
 70
     0
  9
$PSLTSCALE
 70
     1
  0
ENDSEC
  0
SECTION
  2
TABLES
  0
TABLE
  2
VPORT
 70
     1
  0
VPORT
  2
*ACTIVE
 70
     0
 10
0.0
 20
0.0
 11
1.0
 21
1.0
 12
1082.3815255200879619
 22
441.8772108146164896
 13
0.0
 23
0.0
 14
1.0
 24
1.0
 15
0.0
 25
0.0
 16
0.0
 26
0.0
 36
60.4960186965801583
 17
3911.3653564453120453
 27
132.5796051025390057
 37
0.0
 40
29.4651076883578611
 41
2.2831541218637992
 42
50.0
 43
0.0
 44
0.0
 50
0.0
 51
0.0
 71
     0
 72
   100
 73
     1
 74
     1
 75
     0
 76
     0
 77
     0
 78
     0
  0
ENDTAB
  0
TABLE
  2
LTYPE
 70
     2
  0
LTYPE
  2
CONTINUOUS
 70
     0
  3
Solid line
 72
    65
 73
     0
 40
0.0
  0
LTYPE
  2
PHANTOM2
 70
     0
  3
___ _ _ ___ _ _ ___ _ _ ___ _ _
 72
    65
 73
     6
 40
1.25
 49
0.625
 49
-0.125
 49
0.125
 49
-0.125
 49
0.125
 49
-0.125
  0
ENDTAB
  0
TABLE
  2
LAYER
 70
     2
  0
LAYER
  2
0
 70
     0
 62
   255
  6
CONTINUOUS
  0
LAYER
  2
DEFPOINTS
 70
     0
 62
     7
  6
CONTINUOUS
  0
ENDTAB
  0
TABLE
  2
STYLE
 70
     1
  0
STYLE
  2
STANDARD
 70
     0
 40
0.0
 41
0.8
 50
0.0
 71
     0
 42
0.2
  3
txt
  4

  0
ENDTAB
  0
TABLE
  2
VIEW
 70
     0
  0
ENDTAB
  0
TABLE
  2
UCS
 70
     0
  0
ENDTAB
  0
TABLE
  2
APPID
 70
    11
  0
APPID
  2
ACAD
 70
     0
  0
APPID
  2
ACAD_MLEADERVER
 70
     0
  0
APPID
  2
ACAD_EXEMPT_FROM_CAD_STANDARDS
 70
     0
  0
APPID
  2
ACAD_NAV_VCDISPLAY
 70
     0
  0
APPID
  2
ACAECLAYERSTANDARD
 70
     0
  0
APPID
  2
ACCMTRANSPARENCY
 70
     0
  0
APPID
  2
ACAD_DSTYLE_DIMJAG
 70
     0
  0
APPID
  2
ACAD_DSTYLE_DIMTALN
 70
     0
  0
APPID
  2
ACDBATTR
 70
     0
  0
APPID
  2
ACADANNOTATIVE
 70
     0
  0
APPID
  2
DCO15
 70
     0
  0
ENDTAB
  0
TABLE
  2
DIMSTYLE
 70
     1
  0
DIMSTYLE
  2
STANDARD
 70
     0
  3

  4

  5

  6

  7

 40
1.0
 41
0.1875
 42
0.0625
 43
0.38
 44
0.125
 45
0.0
 46
0.0
 47
0.01
 48
0.01
140
0.15625
141
0.09
142
0.0
143
25.3999999999999986
144
1.0
145
0.0
146
1.0
147
0.09
 71
     1
 72
     0
 73
     1
 74
     1
 75
     0
 76
     0
 77
     0
 78
     4
170
     0
171
     2
172
     0
173
     0
174
     0
175
     0
176
     0
177
     0
178
     0
  0
ENDTAB
  0
ENDSEC
  0
SECTION
  2
BLOCKS
  0
BLOCK
  8
0
  2
$MODEL_SPACE
 70
     0
 10
0.0
 20
0.0
 30
0.0
  3
$MODEL_SPACE
  1

  0
ENDBLK
  5
21
  8
0
  0
BLOCK
 67
     1
  8
0
  2
$PAPER_SPACE
 70
     0
 10
0.0
 20
0.0
 30
0.0
  3
$PAPER_SPACE
  1

  0
ENDBLK
  5
1D
 67
     1
  8
0
  0
ENDSEC
  0
SECTION
  2
ENTITIES
  0
ATTDEF
  5
159BF
  8
DEFPOINTS
 10
4993.7314725494015875
 20
581.8567893829847435
 30
0.0
 40
0.001
  1
K-77701K-NW
  3

  2
MODELNUMBER
 70
     0
1001
ACDBATTR
1070
     0
1070
     1
  0
ATTDEF
  5
159C0
  8
DEFPOINTS
 10
4993.7314725494015875
 20
581.8551225426054998
 30
0.0
 40
0.001
  1

  3

  2
TRADENAME
 70
     0
1001
ACDBATTR
1070
     0
1070
     1
  0
ATTDEF
  5
159C1
  8
DEFPOINTS
 10
4993.7314725494015875
 20
581.8534560496514132
 30
0.0
 40
0.001
  1
BATH
  3

  2
PRODUCT
 70
     0
1001
ACDBATTR
1070
     0
1070
     1
  0
LINE
  5
1F05B
  8
0
 10
4960.4084175132666132
 20
581.8533912704674549
 30
0.0
 11
5027.0543980253523841
 21
581.8533912704674549
 31
0.0
  0
LINE
  5
1F05C
  8
0
 10
4960.300129143810409
 20
582.8119789406672453
 30
0.0
 11
4960.2668464504104122
 21
581.8588873052674444
 31
0.0
  0
ARC
  5
1F05D
  8
0
 10
4960.5363055451189211
 20
582.8036669964354815
 30
0.0
 40
0.2363226204842949
 50
90.0039174414737033
 51
177.9843759007175095
  0
LINE
  5
1F05E
  8
0
 10
4960.5362893872097629
 20
583.0399896163672793
 30
0.0
 11
5026.9265261514110534
 21
583.0399896163672793
 31
0.0
  0
LINE
  5
1F05F
  8
0
 10
4963.2009588486089342
 20
581.8533912704674549
 30
0.0
 11
4964.4082404799091819
 21
581.371220419267388
 31
0.0
  0
ARC
  5
1F060
  8
0
 10
4964.2971567815202434
 20
581.1549407910509899
 30
0.0
 40
0.2431387785387903
 50
24.2991474635172011
 51
62.8144476320242973
  0
LINE
  5
1F061
  8
0
 10
4964.5187557497092712
 20
581.2549925922673992
 30
0.0
 11
4969.1283983403091042
 21
570.9015653481674235
 31
0.0
  0
ARC
  5
1F062
  8
0
 10
4976.4608971215484416
 20
574.1642367629038972
 30
0.0
 40
8.0256191747053158
 50
203.9871689562392021
 51
238.0186960128905866
  0
LINE
  5
1F063
  8
0
 10
4972.2101880214104312
 20
567.3567383028672566
 30
0.0
 11
4972.3874612528043144
 21
567.2491473056522864
 31
0.0
  0
ARC
  5
1F064
  8
0
 10
4973.4670014803859885
 20
569.0808071856068864
 30
0.0
 40
2.126119709424299
 50
239.485833621539598
 51
267.9990614069092203
  0
LINE
  5
1F065
  8
0
 10
4973.3927661647094283
 20
566.9559838666674523
 30
0.0
 11
4991.8379402521095471
 21
566.3118641940674252
 31
0.0
  0
ARC
  5
1F066
  8
0
 10
4991.8351922602369086
 20
566.2331720028263362
 30
0.0
 40
0.0787401576176452
 50
35.5376779299147714
 51
87.9999999998398152
  0
LINE
  5
1F067
  8
0
 10
4991.8992657619091915
 20
566.2789387899674693
 30
0.0
 11
4992.1128276793097029
 21
565.9799521055673495
 31
0.0
  0
LINE
  5
1F068
  8
0
 10
4992.2409746827115669
 20
565.9140053643674264
 30
0.0
 11
4995.22184085590834
 21
565.9140053643674264
 31
0.0
  0
ARC
  5
1F069
  8
0
 10
4992.2409746827115669
 20
566.0714856793746321
 30
0.0
 40
0.1574803150071682
 50
215.5376777768248928
 51
269.9999999993746087
  0
LINE
  5
1F06A
  8
0
 10
4960.2668464504104122
 20
581.8588873052674444
 30
0.0
 11
4960.4084175132666132
 21
581.8533912704674549
 31
0.0
  0
LINE
  5
1F06C
  8
0
 10
5027.1626863948104074
 20
582.8119789406672453
 30
0.0
 11
5027.1959690882104042
 21
581.8588873052674444
 31
0.0
  0
ARC
  5
1F06D
  8
0
 10
5026.9265099935009857
 20
582.8036669964354815
 30
0.0
 40
0.2363226204842949
 50
2.015624099282455
 51
89.9960825585262967
  0
LINE
  5
1F06E
  8
0
 10
5024.2618566900091537
 20
581.8533912704674549
 30
0.0
 11
5023.0545750587098155
 21
581.371220419267388
 31
0.0
  0
ARC
  5
1F06F
  8
0
 10
5023.165658757098754
 20
581.1549407910509899
 30
0.0
 40
0.2431387785387903
 50
117.1855523679757027
 51
155.7008525364828131
  0
LINE
  5
1F070
  8
0
 10
5022.9440597889088167
 20
581.2549925922673992
 30
0.0
 11
5018.3344171983098931
 21
570.9015653481674235
 31
0.0
  0
ARC
  5
1F071
  8
0
 10
5011.0019184170723747
 20
574.1642367629038972
 30
0.0
 40
8.0256191747053158
 50
301.981303987109527
 51
336.0128310437607979
  0
LINE
  5
1F072
  8
0
 10
5015.2526275172103851
 20
567.3567383028672566
 30
0.0
 11
5015.075354285814683
 21
567.2491473056522864
 31
0.0
  0
ARC
  5
1F073
  8
0
 10
5013.9958140582330088
 20
569.0808071856068864
 30
0.0
 40
2.126119709424275
 50
272.0009385930907797
 51
300.514166378460402
  0
LINE
  5
1F074
  8
0
 10
5014.0700493739086596
 20
566.9559838666674523
 30
0.0
 11
4995.6248752865094502
 21
566.3118641940674252
 31
0.0
  0
ARC
  5
1F075
  8
0
 10
4995.6276232783811793
 20
566.2331720028263362
 30
0.0
 40
0.0787401576176452
 50
92.0000000001601848
 51
144.4623220700852073
  0
LINE
  5
1F076
  8
0
 10
4995.5635497767098059
 20
566.2789387899674693
 30
0.0
 11
4995.3499878593092944
 21
565.9799521055673495
 31
0.0
  0
ARC
  5
1F077
  8
0
 10
4995.22184085590834
 20
566.0714856793746321
 30
0.0
 40
0.1574803150071682
 50
270.0000000006252776
 51
324.4623222231750788
  0
LINE
  5
1F078
  8
0
 10
5027.1959690882104042
 20
581.8588873052674444
 30
0.0
 11
5027.0543980253523841
 21
581.8533912704674549
 31
0.0
  0
LINE
  5
1F079
  8
0
 10
4991.8379402521095471
 20
566.3118641940674252
 30
0.0
 11
4995.6248752865094502
 21
566.3118641940674252
 31
0.0
  0
ENDSEC
  0
EOF
