  0
SECTION
  2
HEADER
  9
$ACADVER
  1
AC1009
  9
$INSBASE
 10
4981.6360779285978424
 20
681.4519475472952763
 30
0.0
  9
$EXTMIN
 10
4948.110252364283042
 20
664.6838395375298205
 30
-0.0015258207003583
  9
$EXTMAX
 10
5015.1910524986460587
 20
696.2622953793329543
 30
0.0000000349246037
  9
$LIMMIN
 10
0.0
 20
0.0
  9
$LIMMAX
 10
11.6929133858000007
 20
8.2677165353999982
  9
$ORTHOMODE
 70
     0
  9
$REGENMODE
 70
     1
  9
$FILLMODE
 70
     1
  9
$QTEXTMODE
 70
     0
  9
$MIRRTEXT
 70
     0
  9
$DRAGMODE
 70
     2
  9
$LTSCALE
 40
0.6431102362
  9
$OSMODE
 70
     7
  9
$ATTMODE
 70
     1
  9
$TEXTSIZE
 40
0.2
  9
$TRACEWID
 40
0.05
  9
$TEXTSTYLE
  7
STANDARD
  9
$CLAYER
  8
0
  9
$CELTYPE
  6
BYLAYER
  9
$CECOLOR
 62
   256
  9
$DIMSCALE
 40
1.0
  9
$DIMASZ
 40
0.1875
  9
$DIMEXO
 40
0.0625
  9
$DIMDLI
 40
0.4443307087
  9
$DIMRND
 40
0.0
  9
$DIMDLE
 40
0.0
  9
$DIMEXE
 40
0.125
  9
$DIMTP
 40
0.01
  9
$DIMTM
 40
0.01
  9
$DIMTXT
 40
2.0
  9
$DIMCEN
 40
0.1052362205
  9
$DIMTSZ
 40
0.0
  9
$DIMTOL
 70
     1
  9
$DIMLIM
 70
     0
  9
$DIMTIH
 70
     1
  9
$DIMTOH
 70
     1
  9
$DIMSE1
 70
     0
  9
$DIMSE2
 70
     0
  9
$DIMTAD
 70
     0
  9
$DIMZIN
 70
     0
  9
$DIMBLK
  1

  9
$DIMASO
 70
     1
  9
$DIMSHO
 70
     1
  9
$DIMPOST
  1
\X
  9
$DIMAPOST
  1

  9
$DIMALT
 70
     1
  9
$DIMALTD
 70
     2
  9
$DIMALTF
 40
25.3999999999999986
  9
$DIMLFAC
 40
1.0
  9
$DIMTOFL
 70
     0
  9
$DIMTVP
 40
0.0
  9
$DIMTIX
 70
     0
  9
$DIMSOXD
 70
     0
  9
$DIMSAH
 70
     0
  9
$DIMBLK1
  1

  9
$DIMBLK2
  1

  9
$DIMSTYLE
  2
STANDARD
  9
$DIMCLRD
 70
     0
  9
$DIMCLRE
 70
     0
  9
$DIMCLRT
 70
     0
  9
$DIMTFAC
 40
1.0
  9
$DIMGAP
 40
0.09
  9
$LUNITS
 70
     2
  9
$LUPREC
 70
     4
  9
$SKETCHINC
 40
0.1
  9
$FILLETRAD
 40
0.0
  9
$AUNITS
 70
     0
  9
$AUPREC
 70
     0
  9
$MENU
  1
.
  9
$ELEVATION
 40
0.0
  9
$PELEVATION
 40
0.0
  9
$THICKNESS
 40
0.0
  9
$LIMCHECK
 70
     0
  9
$BLIPMODE
 70
     0
  9
$CHAMFERA
 40
0.0
  9
$CHAMFERB
 40
0.0
  9
$SKPOLY
 70
     0
  9
$TDCREATE
 40
2458060.468368056230247
  9
$TDUPDATE
 40
2459535.4308912041597068
  9
$TDINDWG
 40
1.7017446064999999
  9
$TDUSRTIMER
 40
1.7017446064999999
  9
$USRTIMER
 70
     1
  9
$ANGBASE
 50
0.0
  9
$ANGDIR
 70
     0
  9
$PDMODE
 70
     0
  9
$PDSIZE
 40
0.3125
  9
$PLINEWID
 40
0.0
  9
$COORDS
 70
     1
  9
$SPLFRAME
 70
     0
  9
$SPLINETYPE
 70
     6
  9
$SPLINESEGS
 70
     8
  9
$ATTDIA
 70
     1
  9
$ATTREQ
 70
     1
  9
$HANDLING
 70
     1
  9
$HANDSEED
  5
1F2B8
  9
$SURFTAB1
 70
     6
  9
$SURFTAB2
 70
     6
  9
$SURFTYPE
 70
     6
  9
$SURFU
 70
     6
  9
$SURFV
 70
     6
  9
$UCSNAME
  2

  9
$UCSORG
 10
0.0
 20
0.0
 30
0.0
  9
$UCSXDIR
 10
1.0
 20
0.0
 30
0.0
  9
$UCSYDIR
 10
0.0
 20
1.0
 30
0.0
  9
$PUCSNAME
  2

  9
$PUCSORG
 10
0.0
 20
0.0
 30
0.0
  9
$PUCSXDIR
 10
1.0
 20
0.0
 30
0.0
  9
$PUCSYDIR
 10
0.0
 20
1.0
 30
0.0
  9
$USERI1
 70
     0
  9
$USERI2
 70
     0
  9
$USERI3
 70
     0
  9
$USERI4
 70
     0
  9
$USERI5
 70
     0
  9
$USERR1
 40
0.0
  9
$USERR2
 40
0.0
  9
$USERR3
 40
0.0
  9
$USERR4
 40
0.0
  9
$USERR5
 40
0.0
  9
$WORLDVIEW
 70
     1
  9
$SHADEDGE
 70
     3
  9
$SHADEDIF
 70
    70
  9
$TILEMODE
 70
     1
  9
$MAXACTVP
 70
    64
  9
$PLIMCHECK
 70
     0
  9
$PEXTMIN
 10
1.0000000000000000E+20
 20
1.0000000000000000E+20
 30
1.0000000000000000E+20
  9
$PEXTMAX
 10
-1.0000000000000000E+20
 20
-1.0000000000000000E+20
 30
-1.0000000000000000E+20
  9
$PLIMMIN
 10
0.0
 20
0.0
  9
$PLIMMAX
 10
12.0
 20
9.0
  9
$UNITMODE
 70
     0
  9
$VISRETAIN
 70
     1
  9
$PLINEGEN
 70
     0
  9
$PSLTSCALE
 70
     1
  0
ENDSEC
  0
SECTION
  2
TABLES
  0
TABLE
  2
VPORT
 70
     1
  0
VPORT
  2
*ACTIVE
 70
     0
 10
0.0
 20
0.0
 11
1.0
 21
1.0
 12
1070.2852959861509134
 22
547.8934623558923249
 13
0.0
 23
0.0
 14
1.0
 24
1.0
 15
0.0
 25
0.0
 16
0.0
 26
0.0
 36
60.4960186965801583
 17
3911.3653564453120453
 27
132.5796051025390057
 37
0.0
 40
31.8045545709808302
 41
2.2831541218637992
 42
50.0
 43
0.0
 44
0.0
 50
0.0
 51
0.0
 71
     0
 72
   100
 73
     1
 74
     1
 75
     0
 76
     0
 77
     0
 78
     0
  0
ENDTAB
  0
TABLE
  2
LTYPE
 70
     2
  0
LTYPE
  2
CONTINUOUS
 70
     0
  3
Solid line
 72
    65
 73
     0
 40
0.0
  0
LTYPE
  2
PHANTOM2
 70
     0
  3
___ _ _ ___ _ _ ___ _ _ ___ _ _
 72
    65
 73
     6
 40
1.25
 49
0.625
 49
-0.125
 49
0.125
 49
-0.125
 49
0.125
 49
-0.125
  0
ENDTAB
  0
TABLE
  2
LAYER
 70
     2
  0
LAYER
  2
0
 70
     0
 62
   255
  6
CONTINUOUS
  0
LAYER
  2
DEFPOINTS
 70
     0
 62
     7
  6
CONTINUOUS
  0
ENDTAB
  0
TABLE
  2
STYLE
 70
     1
  0
STYLE
  2
STANDARD
 70
     0
 40
0.0
 41
0.8
 50
0.0
 71
     0
 42
0.2
  3
txt
  4

  0
ENDTAB
  0
TABLE
  2
VIEW
 70
     0
  0
ENDTAB
  0
TABLE
  2
UCS
 70
     0
  0
ENDTAB
  0
TABLE
  2
APPID
 70
    11
  0
APPID
  2
ACAD
 70
     0
  0
APPID
  2
ACAD_MLEADERVER
 70
     0
  0
APPID
  2
ACAD_EXEMPT_FROM_CAD_STANDARDS
 70
     0
  0
APPID
  2
ACAD_NAV_VCDISPLAY
 70
     0
  0
APPID
  2
ACAECLAYERSTANDARD
 70
     0
  0
APPID
  2
ACCMTRANSPARENCY
 70
     0
  0
APPID
  2
ACAD_DSTYLE_DIMJAG
 70
     0
  0
APPID
  2
ACAD_DSTYLE_DIMTALN
 70
     0
  0
APPID
  2
ACDBATTR
 70
     0
  0
APPID
  2
ACADANNOTATIVE
 70
     0
  0
APPID
  2
DCO15
 70
     0
  0
ENDTAB
  0
TABLE
  2
DIMSTYLE
 70
     1
  0
DIMSTYLE
  2
STANDARD
 70
     0
  3

  4

  5

  6

  7

 40
1.0
 41
0.1875
 42
0.0625
 43
0.38
 44
0.125
 45
0.0
 46
0.0
 47
0.01
 48
0.01
140
0.15625
141
0.09
142
0.0
143
25.3999999999999986
144
1.0
145
0.0
146
1.0
147
0.09
 71
     1
 72
     0
 73
     1
 74
     1
 75
     0
 76
     0
 77
     0
 78
     4
170
     0
171
     2
172
     0
173
     0
174
     0
175
     0
176
     0
177
     0
178
     0
  0
ENDTAB
  0
ENDSEC
  0
SECTION
  2
BLOCKS
  0
BLOCK
  8
0
  2
$MODEL_SPACE
 70
     0
 10
0.0
 20
0.0
 30
0.0
  3
$MODEL_SPACE
  1

  0
ENDBLK
  5
21
  8
0
  0
BLOCK
 67
     1
  8
0
  2
$PAPER_SPACE
 70
     0
 10
0.0
 20
0.0
 30
0.0
  3
$PAPER_SPACE
  1

  0
ENDBLK
  5
1D
 67
     1
  8
0
  0
ENDSEC
  0
SECTION
  2
ENTITIES
  0
ATTDEF
  5
159BF
  8
DEFPOINTS
 10
4981.6361992121956064
 20
681.4554412236724374
 30
0.0
 40
0.001
  1
K-77701K-NW
  3

  2
MODELNUMBER
 70
     0
1001
ACDBATTR
1070
     0
1070
     1
  0
ATTDEF
  5
159C0
  8
DEFPOINTS
 10
4981.6361992121956064
 20
681.4537743832933074
 30
0.0
 40
0.001
  1

  3

  2
TRADENAME
 70
     0
1001
ACDBATTR
1070
     0
1070
     1
  0
ATTDEF
  5
159C1
  8
DEFPOINTS
 10
4981.6361992121956064
 20
681.4521078903391071
 30
0.0
 40
0.001
  1
BATH
  3

  2
PRODUCT
 70
     0
1001
ACDBATTR
1070
     0
1070
     1
  0
LINE
  5
1F18B
  8
0
 10
4948.1715166096973917
 20
665.1129497181333363
 30
0.0
 11
4948.1715166096973917
 21
695.8224414392414019
 31
0.0
  0
LINE
  5
1F18C
  8
0
 10
4948.5648023746462059
 20
664.7196640826452949
 30
0.0
 11
5014.7073534825485694
 21
664.7196640826452949
 31
0.0
  0
LINE
  5
1F18D
  8
0
 10
4948.5648023746462059
 20
696.2157270747452458
 30
0.0
 11
5014.7073534825485694
 21
696.2157270747452458
 31
0.0
  0
ARC
  5
1F18E
  8
0
 10
4948.5648899686366349
 20
665.1130374416143241
 30
0.0
 40
0.3933733687214427
 50
180.012777136594309
 51
269.9872417237709215
  0
LINE
  5
1F190
  8
0
 10
4948.1715166096973917
 20
694.5256637469951784
 30
0.0
 11
5015.1006392474973836
 21
694.5256637469951784
 31
0.0
  0
LINE
  5
1F191
  8
0
 10
4952.5672958510976969
 20
674.9622007053953894
 30
0.0
 11
4952.5672958510976969
 21
687.9416846699946291
 31
0.0
  0
LINE
  5
1F192
  8
0
 10
4962.5931783894120599
 20
668.869673481095333
 30
0.0
 11
5000.6789774677818059
 21
668.869673481095333
 31
0.0
  0
ARC
  5
1F193
  8
0
 10
4962.6863146516552661
 20
675.2227690216491283
 30
0.0
 40
6.3537781918123351
 50
262.5655467118882029
 51
269.1601051051994773
  0
ARC
  5
1F194
  8
0
 10
4959.9290692116137507
 20
656.6297856263536232
 30
0.0
 40
12.4440001473986595
 50
81.0538497322529565
 51
87.9707913148414775
  0
ARC
  5
1F195
  8
0
 10
4958.7581885981462619
 20
607.985719992142208
 30
0.0
 40
61.1015171415349627
 50
88.4886885917010773
 51
90.3194293986682339
  0
ARC
  5
1F196
  8
0
 10
4958.489373226088901
 20
675.0081072498061303
 30
0.0
 40
5.9222553006603693
 50
180.4441344478169071
 51
269.3050562350297241
  0
LINE
  5
1F197
  8
0
 10
4958.394754228191232
 20
693.842871382495332
 30
0.0
 11
5004.8774016290053623
 21
693.842871382495332
 31
0.0
  0
ARC
  5
1F198
  8
0
 10
4958.4352346825389759
 20
688.0475057820526672
 30
0.0
 40
5.7955069760959557
 50
90.4002027874338268
 51
135.7603850633690001
  0
ARC
  5
1F199
  8
0
 10
4958.6290005183564062
 20
687.8642188489378668
 30
0.0
 40
6.0621996359814281
 50
135.7969694806722885
 51
179.2678259260061964
  0
ARC
  5
1F19A
  8
0
 10
4981.6360779422657288
 20
691.8517511816479555
 30
0.0
 40
1.9337260130493721
 50
72.2180437567733406
 51
107.7819570969875969
  0
ARC
  5
1F19B
  8
0
 10
4981.6360779148280926
 20
695.5344383850554095
 30
0.0
 40
1.933726321868336
 50
252.2180466914342958
 51
287.7819541623761097
  0
ARC
  5
1F19C
  8
0
 10
4981.6360778636226314
 20
697.4629666878795433
 30
0.0
 40
3.7067131537885269
 50
265.7914747798445205
 51
274.2085268261974988
  0
CIRCLE
  5
1F19D
  8
0
 10
4981.6360779285978424
 20
681.4519475472952763
 30
0.0
 40
0.9842519010000003
  0
CIRCLE
  5
1F19E
  8
0
 10
4981.6360779285978424
 20
681.4519475472952763
 30
0.0
 40
1.7040007398092309
  0
ARC
  5
1F19F
  8
0
 10
4948.5648899686366349
 20
695.8223537157763303
 30
0.0
 40
0.3933733687214427
 50
90.012758276229107
 51
179.9872228634056057
  0
ARC
  5
1F1A0
  8
0
 10
4981.6361234949681602
 20
10144.1794693285100948
 30
0.0
 40
9454.2775275015173975
 50
269.916041518399993
 51
270.0839579989548156
  0
ARC
  5
1F1A1
  8
0
 10
4968.1538523340650499
 20
683.3403707590282465
 30
0.0
 40
6.5822173594959219
 50
93.2360810946151446
 51
150.2825162520431093
  0
ARC
  5
1F1A2
  8
0
 10
4968.1127906096162405
 20
683.2937443675770055
 30
0.0
 40
6.5699516614081119
 50
149.751848413238605
 51
168.1316714198042064
  0
ARC
  5
1F1A3
  8
0
 10
4995.1183035231306349
 20
683.3403707590282465
 30
0.0
 40
6.5822173594959219
 50
29.7174837479569192
 51
86.7639189053848838
  0
ARC
  5
1F1A4
  8
0
 10
4995.1593652475794443
 20
683.2937443675770055
 30
0.0
 40
6.5699516614081119
 50
11.8683285801958203
 51
30.2481515867613702
  0
LINE
  5
1F1A5
  8
0
 10
5010.7048600060970784
 20
674.9622007053953894
 30
0.0
 11
5010.7048600060970784
 21
687.9416846699946291
 31
0.0
  0
ARC
  5
1F1A6
  8
0
 10
5000.5858412055404187
 20
675.2227690216491283
 30
0.0
 40
6.3537781918123351
 50
270.8398948948005227
 51
277.4344532881117971
  0
ARC
  5
1F1A7
  8
0
 10
5003.3430866455810246
 20
656.6297856263536232
 30
0.0
 40
12.4440001473986595
 50
92.0292086851585367
 51
98.9461502677470435
  0
ARC
  5
1F1A8
  8
0
 10
5004.5139672590503324
 20
607.985719992142208
 30
0.0
 40
61.1015171415349627
 50
89.6805706013317661
 51
91.511311408298937
  0
ARC
  5
1F1A9
  8
0
 10
5004.7827826311067838
 20
675.0081072498061303
 30
0.0
 40
5.9222553006603693
 50
270.694943764970219
 51
359.5558655521829792
  0
ARC
  5
1F1AA
  8
0
 10
5004.8369211746567089
 20
688.0475057820526672
 30
0.0
 40
5.7955069760959557
 50
44.2396149366309501
 51
89.5997972125661732
  0
ARC
  5
1F1AB
  8
0
 10
5004.6431553388401881
 20
687.8642188489378668
 30
0.0
 40
6.0621996359814281
 50
0.7321740739937713
 51
44.2030305193276689
  0
ARC
  5
1F1AC
  8
0
 10
4981.6361234949681602
 20
-8781.2755742339231801
 30
0.0
 40
9454.2775275015173975
 50
89.916042001045227
 51
90.0839584816000212
  0
ARC
  5
1F1AD
  8
0
 10
4968.1538523340650499
 20
679.5635243355624198
 30
0.0
 40
6.5822173594959219
 50
209.7174837479568907
 51
266.7639189053847986
  0
ARC
  5
1F1AE
  8
0
 10
4968.1127906096162405
 20
679.6101507270135471
 30
0.0
 40
6.5699516614081119
 50
191.8683285801957936
 51
210.248151586761395
  0
ARC
  5
1F1AF
  8
0
 10
4995.1183035231306349
 20
679.5635243355624198
 30
0.0
 40
6.5822173594959219
 50
273.2360810946150877
 51
330.2825162520430808
  0
ARC
  5
1F1B0
  8
0
 10
4995.1593652475794443
 20
679.6101507270135471
 30
0.0
 40
6.5699516614081119
 50
329.7518484132385765
 51
348.1316714198042064
  0
ARC
  5
1F1B1
  8
0
 10
4975.7065545057021154
 20
681.4519475472952763
 30
0.0
 40
14.3821859871930808
 50
167.1728604670418008
 51
192.8271395329581992
  0
ARC
  5
1F1B2
  8
0
 10
4988.377157660445846
 20
681.4519475472952763
 30
0.0
 40
13.5920768591517707
 50
346.4133365386268224
 51
13.5866634613731794
  0
LINE
  5
1F1B3
  8
0
 10
5015.1006392474973836
 20
665.1129497181333363
 30
0.0
 11
5015.1006392474973836
 21
695.8224414392414019
 31
0.0
  0
ARC
  5
1F1B4
  8
0
 10
5014.7072658885572309
 20
665.1130374416143241
 30
0.0
 40
0.3933733687214427
 50
270.0127582762290785
 51
359.9872228634055773
  0
ARC
  5
1F1B5
  8
0
 10
5014.7072658885572309
 20
695.8223537157763303
 30
0.0
 40
0.3933733687214427
 50
0.0127771365943608
 51
89.9872417237709072
  0
ENDSEC
  0
EOF
