  0
SECTION
  2
HEADER
  9
$ACADVER
  1
AC1009
  9
$INSBASE
 10
3777.0569964452138265
 20
207.8206273134238984
 30
0.0
  9
$EXTMIN
 10
3747.5294373811639161
 20
207.8158818570813082
 30
0.0
  9
$EXTMAX
 10
3806.5845555092641916
 20
230.924710743329598
 30
0.0
  9
$LIMMIN
 10
0.0
 20
0.0
  9
$LIMMAX
 10
11.6929133858000007
 20
8.2677165353999982
  9
$ORTHOMODE
 70
     0
  9
$REGENMODE
 70
     1
  9
$FILLMODE
 70
     1
  9
$QTEXTMODE
 70
     0
  9
$MIRRTEXT
 70
     0
  9
$DRAGMODE
 70
     2
  9
$LTSCALE
 40
0.6431102362
  9
$OSMODE
 70
  3839
  9
$ATTMODE
 70
     1
  9
$TEXTSIZE
 40
0.2
  9
$TRACEWID
 40
0.05
  9
$TEXTSTYLE
  7
STANDARD
  9
$CLAYER
  8
0
  9
$CELTYPE
  6
BYLAYER
  9
$CECOLOR
 62
   256
  9
$DIMSCALE
 40
1.0
  9
$DIMASZ
 40
0.1875
  9
$DIMEXO
 40
0.0625
  9
$DIMDLI
 40
0.4443307087
  9
$DIMRND
 40
0.0
  9
$DIMDLE
 40
0.0
  9
$DIMEXE
 40
0.125
  9
$DIMTP
 40
0.01
  9
$DIMTM
 40
0.01
  9
$DIMTXT
 40
2.0
  9
$DIMCEN
 40
0.1052362205
  9
$DIMTSZ
 40
0.0
  9
$DIMTOL
 70
     1
  9
$DIMLIM
 70
     0
  9
$DIMTIH
 70
     1
  9
$DIMTOH
 70
     1
  9
$DIMSE1
 70
     0
  9
$DIMSE2
 70
     0
  9
$DIMTAD
 70
     0
  9
$DIMZIN
 70
     0
  9
$DIMBLK
  1

  9
$DIMASO
 70
     1
  9
$DIMSHO
 70
     1
  9
$DIMPOST
  1
\X
  9
$DIMAPOST
  1

  9
$DIMALT
 70
     1
  9
$DIMALTD
 70
     2
  9
$DIMALTF
 40
25.3999999999999986
  9
$DIMLFAC
 40
1.0
  9
$DIMTOFL
 70
     0
  9
$DIMTVP
 40
0.0
  9
$DIMTIX
 70
     0
  9
$DIMSOXD
 70
     0
  9
$DIMSAH
 70
     0
  9
$DIMBLK1
  1

  9
$DIMBLK2
  1

  9
$DIMSTYLE
  2
STANDARD
  9
$DIMCLRD
 70
     0
  9
$DIMCLRE
 70
     0
  9
$DIMCLRT
 70
     0
  9
$DIMTFAC
 40
1.0
  9
$DIMGAP
 40
0.09
  9
$LUNITS
 70
     2
  9
$LUPREC
 70
     4
  9
$SKETCHINC
 40
0.1
  9
$FILLETRAD
 40
0.0
  9
$AUNITS
 70
     0
  9
$AUPREC
 70
     0
  9
$MENU
  1
.
  9
$ELEVATION
 40
0.0
  9
$PELEVATION
 40
0.0
  9
$THICKNESS
 40
0.0
  9
$LIMCHECK
 70
     0
  9
$BLIPMODE
 70
     0
  9
$CHAMFERA
 40
0.0
  9
$CHAMFERB
 40
0.0
  9
$SKPOLY
 70
     0
  9
$TDCREATE
 40
2458060.468368056230247
  9
$TDUPDATE
 40
2459029.6312384260818362
  9
$TDINDWG
 40
0.5176922454
  9
$TDUSRTIMER
 40
0.5176922454
  9
$USRTIMER
 70
     1
  9
$ANGBASE
 50
0.0
  9
$ANGDIR
 70
     0
  9
$PDMODE
 70
     0
  9
$PDSIZE
 40
0.3125
  9
$PLINEWID
 40
0.0
  9
$COORDS
 70
     1
  9
$SPLFRAME
 70
     0
  9
$SPLINETYPE
 70
     6
  9
$SPLINESEGS
 70
     8
  9
$ATTDIA
 70
     1
  9
$ATTREQ
 70
     1
  9
$HANDLING
 70
     1
  9
$HANDSEED
  5
8AE8
  9
$SURFTAB1
 70
     6
  9
$SURFTAB2
 70
     6
  9
$SURFTYPE
 70
     6
  9
$SURFU
 70
     6
  9
$SURFV
 70
     6
  9
$UCSNAME
  2

  9
$UCSORG
 10
0.0
 20
0.0
 30
0.0
  9
$UCSXDIR
 10
1.0
 20
0.0
 30
0.0
  9
$UCSYDIR
 10
0.0
 20
1.0
 30
0.0
  9
$PUCSNAME
  2

  9
$PUCSORG
 10
0.0
 20
0.0
 30
0.0
  9
$PUCSXDIR
 10
1.0
 20
0.0
 30
0.0
  9
$PUCSYDIR
 10
0.0
 20
1.0
 30
0.0
  9
$USERI1
 70
     0
  9
$USERI2
 70
     0
  9
$USERI3
 70
     0
  9
$USERI4
 70
     0
  9
$USERI5
 70
     0
  9
$USERR1
 40
0.0
  9
$USERR2
 40
0.0
  9
$USERR3
 40
0.0
  9
$USERR4
 40
0.0
  9
$USERR5
 40
0.0
  9
$WORLDVIEW
 70
     1
  9
$SHADEDGE
 70
     3
  9
$SHADEDIF
 70
    70
  9
$TILEMODE
 70
     1
  9
$MAXACTVP
 70
    64
  9
$PLIMCHECK
 70
     0
  9
$PEXTMIN
 10
1.0000000000000000E+20
 20
1.0000000000000000E+20
 30
1.0000000000000000E+20
  9
$PEXTMAX
 10
-1.0000000000000000E+20
 20
-1.0000000000000000E+20
 30
-1.0000000000000000E+20
  9
$PLIMMIN
 10
0.0
 20
0.0
  9
$PLIMMAX
 10
12.0
 20
9.0
  9
$UNITMODE
 70
     0
  9
$VISRETAIN
 70
     1
  9
$PLINEGEN
 70
     0
  9
$PSLTSCALE
 70
     1
  0
ENDSEC
  0
SECTION
  2
TABLES
  0
TABLE
  2
VPORT
 70
     1
  0
VPORT
  2
*ACTIVE
 70
     0
 10
0.0
 20
0.0
 11
1.0
 21
1.0
 12
0.0
 22
0.0
 13
0.0
 23
0.0
 14
1.0
 24
1.0
 15
0.0
 25
0.0
 16
0.0
 26
0.0
 36
263.2717113411341074
 17
3777.0570068359379547
 27
219.3702898665289069
 37
0.0
 40
63.4153162010096878
 41
3.314341846758349
 42
50.0
 43
0.0
 44
0.0
 50
0.0
 51
0.0
 71
     0
 72
   100
 73
     1
 74
     1
 75
     0
 76
     0
 77
     0
 78
     0
  0
ENDTAB
  0
TABLE
  2
LTYPE
 70
     2
  0
LTYPE
  2
CONTINUOUS
 70
     0
  3
Solid line
 72
    65
 73
     0
 40
0.0
  0
LTYPE
  2
PHANTOM2
 70
     0
  3
___ _ _ ___ _ _ ___ _ _ ___ _ _
 72
    65
 73
     6
 40
1.25
 49
0.625
 49
-0.125
 49
0.125
 49
-0.125
 49
0.125
 49
-0.125
  0
ENDTAB
  0
TABLE
  2
LAYER
 70
     2
  0
LAYER
  2
0
 70
     0
 62
   255
  6
CONTINUOUS
  0
LAYER
  2
DEFPOINTS
 70
     0
 62
     7
  6
CONTINUOUS
  0
ENDTAB
  0
TABLE
  2
STYLE
 70
     1
  0
STYLE
  2
STANDARD
 70
     0
 40
0.0
 41
0.8
 50
0.0
 71
     0
 42
0.2
  3
txt
  4

  0
ENDTAB
  0
TABLE
  2
VIEW
 70
     0
  0
ENDTAB
  0
TABLE
  2
UCS
 70
     0
  0
ENDTAB
  0
TABLE
  2
APPID
 70
     9
  0
APPID
  2
ACAD
 70
     0
  0
APPID
  2
ACAD_MLEADERVER
 70
     0
  0
APPID
  2
ACAD_EXEMPT_FROM_CAD_STANDARDS
 70
     0
  0
APPID
  2
ACAD_NAV_VCDISPLAY
 70
     0
  0
APPID
  2
ACAECLAYERSTANDARD
 70
     0
  0
APPID
  2
ACCMTRANSPARENCY
 70
     0
  0
APPID
  2
ACAD_DSTYLE_DIMJAG
 70
     0
  0
APPID
  2
ACAD_DSTYLE_DIMTALN
 70
     0
  0
APPID
  2
ACDBATTR
 70
     0
  0
ENDTAB
  0
TABLE
  2
DIMSTYLE
 70
     1
  0
DIMSTYLE
  2
STANDARD
 70
     0
  3

  4

  5

  6

  7

 40
1.0
 41
0.1875
 42
0.0625
 43
0.38
 44
0.125
 45
0.0
 46
0.0
 47
0.01
 48
0.01
140
0.15625
141
0.09
142
0.0
143
25.3999999999999986
144
1.0
145
0.0
146
1.0
147
0.09
 71
     1
 72
     0
 73
     1
 74
     1
 75
     0
 76
     0
 77
     0
 78
     4
170
     0
171
     2
172
     0
173
     0
174
     0
175
     0
176
     0
177
     0
178
     0
  0
ENDTAB
  0
ENDSEC
  0
SECTION
  2
BLOCKS
  0
BLOCK
  8
0
  2
$MODEL_SPACE
 70
     0
 10
0.0
 20
0.0
 30
0.0
  3
$MODEL_SPACE
  1

  0
ENDBLK
  5
21
  8
0
  0
BLOCK
 67
     1
  8
0
  2
$PAPER_SPACE
 70
     0
 10
0.0
 20
0.0
 30
0.0
  3
$PAPER_SPACE
  1

  0
ENDBLK
  5
1D
 67
     1
  8
0
  0
BLOCK
  8
0
  2
_FILLED
 70
     0
 10
0.0
 20
0.0
 30
0.0
  3
_FILLED
  1

  0
SOLID
  5
6F59
  8
0
  6
BYBLOCK
 62
     0
 10
0.0
 20
0.0
 30
0.0
 11
-1.0
 21
0.1666666667
 31
0.0
 12
-1.0
 22
-0.1666666667
 32
0.0
 13
-1.0
 23
-0.1666666667
 33
0.0
  0
ENDBLK
  5
6F5A
  8
0
  6
BYBLOCK
 62
     0
  0
ENDSEC
  0
SECTION
  2
ENTITIES
  0
ATTDEF
  5
3930
  8
DEFPOINTS
 10
3777.0573523992488845
 20
207.8192151904146954
 30
0.0
 40
0.001
  1
K-77702T
  3

  2
MODELNUMBER
 70
     0
1001
ACDBATTR
1070
     0
1070
     1
  0
ATTDEF
  5
3931
  8
DEFPOINTS
 10
3777.0573523992488845
 20
207.8175485237480018
 30
0.0
 40
0.001
  1
DOBLE
  3

  2
TRADENAME
 70
     0
1001
ACDBATTR
1070
     0
1070
     1
  0
ATTDEF
  5
3932
  8
DEFPOINTS
 10
3777.0573523992488845
 20
207.8158818570813082
 30
0.0
 40
0.001
  1
BATH
  3

  2
PRODUCT
 70
     0
1001
ACDBATTR
1070
     0
1070
     1
  0
LINE
  5
89C6
  8
0
 10
3756.9782562930649874
 20
208.0174777071237884
 30
0.0
 11
3756.9782478428651302
 21
207.8206273134238984
 31
0.0
  0
LINE
  5
89C7
  8
0
 10
3756.9782478428651302
 20
207.8206273134238984
 30
0.0
 11
3755.0097608062637846
 21
207.8206273134238984
 31
0.0
  0
LINE
  5
89C8
  8
0
 10
3755.0097608062637846
 20
207.8206273134238984
 30
0.0
 11
3755.0097608062637846
 21
208.0174777071237884
 31
0.0
  0
ARC
  5
89C9
  8
0
 10
3749.4376220047352035
 20
208.411178499690692
 30
0.0
 40
0.3937008379704195
 50
180.0000046376277112
 51
269.9724831124411253
  0
ARC
  5
89CA
  8
0
 10
3583.1649730139720305
 20
208.5672579846861083
 30
0.0
 40
165.8790215822739924
 50
359.9460890303125211
 51
7.3311974639662054
  0
LINE
  5
89CB
  8
0
 10
3747.6879516874751062
 20
229.7341965798239016
 30
0.0
 11
3747.5294373811639161
 21
229.7397321871237921
 31
0.0
  0
LINE
  5
89CC
  8
0
 10
3747.5294373811639161
 20
229.7397321871237921
 30
0.0
 11
3747.5626828445638239
 21
230.6917572081237893
 31
0.0
  0
ARC
  5
89CD
  8
0
 10
3747.7977312455100218
 20
230.6896529232043918
 30
0.0
 40
0.2350578201251987
 50
89.3499205870415523
 51
179.4870697976348026
  0
LINE
  5
89CE
  8
0
 10
3747.8003981604638284
 20
230.9246956137237987
 30
0.0
 11
3806.3135947299638246
 21
230.9246956137237987
 31
0.0
  0
LINE
  5
89CF
  8
0
 10
3747.5294373811639161
 20
229.7397321871237921
 30
0.0
 11
3806.5845555092641916
 21
229.7397321871239058
 31
0.0
  0
LINE
  5
89D0
  8
0
 10
3747.6879516874751062
 20
229.7341965798239016
 30
0.0
 11
3806.4260412029539111
 21
229.7341965798239016
 31
0.0
  0
LINE
  5
89D1
  8
0
 10
3749.4374329258648686
 20
208.0174777071237884
 30
0.0
 11
3804.6765599645777911
 21
208.0174777071237884
 31
0.0
  0
LINE
  5
89D2
  8
0
 10
3797.1357365973649394
 20
208.0174777071237884
 30
0.0
 11
3797.1357450475638871
 21
207.8206273134238984
 31
0.0
  0
LINE
  5
89D3
  8
0
 10
3797.1357450475638871
 20
207.8206273134238984
 30
0.0
 11
3799.1042320841647779
 21
207.8206273134238984
 31
0.0
  0
LINE
  5
89D4
  8
0
 10
3799.1042320841647779
 20
207.8206273134238984
 30
0.0
 11
3799.1042320841647779
 21
208.0174777071237884
 31
0.0
  0
ARC
  5
89D5
  8
0
 10
3804.6763708856938138
 20
208.411178499690692
 30
0.0
 40
0.3937008379704195
 50
270.0275168875588747
 51
359.9999953623723172
  0
ARC
  5
89D6
  8
0
 10
3970.9490198764569868
 20
208.5672579846861083
 30
0.0
 40
165.8790215822739924
 50
172.6688025360338088
 51
180.0539109696875073
  0
LINE
  5
89D7
  8
0
 10
3806.4260412029539111
 20
229.7341965798239016
 30
0.0
 11
3806.5845555092641916
 21
229.7397321871237921
 31
0.0
  0
LINE
  5
89D8
  8
0
 10
3806.5845555092641916
 20
229.7397321871237921
 30
0.0
 11
3806.5513100458651934
 21
230.6917572081237893
 31
0.0
  0
ARC
  5
89D9
  8
0
 10
3806.3162616449189954
 20
230.6896529232043918
 30
0.0
 40
0.2350578201251987
 50
0.5129302023652533
 51
90.650079412932385
  0
ENDSEC
  0
EOF
