  0
SECTION
  2
HEADER
  9
$ACADVER
  1
AC1009
  9
$INSBASE
 10
1110.8310025550570117
 20
143.8996899732075008
 30
0.0
  9
$EXTMIN
 10
1095.0139786082249884
 20
126.9714429982927015
 30
-0.0000000349181948
  9
$EXTMAX
 10
1126.6448874636009805
 20
145.0918769509877109
 30
0.0000000814935746
  9
$LIMMIN
 10
0.0
 20
0.0
  9
$LIMMAX
 10
11.6929133858000007
 20
8.2677165353999982
  9
$ORTHOMODE
 70
     0
  9
$REGENMODE
 70
     1
  9
$FILLMODE
 70
     1
  9
$QTEXTMODE
 70
     0
  9
$MIRRTEXT
 70
     0
  9
$DRAGMODE
 70
     2
  9
$LTSCALE
 40
0.6431102362
  9
$OSMODE
 70
  4095
  9
$ATTMODE
 70
     1
  9
$TEXTSIZE
 40
0.2
  9
$TRACEWID
 40
0.05
  9
$TEXTSTYLE
  7
STANDARD
  9
$CLAYER
  8
0
  9
$CELTYPE
  6
BYLAYER
  9
$CECOLOR
 62
   256
  9
$DIMSCALE
 40
1.0
  9
$DIMASZ
 40
0.1875
  9
$DIMEXO
 40
0.0625
  9
$DIMDLI
 40
0.4443307087
  9
$DIMRND
 40
0.0
  9
$DIMDLE
 40
0.0
  9
$DIMEXE
 40
0.125
  9
$DIMTP
 40
0.01
  9
$DIMTM
 40
0.01
  9
$DIMTXT
 40
1.0
  9
$DIMCEN
 40
0.1052362205
  9
$DIMTSZ
 40
0.0
  9
$DIMTOL
 70
     1
  9
$DIMLIM
 70
     0
  9
$DIMTIH
 70
     0
  9
$DIMTOH
 70
     1
  9
$DIMSE1
 70
     0
  9
$DIMSE2
 70
     0
  9
$DIMTAD
 70
     0
  9
$DIMZIN
 70
     0
  9
$DIMBLK
  1

  9
$DIMASO
 70
     1
  9
$DIMSHO
 70
     1
  9
$DIMPOST
  1
\X
  9
$DIMAPOST
  1

  9
$DIMALT
 70
     1
  9
$DIMALTD
 70
     2
  9
$DIMALTF
 40
25.3999999999999986
  9
$DIMLFAC
 40
1.0
  9
$DIMTOFL
 70
     0
  9
$DIMTVP
 40
0.0
  9
$DIMTIX
 70
     0
  9
$DIMSOXD
 70
     0
  9
$DIMSAH
 70
     0
  9
$DIMBLK1
  1

  9
$DIMBLK2
  1

  9
$DIMSTYLE
  2
STANDARD
  9
$DIMCLRD
 70
     0
  9
$DIMCLRE
 70
     0
  9
$DIMCLRT
 70
     0
  9
$DIMTFAC
 40
1.0
  9
$DIMGAP
 40
0.09
  9
$LUNITS
 70
     2
  9
$LUPREC
 70
     4
  9
$SKETCHINC
 40
0.1
  9
$FILLETRAD
 40
0.0
  9
$AUNITS
 70
     0
  9
$AUPREC
 70
     0
  9
$MENU
  1
.
  9
$ELEVATION
 40
0.0
  9
$PELEVATION
 40
0.0
  9
$THICKNESS
 40
0.0
  9
$LIMCHECK
 70
     0
  9
$BLIPMODE
 70
     0
  9
$CHAMFERA
 40
0.0
  9
$CHAMFERB
 40
0.0
  9
$SKPOLY
 70
     0
  9
$TDCREATE
 40
2458172.5207638889551163
  9
$TDUPDATE
 40
2459132.6696527781896293
  9
$TDINDWG
 40
0.4587507176
  9
$TDUSRTIMER
 40
0.4587507176
  9
$USRTIMER
 70
     1
  9
$ANGBASE
 50
0.0
  9
$ANGDIR
 70
     0
  9
$PDMODE
 70
     0
  9
$PDSIZE
 40
0.3125
  9
$PLINEWID
 40
0.0
  9
$COORDS
 70
     1
  9
$SPLFRAME
 70
     0
  9
$SPLINETYPE
 70
     6
  9
$SPLINESEGS
 70
     8
  9
$ATTDIA
 70
     1
  9
$ATTREQ
 70
     1
  9
$HANDLING
 70
     1
  9
$HANDSEED
  5
B94E
  9
$SURFTAB1
 70
     6
  9
$SURFTAB2
 70
     6
  9
$SURFTYPE
 70
     6
  9
$SURFU
 70
     6
  9
$SURFV
 70
     6
  9
$UCSNAME
  2

  9
$UCSORG
 10
0.0
 20
0.0
 30
0.0
  9
$UCSXDIR
 10
1.0
 20
0.0
 30
0.0
  9
$UCSYDIR
 10
0.0
 20
1.0
 30
0.0
  9
$PUCSNAME
  2

  9
$PUCSORG
 10
0.0
 20
0.0
 30
0.0
  9
$PUCSXDIR
 10
1.0
 20
0.0
 30
0.0
  9
$PUCSYDIR
 10
0.0
 20
1.0
 30
0.0
  9
$USERI1
 70
     0
  9
$USERI2
 70
     0
  9
$USERI3
 70
     0
  9
$USERI4
 70
     0
  9
$USERI5
 70
     0
  9
$USERR1
 40
0.0
  9
$USERR2
 40
0.0
  9
$USERR3
 40
0.0
  9
$USERR4
 40
0.0
  9
$USERR5
 40
0.0
  9
$WORLDVIEW
 70
     1
  9
$SHADEDGE
 70
     3
  9
$SHADEDIF
 70
    70
  9
$TILEMODE
 70
     1
  9
$MAXACTVP
 70
    64
  9
$PLIMCHECK
 70
     0
  9
$PEXTMIN
 10
1.0000000000000000E+20
 20
1.0000000000000000E+20
 30
1.0000000000000000E+20
  9
$PEXTMAX
 10
-1.0000000000000000E+20
 20
-1.0000000000000000E+20
 30
-1.0000000000000000E+20
  9
$PLIMMIN
 10
0.0
 20
0.0
  9
$PLIMMAX
 10
12.0
 20
9.0
  9
$UNITMODE
 70
     0
  9
$VISRETAIN
 70
     1
  9
$PLINEGEN
 70
     0
  9
$PSLTSCALE
 70
     1
  0
ENDSEC
  0
SECTION
  2
TABLES
  0
TABLE
  2
VPORT
 70
     1
  0
VPORT
  2
*ACTIVE
 70
     0
 10
0.0
 20
0.0
 11
1.0
 21
1.0
 12
644.0872313280832486
 22
46.8985128547104182
 13
0.0
 23
0.0
 14
1.0
 24
1.0
 15
0.0
 25
0.0
 16
0.0
 26
0.0
 36
24.1179433675886514
 17
466.74220170783002
 27
89.133147119929788
 37
0.0
 40
18.3637970623759514
 41
2.6055226824457591
 42
50.0
 43
0.0
 44
0.0
 50
0.0
 51
0.0
 71
     0
 72
   100
 73
     1
 74
     1
 75
     0
 76
     0
 77
     0
 78
     0
  0
ENDTAB
  0
TABLE
  2
LTYPE
 70
     3
  0
LTYPE
  2
CONTINUOUS
 70
     0
  3
Solid line
 72
    65
 73
     0
 40
0.0
  0
LTYPE
  2
PHANTOM2
 70
     0
  3
___ _ _ ___ _ _ ___ _ _ ___ _ _
 72
    65
 73
     6
 40
1.25
 49
0.625
 49
-0.125
 49
0.125
 49
-0.125
 49
0.125
 49
-0.125
  0
ENDTAB
  0
TABLE
  2
LAYER
 70
     2
  0
LAYER
  2
0
 70
     0
 62
   255
  6
CONTINUOUS
  0
LAYER
  2
DEFPOINTS
 70
     0
 62
     7
  6
CONTINUOUS
  0
ENDTAB
  0
TABLE
  2
STYLE
 70
     1
  0
STYLE
  2
STANDARD
 70
     0
 40
0.0
 41
0.8
 50
0.0
 71
     0
 42
0.2
  3
txt
  4

  0
ENDTAB
  0
TABLE
  2
VIEW
 70
     0
  0
ENDTAB
  0
TABLE
  2
UCS
 70
     0
  0
ENDTAB
  0
TABLE
  2
APPID
 70
    11
  0
APPID
  2
ACAD
 70
     0
  0
APPID
  2
ACAD_MLEADERVER
 70
     0
  0
APPID
  2
ACAD_EXEMPT_FROM_CAD_STANDARDS
 70
     0
  0
APPID
  2
ACAD_DSTYLE_DIMJAG
 70
     0
  0
APPID
  2
ACAD_DSTYLE_DIMTALN
 70
     0
  0
APPID
  2
ACAD_NAV_VCDISPLAY
 70
     0
  0
APPID
  2
ACAECLAYERSTANDARD
 70
     0
  0
APPID
  2
ACCMTRANSPARENCY
 70
     0
  0
APPID
  2
DCO15
 70
     0
  0
APPID
  2
ACDBATTR
 70
     0
  0
APPID
  2
ACADANNOTATIVE
 70
     0
  0
ENDTAB
  0
TABLE
  2
DIMSTYLE
 70
     2
  0
DIMSTYLE
  2
STANDARD
 70
     0
  3

  4

  5

  6

  7

 40
1.0
 41
0.1875
 42
0.0625
 43
0.38
 44
0.125
 45
0.0
 46
0.0
 47
0.01
 48
0.01
140
0.15625
141
0.09
142
0.0
143
25.3999999999999986
144
1.0
145
0.0
146
1.0
147
0.09
 71
     1
 72
     0
 73
     1
 74
     1
 75
     0
 76
     0
 77
     0
 78
     4
170
     0
171
     2
172
     0
173
     0
174
     0
175
     0
176
     0
177
     0
178
     0
  0
ENDTAB
  0
ENDSEC
  0
SECTION
  2
BLOCKS
  0
BLOCK
  8
0
  2
$MODEL_SPACE
 70
     0
 10
0.0
 20
0.0
 30
0.0
  3
$MODEL_SPACE
  1

  0
ENDBLK
  5
21
  8
0
  0
BLOCK
 67
     1
  8
0
  2
$PAPER_SPACE
 70
     0
 10
0.0
 20
0.0
 30
0.0
  3
$PAPER_SPACE
  1

  0
ENDBLK
  5
1D
 67
     1
  8
0
  0
ENDSEC
  0
SECTION
  2
ENTITIES
  0
ATTDEF
  5
829
  8
DEFPOINTS
 10
1110.8276115318999473
 20
143.8970627483458884
 30
0.0
 40
0.001
  1
K-77704T
  3

  2
MODELNUMBER
 70
     0
1001
ACDBATTR
1070
     0
1070
     1
  0
ATTDEF
  5
82A
  8
DEFPOINTS
 10
1110.8276115318999473
 20
143.8953960816793085
 30
0.0
 40
0.001
  1
DOBLE
  3

  2
TRADENAME
 70
     0
1001
ACDBATTR
1070
     0
1070
     1
  0
ATTDEF
  5
82B
  8
DEFPOINTS
 10
1110.8276115318999473
 20
143.8937294150125865
 30
0.0
 40
0.001
  1
BATH
  3

  2
PRODUCT
 70
     0
1001
ACDBATTR
1070
     0
1070
     1
  0
LINE
  5
B5B9
  8
0
 10
1095.0829710590069226
 20
143.8996899732075008
 30
0.0
 11
1126.5790340511071008
 21
143.8996899732075008
 31
0.0
  0
LINE
  5
B5BA
  8
0
 10
1095.3478674595519351
 20
145.0862883194535868
 30
0.0
 11
1126.3141376505620883
 21
145.0862883194535868
 31
0.0
  0
LINE
  5
B5BB
  8
0
 10
1108.3565139404249749
 20
127.9603040673492984
 30
0.0
 11
1111.3369174372999169
 21
127.9603040673492984
 31
0.0
  0
LINE
  5
B5BC
  8
0
 10
1111.7431225884749892
 20
128.3581628970179054
 30
0.0
 11
1107.9507763152410007
 21
128.3581628970324005
 31
0.0
  0
LINE
  5
B5BD
  8
0
 10
1095.0829710590069226
 20
143.8996899732075008
 30
0.0
 11
1095.116608414565917
 21
144.8629638449615982
 31
0.0
  0
ARC
  5
B5BE
  8
0
 10
1095.3478674595519351
 20
144.8548883194536074
 30
0.0
 40
0.2314
 50
90.0
 51
178.0000540179622988
  0
LINE
  5
B5BF
  8
0
 10
1126.5790340511071008
 20
143.8996899732075008
 30
0.0
 11
1126.5453966955481064
 21
144.8629638449615982
 31
0.0
  0
ARC
  5
B5C0
  8
0
 10
1126.3141376505620883
 20
144.8548883194536074
 30
0.0
 40
0.2314
 50
1.999945982037715
 51
90.0
  0
LINE
  5
B5C1
  8
0
 10
1108.0148171394280325
 20
128.325206342874111
 30
0.0
 11
1108.2283509187050186
 21
128.0262590518466936
 31
0.0
  0
ARC
  5
B5C2
  8
0
 10
1107.9476596680131024
 20
128.2734066614131052
 30
0.0
 40
0.0848135187707266
 50
37.6436032133616791
 51
87.8940745751687871
  0
ARC
  5
B5C3
  8
0
 10
1108.3565139404249749
 20
128.1178040673493115
 30
0.0
 40
0.1575
 50
215.5376777883460022
 51
270.0
  0
ARC
  5
B5C4
  8
0
 10
870.5533770139259104
 20
-6623.3555317546433798
 30
0.0
 40
6755.8859774082920922
 50
87.9862493455519257
 51
88.0102499030687824
  0
ARC
  5
B5C5
  8
0
 10
-2811.8073424134017841
 20
-111980.0875444631965365
 30
0.0
 40
112176.9499613421940012
 50
88.0001796009995019
 51
88.0008791852480385
  0
ARC
  5
B5C6
  8
0
 10
1101.4662091018410592
 20
130.7281593660266026
 30
0.0
 40
2.1421533080555029
 50
182.6633020757261079
 51
268.0008791852503123
  0
ARC
  5
B5C7
  8
0
 10
357.0397680508744997
 20
14.9816561225714402
 30
0.0
 40
751.2413855317134903
 50
8.855391731390716
 51
9.1446694162181963
  0
ARC
  5
B5C8
  8
0
 10
116891.025458893403993
 20
18476.4094792903015332
 30
0.0
 40
117236.0235672526032431
 50
188.9966516756724104
 51
189.0011281896555886
  0
ARC
  5
B5C9
  8
0
 10
1097.0655824585619484
 20
143.382920581682896
 30
0.0
 40
0.2379218989569728
 50
9.3855428415575002
 51
28.2689685350032605
  0
LINE
  5
B5CA
  8
0
 10
1097.2751283622048959
 20
143.4956030748641922
 30
0.0
 11
1097.0580104993468922
 21
143.8996899732075008
 31
0.0
  0
ARC
  5
B5CB
  8
0
 10
1103.6380506982438874
 20
109.2658900227000061
 30
0.0
 40
19.5268829447842194
 50
85.6400088127597456
 51
92.5762645188085145
  0
LINE
  5
B5CC
  8
0
 10
1105.1225386632449954
 20
126.9760520988492942
 30
0.0
 11
1102.7603339388449513
 21
126.9760520988492942
 31
0.0
  0
LINE
  5
B5CD
  8
0
 10
1102.7603339388449513
 20
126.9760520988492942
 30
0.0
 11
1102.7603339388449513
 21
128.7730366830801074
 31
0.0
  0
LINE
  5
B5CE
  8
0
 10
1105.1225386632449954
 20
128.7362637484679055
 30
0.0
 11
1105.1225386632449954
 21
126.9760520988492942
 31
0.0
  0
LINE
  5
B5D1
  8
0
 10
1111.6790693926609492
 20
128.3252055347533087
 30
0.0
 11
1111.4655354815240571
 21
128.0262583379121963
 31
0.0
  0
ARC
  5
B5D2
  8
0
 10
1111.7609077830591104
 20
128.2448741473878897
 30
0.0
 40
0.1146763006863095
 50
98.9220398196752768
 51
135.5324199698306131
  0
ARC
  5
B5D3
  8
0
 10
1111.3373725001820276
 20
128.1178034099453953
 30
0.0
 40
0.1575
 50
269.834455753475595
 51
324.4622969394263237
  0
ARC
  5
B5D4
  8
0
 10
1171.3916336588499689
 20
-1537.775875793817022
 30
0.0
 40
1667.2014214716668903
 50
91.9530892248904053
 51
92.0503446233533253
  0
ARC
  5
B5D5
  8
0
 10
5031.4517797665594117
 20
-111980.0892742294963682
 30
0.0
 40
112176.9499613421940012
 50
91.9990955268462045
 51
91.9997951267675944
  0
ARC
  5
B5D6
  8
0
 10
1118.2276784901509927
 20
130.7281556694221933
 30
0.0
 40
2.1421533080555029
 50
271.9999166484183206
 51
357.3366727081354952
  0
ARC
  5
B5D7
  8
0
 10
1043.5662119782950867
 20
144.7129122222112017
 30
0.0
 40
78.0820593274545018
 50
349.6082141695433734
 51
352.391674131959121
  0
ARC
  5
B5D8
  8
0
 10
-114671.3234793115989305
 20
18476.4605484636886104
 30
0.0
 40
117236.0235672526032431
 50
350.9988465362110901
 51
351.0033230520999723
  0
ARC
  5
B5D9
  8
0
 10
1122.6283107152369212
 20
143.3829149440331889
 30
0.0
 40
0.2379218989569728
 50
151.7310061927744016
 51
170.6144318862174032
  0
LINE
  5
B5DA
  8
0
 10
1122.4187648612960402
 20
143.4955975296417989
 30
0.0
 11
1122.6358829023899943
 21
143.8996843322179018
 31
0.0
  0
ARC
  5
B5DB
  8
0
 10
1116.055827427092936
 20
109.2658872840614066
 30
0.0
 40
19.5268829447842194
 50
87.4237102089688136
 51
94.3599659150153229
  0
LINE
  5
B5DC
  8
0
 10
1114.5713472737540997
 20
126.9760500149922962
 30
0.0
 11
1116.9335519981539164
 21
126.9760489730626034
 31
0.0
  0
LINE
  5
B5DD
  8
0
 10
1116.9335519981539164
 20
126.9760489730626034
 30
0.0
 11
1116.9335527907740016
 21
128.773033557293104
 31
0.0
  0
LINE
  5
B5DE
  8
0
 10
1114.5713480501540289
 20
128.7362616646105948
 30
0.0
 11
1114.5713472737540997
 21
126.9760500149922962
 31
0.0
  0
ENDSEC
  0
EOF
