  0
SECTION
  2
HEADER
  9
$ACADVER
  1
AC1009
  9
$INSBASE
 10
4940.5843911605579706
 20
236.5836729091431891
 30
0.0
  9
$EXTMIN
 10
4919.3229741605573508
 20
236.5909474225171891
 30
0.0
  9
$EXTMAX
 10
4940.591245441857609
 20
252.6536729091432107
 30
0.0
  9
$LIMMIN
 10
0.0
 20
0.0
  9
$LIMMAX
 10
11.6929133858000007
 20
8.2677165353999982
  9
$ORTHOMODE
 70
     1
  9
$REGENMODE
 70
     1
  9
$FILLMODE
 70
     1
  9
$QTEXTMODE
 70
     0
  9
$MIRRTEXT
 70
     0
  9
$DRAGMODE
 70
     2
  9
$LTSCALE
 40
0.6431102362
  9
$OSMODE
 70
  4095
  9
$ATTMODE
 70
     1
  9
$TEXTSIZE
 40
0.2
  9
$TRACEWID
 40
0.05
  9
$TEXTSTYLE
  7
STANDARD
  9
$CLAYER
  8
0
  9
$CELTYPE
  6
BYLAYER
  9
$CECOLOR
 62
   256
  9
$DIMSCALE
 40
1.0
  9
$DIMASZ
 40
0.1875
  9
$DIMEXO
 40
0.0625
  9
$DIMDLI
 40
0.4443307087
  9
$DIMRND
 40
0.0
  9
$DIMDLE
 40
0.0
  9
$DIMEXE
 40
0.125
  9
$DIMTP
 40
0.01
  9
$DIMTM
 40
0.01
  9
$DIMTXT
 40
2.0
  9
$DIMCEN
 40
0.1052362205
  9
$DIMTSZ
 40
0.0
  9
$DIMTOL
 70
     1
  9
$DIMLIM
 70
     0
  9
$DIMTIH
 70
     1
  9
$DIMTOH
 70
     1
  9
$DIMSE1
 70
     0
  9
$DIMSE2
 70
     0
  9
$DIMTAD
 70
     0
  9
$DIMZIN
 70
     0
  9
$DIMBLK
  1

  9
$DIMASO
 70
     1
  9
$DIMSHO
 70
     1
  9
$DIMPOST
  1
\X
  9
$DIMAPOST
  1

  9
$DIMALT
 70
     1
  9
$DIMALTD
 70
     2
  9
$DIMALTF
 40
25.3999999999999986
  9
$DIMLFAC
 40
1.0
  9
$DIMTOFL
 70
     0
  9
$DIMTVP
 40
0.0
  9
$DIMTIX
 70
     0
  9
$DIMSOXD
 70
     0
  9
$DIMSAH
 70
     0
  9
$DIMBLK1
  1

  9
$DIMBLK2
  1

  9
$DIMSTYLE
  2
STANDARD
  9
$DIMCLRD
 70
     0
  9
$DIMCLRE
 70
     0
  9
$DIMCLRT
 70
     0
  9
$DIMTFAC
 40
1.0
  9
$DIMGAP
 40
0.09
  9
$LUNITS
 70
     2
  9
$LUPREC
 70
     4
  9
$SKETCHINC
 40
0.1
  9
$FILLETRAD
 40
0.0
  9
$AUNITS
 70
     0
  9
$AUPREC
 70
     0
  9
$MENU
  1
.
  9
$ELEVATION
 40
0.0
  9
$PELEVATION
 40
0.0
  9
$THICKNESS
 40
0.0
  9
$LIMCHECK
 70
     0
  9
$BLIPMODE
 70
     0
  9
$CHAMFERA
 40
0.0
  9
$CHAMFERB
 40
0.0
  9
$SKPOLY
 70
     0
  9
$TDCREATE
 40
2458060.468368056230247
  9
$TDUPDATE
 40
2459796.6719675920903683
  9
$TDINDWG
 40
0.3708056713
  9
$TDUSRTIMER
 40
0.3708056713
  9
$USRTIMER
 70
     1
  9
$ANGBASE
 50
0.0
  9
$ANGDIR
 70
     0
  9
$PDMODE
 70
     0
  9
$PDSIZE
 40
0.3125
  9
$PLINEWID
 40
0.0
  9
$COORDS
 70
     1
  9
$SPLFRAME
 70
     0
  9
$SPLINETYPE
 70
     6
  9
$SPLINESEGS
 70
     8
  9
$ATTDIA
 70
     1
  9
$ATTREQ
 70
     1
  9
$HANDLING
 70
     1
  9
$HANDSEED
  5
DA6B
  9
$SURFTAB1
 70
     6
  9
$SURFTAB2
 70
     6
  9
$SURFTYPE
 70
     6
  9
$SURFU
 70
     6
  9
$SURFV
 70
     6
  9
$UCSNAME
  2

  9
$UCSORG
 10
0.0
 20
0.0
 30
0.0
  9
$UCSXDIR
 10
1.0
 20
0.0
 30
0.0
  9
$UCSYDIR
 10
0.0
 20
1.0
 30
0.0
  9
$PUCSNAME
  2

  9
$PUCSORG
 10
0.0
 20
0.0
 30
0.0
  9
$PUCSXDIR
 10
1.0
 20
0.0
 30
0.0
  9
$PUCSYDIR
 10
0.0
 20
1.0
 30
0.0
  9
$USERI1
 70
     0
  9
$USERI2
 70
     0
  9
$USERI3
 70
     0
  9
$USERI4
 70
     0
  9
$USERI5
 70
     0
  9
$USERR1
 40
0.0
  9
$USERR2
 40
0.0
  9
$USERR3
 40
0.0
  9
$USERR4
 40
0.0
  9
$USERR5
 40
0.0
  9
$WORLDVIEW
 70
     1
  9
$SHADEDGE
 70
     3
  9
$SHADEDIF
 70
    70
  9
$TILEMODE
 70
     1
  9
$MAXACTVP
 70
    64
  9
$PLIMCHECK
 70
     0
  9
$PEXTMIN
 10
1.0000000000000000E+20
 20
1.0000000000000000E+20
 30
1.0000000000000000E+20
  9
$PEXTMAX
 10
-1.0000000000000000E+20
 20
-1.0000000000000000E+20
 30
-1.0000000000000000E+20
  9
$PLIMMIN
 10
0.0
 20
0.0
  9
$PLIMMAX
 10
12.0
 20
9.0
  9
$UNITMODE
 70
     0
  9
$VISRETAIN
 70
     1
  9
$PLINEGEN
 70
     0
  9
$PSLTSCALE
 70
     1
  0
ENDSEC
  0
SECTION
  2
TABLES
  0
TABLE
  2
VPORT
 70
     1
  0
VPORT
  2
*ACTIVE
 70
     0
 10
0.0
 20
0.0
 11
1.0
 21
1.0
 12
0.0
 22
0.0
 13
0.0
 23
0.0
 14
1.0
 24
1.0
 15
0.0
 25
0.0
 16
0.0
 26
0.0
 36
76.3556556727431115
 17
4929.9569996742120566
 27
244.6223093435827991
 37
0.0
 40
26.6640283165200813
 41
2.1481900452488678
 42
50.0
 43
0.0
 44
0.0
 50
0.0
 51
0.0
 71
     0
 72
   100
 73
     1
 74
     1
 75
     0
 76
     0
 77
     0
 78
     0
  0
ENDTAB
  0
TABLE
  2
LTYPE
 70
     2
  0
LTYPE
  2
CONTINUOUS
 70
     0
  3
Solid line
 72
    65
 73
     0
 40
0.0
  0
LTYPE
  2
PHANTOM2
 70
     0
  3
___ _ _ ___ _ _ ___ _ _ ___ _ _
 72
    65
 73
     6
 40
1.25
 49
0.625
 49
-0.125
 49
0.125
 49
-0.125
 49
0.125
 49
-0.125
  0
ENDTAB
  0
TABLE
  2
LAYER
 70
     2
  0
LAYER
  2
0
 70
     0
 62
   255
  6
CONTINUOUS
  0
LAYER
  2
DEFPOINTS
 70
     0
 62
     7
  6
CONTINUOUS
  0
ENDTAB
  0
TABLE
  2
STYLE
 70
     1
  0
STYLE
  2
STANDARD
 70
     0
 40
0.0
 41
0.8
 50
0.0
 71
     0
 42
0.2
  3
txt
  4

  0
ENDTAB
  0
TABLE
  2
VIEW
 70
     0
  0
ENDTAB
  0
TABLE
  2
UCS
 70
     0
  0
ENDTAB
  0
TABLE
  2
APPID
 70
     9
  0
APPID
  2
ACAD
 70
     0
  0
APPID
  2
ACAD_MLEADERVER
 70
     0
  0
APPID
  2
ACAD_EXEMPT_FROM_CAD_STANDARDS
 70
     0
  0
APPID
  2
ACAD_NAV_VCDISPLAY
 70
     0
  0
APPID
  2
ACAECLAYERSTANDARD
 70
     0
  0
APPID
  2
ACCMTRANSPARENCY
 70
     0
  0
APPID
  2
ACAD_DSTYLE_DIMJAG
 70
     0
  0
APPID
  2
ACAD_DSTYLE_DIMTALN
 70
     0
  0
APPID
  2
ACDBATTR
 70
     0
  0
ENDTAB
  0
TABLE
  2
DIMSTYLE
 70
     1
  0
DIMSTYLE
  2
STANDARD
 70
     0
  3

  4

  5

  6

  7

 40
1.0
 41
0.1875
 42
0.0625
 43
0.38
 44
0.125
 45
0.0
 46
0.0
 47
0.01
 48
0.01
140
0.15625
141
0.09
142
0.0
143
25.3999999999999986
144
1.0
145
0.0
146
1.0
147
0.09
 71
     1
 72
     0
 73
     1
 74
     1
 75
     0
 76
     0
 77
     0
 78
     4
170
     0
171
     2
172
     0
173
     0
174
     0
175
     0
176
     0
177
     0
178
     0
  0
ENDTAB
  0
ENDSEC
  0
SECTION
  2
BLOCKS
  0
BLOCK
  8
0
  2
$MODEL_SPACE
 70
     0
 10
0.0
 20
0.0
 30
0.0
  3
$MODEL_SPACE
  1

  0
ENDBLK
  5
21
  8
0
  0
BLOCK
 67
     1
  8
0
  2
$PAPER_SPACE
 70
     0
 10
0.0
 20
0.0
 30
0.0
  3
$PAPER_SPACE
  1

  0
ENDBLK
  5
1D
 67
     1
  8
0
  0
ENDSEC
  0
SECTION
  2
ENTITIES
  0
ATTDEF
  5
3930
  8
DEFPOINTS
 10
4940.5805787751887692
 20
236.594280755850491
 30
0.0
 40
0.001
  1
K-77725W
  3

  2
MODELNUMBER
 70
     0
1001
ACDBATTR
1070
     0
1070
     1
  0
ATTDEF
  5
3931
  8
DEFPOINTS
 10
4940.5805787751887692
 20
236.5926140891839111
 30
0.0
 40
0.001
  1
MODERNLIFE
  3

  2
TRADENAME
 70
     0
1001
ACDBATTR
1070
     0
1070
     1
  0
ATTDEF
  5
3932
  8
DEFPOINTS
 10
4940.5805787751887692
 20
236.5909474225171891
 30
0.0
 40
0.001
  1
BOWL
  3

  2
PRODUCT
 70
     0
1001
ACDBATTR
1070
     0
1070
     1
  0
LINE
  5
D9CD
  8
0
 10
4939.232906131161144
 20
240.1065142259431866
 30
0.0
 11
4940.3875407668583648
 21
240.1065142259431866
 31
0.0
  0
LINE
  5
D9CE
  8
0
 10
4927.8807792718580458
 20
240.4961924935431057
 30
0.0
 11
4940.348170688056598
 21
240.4961924935431057
 31
0.0
  0
LINE
  5
D9CF
  8
0
 10
4938.9978562085616431
 20
240.3303696325806982
 30
0.0
 11
4938.9891638771578073
 21
240.4961924935431057
 31
0.0
  0
LINE
  5
D9D0
  8
0
 10
4940.5843911605579706
 20
240.3033670785432037
 30
0.0
 11
4940.5843911605579706
 21
252.4182023553431975
 31
0.0
  0
ARC
  5
D9D1
  8
0
 10
4928.7629700822071754
 20
240.1875492607985905
 30
0.0
 40
0.3091737261985638
 50
35.9376217799579578
 51
86.6430994689813048
  0
ARC
  5
D9D2
  8
0
 10
4927.9097440427458423
 20
240.7938351222130962
 30
0.0
 40
0.2990486454605646
 50
225.0641242603064995
 51
264.4418243334802128
  0
ARC
  5
D9D3
  8
0
 10
4939.2608449498329719
 20
240.3711800325619947
 30
0.0
 40
0.2661363687699235
 50
188.8207629539238894
 51
263.9740241108697205
  0
ARC
  5
D9D4
  8
0
 10
4940.3670394866312563
 20
240.3238656438030887
 30
0.0
 40
0.2183161499676592
 50
275.3883788419495886
 51
354.6123368473157029
  0
ARC
  5
D9D5
  8
0
 10
5388.8265500064835578
 20
617.4687214983968033
 30
0.0
 40
595.5523104891732373
 50
218.0393124495936945
 51
219.2596240906221965
  0
LINE
  5
D9D6
  8
0
 10
4919.5573281607948957
 20
252.6536729091432107
 30
0.0
 11
4940.375624847328254
 21
252.6536729091432107
 31
0.0
  0
ARC
  5
D9D7
  8
0
 10
4940.3392289703670031
 20
252.4111240649191075
 30
0.0
 40
0.2452643506386532
 50
1.6537767711922911
 51
81.4661039431506282
  0
ARC
  5
D9D8
  8
0
 10
4919.5819147661186435
 20
252.3946375368313966
 30
0.0
 40
0.260199587374911
 50
95.4220435233762316
 51
174.3614254816961022
  0
LINE
  5
D9D9
  8
0
 10
4919.3229741605573508
 20
252.4202029052360103
 30
0.0
 11
4919.3229741605573508
 21
251.8663932996076085
 31
0.0
  0
ARC
  5
D9DA
  8
0
 10
4922.6606344254832948
 20
252.201230399522899
 30
0.0
 40
3.3544137978989839
 50
185.728797042486292
 51
210.7092809038653911
  0
ARC
  5
D9DB
  8
0
 10
4932.2465107163961875
 20
244.0843096995322981
 30
0.0
 40
5.21351994262153
 50
253.0752283842695078
 51
268.0304142300383887
  0
ARC
  5
D9DC
  8
0
 10
4931.2673580009513898
 20
241.5361192593672968
 30
0.0
 40
2.4982663655770541
 50
229.5291104564529121
 51
257.5502255488326
  0
ARC
  5
D9DD
  8
0
 10
4931.7564760329787532
 20
242.0954218628120032
 30
0.0
 40
3.241228326065503
 50
212.1841997222009866
 51
229.3688178299844935
  0
ARC
  5
D9DE
  8
0
 10
4931.8213946506239154
 20
241.6891419991956127
 30
0.0
 40
2.8259936646435788
 50
274.9924920096806886
 51
335.0305772236192183
  0
ARC
  5
D9DF
  8
0
 10
4940.343471601838246
 20
240.7371120522643935
 30
0.0
 40
0.2409653817164247
 50
271.1174006563592798
 51
358.8825993193593149
  0
ENDSEC
  0
EOF
