  0
SECTION
  2
HEADER
  9
$ACADVER
  1
AC1009
  9
$INSBASE
 10
4472.108901423253883
 20
451.1171812397067811
 30
0.0
  9
$EXTMIN
 10
4443.3886570644017411
 20
451.089494261415382
 30
-0.0000000349181948
  9
$EXTMAX
 10
4472.3906911997000861
 20
480.3148242308001841
 30
0.0000000814935746
  9
$LIMMIN
 10
0.0
 20
0.0
  9
$LIMMAX
 10
11.6929133858000007
 20
8.2677165353999982
  9
$ORTHOMODE
 70
     0
  9
$REGENMODE
 70
     1
  9
$FILLMODE
 70
     1
  9
$QTEXTMODE
 70
     0
  9
$MIRRTEXT
 70
     0
  9
$DRAGMODE
 70
     2
  9
$LTSCALE
 40
0.6431102362
  9
$OSMODE
 70
   695
  9
$ATTMODE
 70
     1
  9
$TEXTSIZE
 40
0.2
  9
$TRACEWID
 40
0.05
  9
$TEXTSTYLE
  7
STANDARD
  9
$CLAYER
  8
0
  9
$CELTYPE
  6
BYLAYER
  9
$CECOLOR
 62
   256
  9
$DIMSCALE
 40
1.0
  9
$DIMASZ
 40
0.1875
  9
$DIMEXO
 40
0.0625
  9
$DIMDLI
 40
0.4443307087
  9
$DIMRND
 40
0.0
  9
$DIMDLE
 40
0.0
  9
$DIMEXE
 40
0.125
  9
$DIMTP
 40
0.01
  9
$DIMTM
 40
0.01
  9
$DIMTXT
 40
2.0
  9
$DIMCEN
 40
0.1052362205
  9
$DIMTSZ
 40
0.0
  9
$DIMTOL
 70
     1
  9
$DIMLIM
 70
     0
  9
$DIMTIH
 70
     1
  9
$DIMTOH
 70
     1
  9
$DIMSE1
 70
     0
  9
$DIMSE2
 70
     0
  9
$DIMTAD
 70
     0
  9
$DIMZIN
 70
     0
  9
$DIMBLK
  1

  9
$DIMASO
 70
     1
  9
$DIMSHO
 70
     1
  9
$DIMPOST
  1
\X
  9
$DIMAPOST
  1

  9
$DIMALT
 70
     1
  9
$DIMALTD
 70
     2
  9
$DIMALTF
 40
25.3999999999999986
  9
$DIMLFAC
 40
1.0
  9
$DIMTOFL
 70
     0
  9
$DIMTVP
 40
0.0
  9
$DIMTIX
 70
     0
  9
$DIMSOXD
 70
     0
  9
$DIMSAH
 70
     0
  9
$DIMBLK1
  1

  9
$DIMBLK2
  1

  9
$DIMSTYLE
  2
STANDARD
  9
$DIMCLRD
 70
     0
  9
$DIMCLRE
 70
     0
  9
$DIMCLRT
 70
     0
  9
$DIMTFAC
 40
1.0
  9
$DIMGAP
 40
0.09
  9
$LUNITS
 70
     2
  9
$LUPREC
 70
     4
  9
$SKETCHINC
 40
0.1
  9
$FILLETRAD
 40
0.0
  9
$AUNITS
 70
     0
  9
$AUPREC
 70
     0
  9
$MENU
  1
.
  9
$ELEVATION
 40
0.0
  9
$PELEVATION
 40
0.0
  9
$THICKNESS
 40
0.0
  9
$LIMCHECK
 70
     0
  9
$BLIPMODE
 70
     0
  9
$CHAMFERA
 40
0.0
  9
$CHAMFERB
 40
0.0
  9
$SKPOLY
 70
     0
  9
$TDCREATE
 40
2458060.468368056230247
  9
$TDUPDATE
 40
2459297.5837500002235174
  9
$TDINDWG
 40
1.5094472221999999
  9
$TDUSRTIMER
 40
1.5094472221999999
  9
$USRTIMER
 70
     1
  9
$ANGBASE
 50
0.0
  9
$ANGDIR
 70
     0
  9
$PDMODE
 70
     0
  9
$PDSIZE
 40
0.3125
  9
$PLINEWID
 40
0.0
  9
$COORDS
 70
     1
  9
$SPLFRAME
 70
     0
  9
$SPLINETYPE
 70
     6
  9
$SPLINESEGS
 70
     8
  9
$ATTDIA
 70
     1
  9
$ATTREQ
 70
     1
  9
$HANDLING
 70
     1
  9
$HANDSEED
  5
19C82
  9
$SURFTAB1
 70
     6
  9
$SURFTAB2
 70
     6
  9
$SURFTYPE
 70
     6
  9
$SURFU
 70
     6
  9
$SURFV
 70
     6
  9
$UCSNAME
  2

  9
$UCSORG
 10
0.0
 20
0.0
 30
0.0
  9
$UCSXDIR
 10
1.0
 20
0.0
 30
0.0
  9
$UCSYDIR
 10
0.0
 20
1.0
 30
0.0
  9
$PUCSNAME
  2

  9
$PUCSORG
 10
0.0
 20
0.0
 30
0.0
  9
$PUCSXDIR
 10
1.0
 20
0.0
 30
0.0
  9
$PUCSYDIR
 10
0.0
 20
1.0
 30
0.0
  9
$USERI1
 70
     0
  9
$USERI2
 70
     0
  9
$USERI3
 70
     0
  9
$USERI4
 70
     0
  9
$USERI5
 70
     0
  9
$USERR1
 40
0.0
  9
$USERR2
 40
0.0
  9
$USERR3
 40
0.0
  9
$USERR4
 40
0.0
  9
$USERR5
 40
0.0
  9
$WORLDVIEW
 70
     1
  9
$SHADEDGE
 70
     3
  9
$SHADEDIF
 70
    70
  9
$TILEMODE
 70
     1
  9
$MAXACTVP
 70
    64
  9
$PLIMCHECK
 70
     0
  9
$PEXTMIN
 10
1.0000000000000000E+20
 20
1.0000000000000000E+20
 30
1.0000000000000000E+20
  9
$PEXTMAX
 10
-1.0000000000000000E+20
 20
-1.0000000000000000E+20
 30
-1.0000000000000000E+20
  9
$PLIMMIN
 10
0.0
 20
0.0
  9
$PLIMMAX
 10
12.0
 20
9.0
  9
$UNITMODE
 70
     0
  9
$VISRETAIN
 70
     1
  9
$PLINEGEN
 70
     0
  9
$PSLTSCALE
 70
     1
  0
ENDSEC
  0
SECTION
  2
TABLES
  0
TABLE
  2
VPORT
 70
     1
  0
VPORT
  2
*ACTIVE
 70
     0
 10
0.0
 20
0.0
 11
1.0
 21
1.0
 12
546.5243173141055877
 22
333.1225540821420168
 13
0.0
 23
0.0
 14
1.0
 24
1.0
 15
0.0
 25
0.0
 16
0.0
 26
0.0
 36
60.4960186965801583
 17
3911.3653564453120453
 27
132.5796051025390057
 37
0.0
 40
37.3627884300599433
 41
1.866962305986696
 42
50.0
 43
0.0
 44
0.0
 50
0.0
 51
0.0
 71
     0
 72
   100
 73
     1
 74
     1
 75
     0
 76
     0
 77
     0
 78
     0
  0
ENDTAB
  0
TABLE
  2
LTYPE
 70
     2
  0
LTYPE
  2
CONTINUOUS
 70
     0
  3
Solid line
 72
    65
 73
     0
 40
0.0
  0
LTYPE
  2
PHANTOM2
 70
     0
  3
___ _ _ ___ _ _ ___ _ _ ___ _ _
 72
    65
 73
     6
 40
1.25
 49
0.625
 49
-0.125
 49
0.125
 49
-0.125
 49
0.125
 49
-0.125
  0
ENDTAB
  0
TABLE
  2
LAYER
 70
     2
  0
LAYER
  2
0
 70
     0
 62
   255
  6
CONTINUOUS
  0
LAYER
  2
DEFPOINTS
 70
     0
 62
     7
  6
CONTINUOUS
  0
ENDTAB
  0
TABLE
  2
STYLE
 70
     1
  0
STYLE
  2
STANDARD
 70
     0
 40
0.0
 41
0.8
 50
0.0
 71
     0
 42
0.2
  3
txt
  4

  0
ENDTAB
  0
TABLE
  2
VIEW
 70
     0
  0
ENDTAB
  0
TABLE
  2
UCS
 70
     0
  0
ENDTAB
  0
TABLE
  2
APPID
 70
    11
  0
APPID
  2
ACAD
 70
     0
  0
APPID
  2
ACAD_MLEADERVER
 70
     0
  0
APPID
  2
ACAD_EXEMPT_FROM_CAD_STANDARDS
 70
     0
  0
APPID
  2
ACAD_NAV_VCDISPLAY
 70
     0
  0
APPID
  2
ACAECLAYERSTANDARD
 70
     0
  0
APPID
  2
ACCMTRANSPARENCY
 70
     0
  0
APPID
  2
ACAD_DSTYLE_DIMJAG
 70
     0
  0
APPID
  2
ACAD_DSTYLE_DIMTALN
 70
     0
  0
APPID
  2
ACDBATTR
 70
     0
  0
APPID
  2
ACADANNOTATIVE
 70
     0
  0
APPID
  2
DCO15
 70
     0
  0
ENDTAB
  0
TABLE
  2
DIMSTYLE
 70
     1
  0
DIMSTYLE
  2
STANDARD
 70
     0
  3

  4

  5

  6

  7

 40
1.0
 41
0.1875
 42
0.0625
 43
0.38
 44
0.125
 45
0.0
 46
0.0
 47
0.01
 48
0.01
140
0.15625
141
0.09
142
0.0
143
25.3999999999999986
144
1.0
145
0.0
146
1.0
147
0.09
 71
     1
 72
     0
 73
     1
 74
     1
 75
     0
 76
     0
 77
     0
 78
     4
170
     0
171
     2
172
     0
173
     0
174
     0
175
     0
176
     0
177
     0
178
     0
  0
ENDTAB
  0
ENDSEC
  0
SECTION
  2
BLOCKS
  0
BLOCK
  8
0
  2
$MODEL_SPACE
 70
     0
 10
0.0
 20
0.0
 30
0.0
  3
$MODEL_SPACE
  1

  0
ENDBLK
  5
21
  8
0
  0
BLOCK
 67
     1
  8
0
  2
$PAPER_SPACE
 70
     0
 10
0.0
 20
0.0
 30
0.0
  3
$PAPER_SPACE
  1

  0
ENDBLK
  5
1D
 67
     1
  8
0
  0
ENDSEC
  0
SECTION
  2
ENTITIES
  0
LINE
  5
19A58
  8
0
 10
4443.5490471598541262
 20
466.216835410506917
 30
0.0
 11
4443.5510707864550568
 21
466.0512516793069153
 31
0.0
  0
LINE
  5
19A59
  8
0
 10
4443.4684803999552969
 20
467.5722732935068962
 30
0.0
 11
4443.4684817829547683
 21
467.6894647042067845
 31
0.0
  0
LINE
  5
19A5A
  8
0
 10
4443.4685204345551028
 20
467.0201733628068723
 30
0.0
 11
4443.4685204345551028
 21
466.9061330818068996
 31
0.0
  0
LINE
  5
19A5B
  8
0
 10
4448.0286041055542228
 20
467.0989135231067735
 30
0.0
 11
4448.0393358831552177
 21
467.1042952291069241
 31
0.0
  0
LINE
  5
19A5C
  8
0
 10
4448.2581787750550575
 20
466.5175142466068223
 30
0.0
 11
4448.2581955036548607
 21
466.5175216414069155
 31
0.0
  0
LINE
  5
19A5D
  8
0
 10
4443.5248027665038535
 20
466.8306634950859006
 30
0.0
 11
4443.5798013631556387
 21
466.8097454656067953
 31
0.0
  0
LINE
  5
19A5E
  8
0
 10
4446.6520447031562071
 20
467.2579366788069137
 30
0.0
 11
4446.8659466847548174
 21
467.104219976306922
 31
0.0
  0
LINE
  5
19A5F
  8
0
 10
4446.8659466847548174
 20
467.104219976306922
 30
0.0
 11
4446.8764489285549644
 21
467.0989135231067735
 31
0.0
  0
LINE
  5
19A60
  8
0
 10
4446.5809755467553259
 20
466.5370684288068901
 30
0.0
 11
4446.5746473339549993
 21
466.5388457710068906
 31
0.0
  0
LINE
  5
19A61
  8
0
 10
4460.4294306500542007
 20
467.0991648164068124
 30
0.0
 11
4460.3741653619554199
 21
467.0989676321067918
 31
0.0
  0
LINE
  5
19A62
  8
0
 10
4461.1604516386541945
 20
467.0989135231067735
 30
0.0
 11
4443.5472387242562036
 21
467.0989135231067735
 31
0.0
  0
LINE
  5
19A63
  8
0
 10
4448.8929923883551965
 20
466.6579067180069273
 30
0.0
 11
4452.695323002853911
 21
466.6552774023069219
 31
0.0
  0
LINE
  5
19A64
  8
0
 10
4446.5650215248551831
 20
467.2603664980068174
 30
0.0
 11
4446.6597348830009651
 21
467.2524102733066229
 31
0.0
  0
LINE
  5
19A65
  8
0
 10
4446.6182806488550341
 20
467.2650864101067896
 30
0.0
 11
4446.6376375073550662
 21
467.2632954171068036
 31
0.0
  0
LINE
  5
19A66
  8
0
 10
4446.6376375073550662
 20
467.2632954171068036
 30
0.0
 11
4446.6440375379552279
 21
467.2625620969068905
 31
0.0
  0
LINE
  5
19A67
  8
0
 10
4461.9356730289546249
 20
467.7682048617068062
 30
0.0
 11
4443.5472219403545751
 21
467.7682048617068062
 31
0.0
  0
LINE
  5
19A68
  8
0
 10
4449.7319595268563717
 20
467.297228714006792
 30
0.0
 11
4457.7036811445550484
 21
467.2969970498069188
 31
0.0
  0
LINE
  5
19A69
  8
0
 10
4461.0414169738551209
 20
467.3439419708068954
 30
0.0
 11
4461.0419779686553738
 21
467.337277079506805
 31
0.0
  0
LINE
  5
19A6A
  8
0
 10
4461.0419778356554161
 20
467.3372782633069278
 30
0.0
 11
4461.0535147013542883
 21
467.1722933966366895
 31
0.0
  0
LINE
  5
19A6B
  8
0
 10
4461.0593375724238285
 20
466.6513911085892801
 30
0.0
 11
4461.0534380726121526
 21
466.4661703715689214
 31
0.0
  0
LINE
  5
19A6C
  8
0
 10
4461.9742944379549954
 20
466.6653247247069203
 30
0.0
 11
4461.974292349254938
 21
466.6653181818069243
 31
0.0
  0
LINE
  5
19A6D
  8
0
 10
4462.1092309191380991
 20
466.4693897436806083
 30
0.0
 11
4462.0933687882288723
 21
466.9736504329742957
 31
0.0
  0
LINE
  5
19A6E
  8
0
 10
4462.0144131864553856
 20
467.4065397417961094
 30
0.0
 11
4462.0144131864553856
 21
467.6894647042067845
 31
0.0
  0
LINE
  5
19A6F
  8
0
 10
4465.0829545367550963
 20
479.3584496868069209
 30
0.0
 11
4465.0822530881541752
 21
479.3493808939068117
 31
0.0
  0
LINE
  5
19A70
  8
0
 10
4465.5056840566548999
 20
479.7573337135069096
 30
0.0
 11
4465.5046856575545462
 21
479.7492812678067935
 31
0.0
  0
LINE
  5
19A71
  8
0
 10
4465.489095808955426
 20
479.5712110443067786
 30
0.0
 11
4465.4890957406551024
 21
479.5712086355068209
 31
0.0
  0
LINE
  5
19A72
  8
0
 10
4465.0822530881541752
 20
479.3493808939068117
 30
0.0
 11
4464.9968955166541491
 21
476.735108763006906
 31
0.0
  0
LINE
  5
19A73
  8
0
 10
4464.9968955166541491
 20
476.735108763006906
 30
0.0
 11
4464.6999294480547178
 21
467.6272345712068272
 31
0.0
  0
LINE
  5
19A74
  8
0
 10
4465.5046856575545462
 20
479.7492812678067935
 30
0.0
 11
4465.4891436318548585
 21
479.5712087122067828
 31
0.0
  0
LINE
  5
19A75
  8
0
 10
4464.9978825689549922
 20
480.028322685606895
 30
0.0
 11
4465.000977517955107
 21
479.969267531906894
 31
0.0
  0
LINE
  5
19A76
  8
0
 10
4468.7860631454541362
 20
480.1879347370069127
 30
0.0
 11
4468.786066729754566
 21
480.159149742206921
 31
0.0
  0
LINE
  5
19A77
  8
0
 10
4471.127247406456263
 20
479.9692675431068096
 30
0.0
 11
4471.130342354053937
 21
480.0283226624068789
 31
0.0
  0
LINE
  5
19A78
  8
0
 10
4471.126005766354865
 20
479.9455915140068214
 30
0.0
 11
4471.127247406456263
 21
479.9692675431068096
 31
0.0
  0
LINE
  5
19A79
  8
0
 10
4471.1089014232547925
 20
479.4636379326067868
 30
0.0
 11
4465.1995899821540661
 21
479.4636379326067868
 31
0.0
  0
LINE
  5
19A7A
  8
0
 10
4471.1089014232547925
 20
479.8573387200067941
 30
0.0
 11
4471.0092984050552332
 21
479.8573387200067941
 31
0.0
  0
LINE
  5
19A7B
  8
0
 10
4465.1189099158546014
 20
479.8573387200067941
 30
0.0
 11
4471.0092984050552332
 21
479.8573387200067941
 31
0.0
  0
LINE
  5
19A7C
  8
0
 10
4471.0123939846553185
 20
480.1526143105069195
 30
0.0
 11
4465.1158171317547385
 21
480.1526143105069195
 31
0.0
  0
ARC
  5
19A7D
  8
0
 10
4443.5472851791337234
 20
466.9061997226658036
 30
0.0
 40
0.0788110433546455
 50
247.1535793827270879
 51
253.4250219427995034
  0
ARC
  5
19A7E
  8
0
 10
4443.5472520447092393
 20
467.6894345999526195
 30
0.0
 40
0.0787702675069006
 50
90.021897253142015
 51
179.978102819607102
  0
ARC
  5
19A7F
  8
0
 10
4443.5472602883228319
 20
466.9061329595335792
 30
0.0
 40
0.0787398537690675
 50
179.9999110267835079
 51
247.1514083881276065
  0
ARC
  5
19A80
  8
0
 10
4441.2938363517550897
 20
482.3172205331068767
 30
0.0
 40
17.2665220623000017
 50
293.2839534069115075
 51
293.7873747187135791
  0
ARC
  5
19A81
  8
0
 10
4441.8306921635548861
 20
480.928818041606803
 30
0.0
 40
15.7776860409000008
 50
293.474459845246713
 51
294.0164964200869235
  0
ARC
  5
19A82
  8
0
 10
4443.3613382845551314
 20
477.2759781700067947
 30
0.0
 40
11.8372205135000002
 50
293.9386805757030743
 51
294.8747188781777027
  0
ARC
  5
19A83
  8
0
 10
4446.1308929848310072
 20
465.0758627550416122
 30
0.0
 40
1.5288579013960111
 50
71.1283670410963822
 51
72.2616665410803733
  0
ARC
  5
19A84
  8
0
 10
4447.9177002511451064
 20
467.2654824945099108
 30
0.0
 40
0.8197988511013811
 50
294.0813035460187734
 51
294.4758339484000089
  0
ARC
  5
19A85
  8
0
 10
4452.1855068454551656
 20
485.0053232728067769
 30
0.0
 40
19.3114295990000002
 50
253.0235707365166888
 51
253.4407356232738948
  0
ARC
  5
19A86
  8
0
 10
4460.7916425432549659
 20
467.6644220309069055
 30
0.0
 40
0.5659848645000001
 50
304.3233084337924197
 51
308.9838404780874725
  0
ARC
  5
19A87
  8
0
 10
4460.7977787108811754
 20
467.6574057892675
 30
0.0
 40
0.5566708189759694
 50
308.9472132133284958
 51
318.2152655873434242
  0
ARC
  5
19A88
  8
0
 10
4461.5813423202553167
 20
466.9611182475068176
 30
0.0
 40
0.5118110236
 50
227.5045203006849874
 51
254.77325523493991
  0
ARC
  5
19A89
  8
0
 10
4462.8018147612547182
 20
467.4065398420067936
 30
0.0
 40
0.7874015748000001
 50
180.000007291898612
 51
200.0499757241929899
  0
ARC
  5
19A8A
  8
0
 10
4461.9356730289546249
 20
467.6894647042067845
 30
0.0
 40
0.0787401575
 50
0.0
 51
90.0
  0
ARC
  5
19A8B
  8
0
 10
4468.1176714164548684
 20
462.3133352019067956
 30
0.0
 40
17.9592919677999987
 50
89.6913511831745751
 51
89.8477423930075361
  0
ARC
  5
19A8C
  8
0
 10
4471.0093740652855558
 20
479.9753756136863103
 30
0.0
 40
0.1180369179280818
 50
270.0367263774650723
 51
331.1039175691877858
  0
ARC
  5
19A8D
  8
0
 10
4471.0123939838549632
 20
480.0345040743068239
 30
0.0
 40
0.1181102362
 50
357.0000001359026101
 51
90.0
  0
ARC
  5
19A8E
  8
0
 10
4468.7742557061546904
 20
480.1591497436069176
 30
0.0
 40
0.0118110236
 50
326.4040042447226142
 51
0.0
  0
LINE
  5
19A8F
  8
0
 10
4446.6080615990549632
 20
467.270946636506892
 30
0.0
 11
4446.627675521654055
 21
467.2714102431068
 31
0.0
  0
LINE
  5
19A90
  8
0
 10
4446.5966906816547635
 20
466.5320354743068947
 30
0.0
 11
4446.5809755467553259
 21
466.5370684288068901
 31
0.0
  0
LINE
  5
19A91
  8
0
 10
4446.5746473339549993
 20
466.5388457710068906
 30
0.0
 11
4446.561120030454731
 21
466.5426570792067764
 31
0.0
  0
LINE
  5
19A92
  8
0
 10
4445.7121112679551516
 20
467.2944155373069179
 30
0.0
 11
4448.0621896297552667
 21
467.2913885128068046
 31
0.0
  0
LINE
  5
19A93
  8
0
 10
4448.0621896297552667
 20
467.2913885128068046
 30
0.0
 11
4448.7838960965545994
 21
467.2912085101069124
 31
0.0
  0
ARC
  5
19A94
  8
0
 10
4468.4827227821970155
 20
479.5057299921949721
 30
0.0
 40
0.7795241475018648
 50
70.0498786828704283
 51
82.4872559009328228
  0
LINE
  5
19A95
  8
0
 10
4449.2371130684550735
 20
451.1171812397067811
 30
0.0
 11
4471.1089014232547925
 21
451.1171812397067811
 31
0.0
  0
LINE
  5
19A96
  8
0
 10
4471.1089014232547925
 20
451.1171812397067811
 30
0.0
 11
4471.1089014232547925
 21
479.8573387200067941
 31
0.0
  0
CIRCLE
  5
19A97
  8
0
 10
4465.7940154460138729
 20
452.6908727549048876
 30
0.0
 40
0.5392260141670741
  0
ARC
  5
19A98
  8
0
 10
4468.6842478320986629
 20
480.1896987031926756
 30
0.0
 40
0.1018305927045948
 50
359.0074409837176859
 51
7.3787261303380749
  0
ARC
  5
19A99
  8
0
 10
4468.7436443419501302
 20
480.1985173972934149
 30
0.0
 40
0.0418083268728806
 50
5.8470398943748894
 51
30.0611272018983584
  0
ARC
  5
19A9A
  8
0
 10
4468.7495140900327897
 20
480.1988972946467129
 30
0.0
 40
0.0366310183770475
 50
34.1493246856866079
 51
64.9395369611972626
  0
ARC
  5
19A9B
  8
0
 10
4468.7190645030041196
 20
480.1387416024585946
 30
0.0
 40
0.1040426483467718
 50
63.7815173734190068
 51
73.4518964724279897
  0
ARC
  5
19A9C
  8
0
 10
4468.5766268571442197
 20
480.2598968478870916
 30
0.0
 40
0.0203142088941856
 50
66.7584859161433855
 51
86.9247266222488832
  0
ARC
  5
19A9D
  8
0
 10
4468.5765517025984082
 20
480.2565028654997832
 30
0.0
 40
0.0237075771584233
 50
87.1834032621848252
 51
105.0139306329149065
  0
ARC
  5
19A9E
  8
0
 10
4468.575754186089398
 20
480.2595734660131939
 30
0.0
 40
0.0205352137948544
 50
105.0841285302198003
 51
131.44837464037019
  0
ARC
  5
19A9F
  8
0
 10
4468.5918547694645895
 20
480.2423255901094876
 30
0.0
 40
0.0441259051130207
 50
132.2938173330543918
 51
144.8259440349476108
  0
ARC
  5
19AA0
  8
0
 10
4468.547612946677873
 20
480.6714454240658938
 30
0.0
 40
0.4037832904960813
 50
271.159813464818626
 51
272.0690988964768167
  0
ARC
  5
19AA1
  8
0
 10
4468.5574197970672685
 20
480.4054890996364975
 30
0.0
 40
0.1376464354502115
 50
271.9866088779889992
 51
274.1501599166062988
  0
ARC
  5
19AA2
  8
0
 10
4468.5658697522676448
 20
480.2952414043016915
 30
0.0
 40
0.027080026429934
 50
273.1999078195395896
 51
281.5088761974855061
  0
ARC
  5
19AA3
  8
0
 10
4468.5708564516926344
 20
480.27101636825779
 30
0.0
 40
0.0023477183986186
 50
280.2137706527881846
 51
301.0551607204939728
  0
ARC
  5
19AA4
  8
0
 10
4468.5718951264461793
 20
480.2693215851297168
 30
0.0
 40
0.0003603674392008
 50
298.5857921634162153
 51
342.2956762074854282
  0
ARC
  5
19AA5
  8
0
 10
4468.5911482799401711
 20
480.2635809302823873
 30
0.0
 40
0.0197304703345999
 50
147.0499913801039042
 51
163.4172709465873083
  0
ARC
  5
19AA6
  8
0
 10
4468.5832545528783157
 20
480.2675954881602252
 30
0.0
 40
0.0109620061589753
 50
112.4664261651702049
 51
142.2112863969358045
  0
ARC
  5
19AA7
  8
0
 10
4468.5835094917847528
 20
480.2671145398192039
 30
0.0
 40
0.0115039917427297
 50
84.3453633935469753
 51
112.7244146411429995
  0
ARC
  5
19AA8
  8
0
 10
4468.533327261928207
 20
481.3855276599837225
 30
0.0
 40
1.118008401975483
 50
269.3333210971272251
 51
271.1510444072891914
  0
ARC
  5
19AA9
  8
0
 10
4468.5246491600237277
 20
482.1037270801456884
 30
0.0
 40
1.8361372457629259
 50
268.5229534880000983
 51
269.8648698982809719
  0
ARC
  5
19AAA
  8
0
 10
4468.1797088990197153
 20
469.6469977156120876
 30
0.0
 40
10.6253709934907707
 50
88.394965048623078
 51
89.0602531187352326
  0
ARC
  5
19AAB
  8
0
 10
4468.1463621573257115
 20
466.7921120977791816
 30
0.0
 40
13.4804262746990808
 50
89.1175494616365
 51
89.7107476033023659
  0
ARC
  5
19AAC
  8
0
 10
4468.0894437042989011
 20
462.2220412371992779
 30
0.0
 40
18.0506823156917804
 50
89.7589134229253887
 51
90.8055496214130216
  0
ARC
  5
19AAD
  8
0
 10
4468.4796144149286192
 20
480.2696312021569156
 30
0.0
 40
0.0407551842166306
 50
357.1361247055049262
 51
7.7894649925430892
  0
ARC
  5
19AAE
  8
0
 10
4468.5005815247959617
 20
480.271714557764426
 30
0.0
 40
0.0197145201332521
 50
10.0500033208200996
 51
51.4236792542564629
  0
ARC
  5
19AAF
  8
0
 10
4468.5003952281240345
 20
480.2713450641232953
 30
0.0
 40
0.0201197272617779
 50
51.6650473994370287
 51
72.3461070815405947
  0
ARC
  5
19AB0
  8
0
 10
4468.4997992346879983
 20
480.268881819579974
 30
0.0
 40
0.0226484202107491
 50
72.7991810745902512
 51
81.3260765284570084
  0
ARC
  5
19AB1
  8
0
 10
4468.2488232453279124
 20
478.3618974166382145
 30
0.0
 40
1.94607253119302
 50
82.4887694623570269
 51
83.3639088770015064
  0
ARC
  5
19AB2
  8
0
 10
4468.1964373020809944
 20
477.8728500165860282
 30
0.0
 40
2.4379013833557361
 50
83.469215951777656
 51
85.0078839452703505
  0
ARC
  5
19AB3
  8
0
 10
4468.0948121997726048
 20
475.7768237674321767
 30
0.0
 40
4.5355461118600546
 50
86.0331228542312516
 51
88.5963873304126537
  0
ARC
  5
19AB4
  8
0
 10
4468.0905981121686636
 20
474.4207165795988885
 30
0.0
 40
5.8914210225475063
 50
88.8784735314859233
 51
89.5247047009590062
  0
ARC
  5
19AB5
  8
0
 10
4465.1167025852182633
 20
480.0336770117104948
 30
0.0
 40
0.1189405947218407
 50
90.4265424695833246
 51
182.5801451465478067
  0
ARC
  5
19AB6
  8
0
 10
4465.1198437370230749
 20
479.9764160357328251
 30
0.0
 40
0.1190809772484778
 50
183.4415698173048099
 51
269.5506875962194044
  0
ARC
  5
19AB7
  8
0
 10
4465.6277823716536659
 20
479.7336205646445819
 30
0.0
 40
0.1243797087739298
 50
122.7115544951283965
 51
169.009206268520586
  0
ARC
  5
19AB8
  8
0
 10
4465.6244256573891107
 20
479.7410598548850089
 30
0.0
 40
0.1163124228259082
 50
91.3763571482258641
 51
123.3006786564128987
  0
ARC
  5
19AB9
  8
0
 10
4465.3696021149644366
 20
479.585882829067998
 30
0.0
 40
0.1204387975954176
 50
317.4751784015256248
 51
353.0017639673581016
  0
ARC
  5
19ABA
  8
0
 10
4465.3669906800087119
 20
479.5860881176780026
 30
0.0
 40
0.1225127707899301
 50
271.8314837154966881
 51
318.2299287918044115
  0
ARC
  5
19ABB
  8
0
 10
4465.2065542194086447
 20
479.3386574853795992
 30
0.0
 40
0.1251743295954713
 50
93.1893723403510847
 51
170.9023774232919095
  0
ARC
  5
19ABC
  8
0
 10
4463.2676934808705482
 20
467.6047751996243846
 30
0.0
 40
1.432412052819807
 50
339.2342595756117021
 51
0.8984006605539363
  0
ARC
  5
19ABD
  8
0
 10
4463.5375805503535958
 20
467.6182134329569067
 30
0.0
 40
1.1897570111960289
 50
290.4738145225820745
 51
334.0138329479370896
  0
ARC
  5
19ABE
  8
0
 10
4462.0318933996341002
 20
520.3639083356963511
 30
0.0
 40
53.8945740808577796
 50
270.0821258306770005
 51
272.0435571266738179
  0
ARC
  5
19ABF
  8
0
 10
4013.6008942818548348
 20
465.4129725550872081
 30
0.0
 40
435.870720246289693
 50
358.1204623469853914
 51
358.7507447610623217
  0
ARC
  5
19AC0
  8
0
 10
4442.2940573704381677
 20
456.2462562477771257
 30
0.0
 40
7.0819347112644051
 50
357.2798792587566936
 51
15.5750687021577505
  0
ARC
  5
19AC1
  8
0
 10
4445.3401633097209924
 20
456.9525015326099719
 30
0.0
 40
3.9604460180501659
 50
17.5656938737857899
 51
40.0442499046905169
  0
ARC
  5
19AC2
  8
0
 10
3836.4030288296921753
 20
-94.3309955209778082
 30
0.0
 40
825.369925930913837
 50
42.1450735413550532
 51
42.5775045934640914
  0
ARC
  5
19AC3
  8
0
 10
4446.2770684942743173
 20
466.1002759349078133
 30
0.0
 40
2.8994798233234071
 50
210.8384794636332913
 51
223.5248473092271979
  0
ARC
  5
19AC4
  8
0
 10
4445.0655599963338318
 20
465.3108197931043719
 30
0.0
 40
1.455677197653243
 50
192.8098232764459112
 51
208.6023887768681107
  0
ARC
  5
19AC5
  8
0
 10
4446.3349585936430231
 20
465.6198183802738981
 30
0.0
 40
2.7620634355418572
 50
186.4060787508607859
 51
193.2218502587973035
  0
ARC
  5
19AC6
  8
0
 10
4452.0872741058619795
 20
466.1313474370754761
 30
0.0
 40
8.5365790830203458
 50
180.5375942949447108
 51
185.5101796396197074
  0
ARC
  5
19AC7
  8
0
 10
4457.416256997261371
 20
1832.3308489927180744
 30
0.0
 40
1365.8695213639659869
 50
270.0303657229471241
 51
270.196858591245018
  0
ARC
  5
19AC8
  8
0
 10
4456.5731690626816999
 20
1376.2989129991940445
 30
0.0
 40
909.8387429122523145
 50
269.8264684726865994
 51
270.0986779678959806
  0
ARC
  5
19AC9
  8
0
 10
4443.77782653700433
 20
466.2224689796884149
 30
0.0
 40
0.2288487284442726
 50
90.9852633320904545
 51
181.410592706208007
  0
ARC
  5
19ACA
  8
0
 10
4452.6800311936785874
 20
463.4403834479142006
 30
0.0
 40
3.2149303223271182
 50
83.6172124701613626
 51
89.7274717201208034
  0
ARC
  5
19ACB
  8
0
 10
4452.5674128042955999
 20
462.6271098279661942
 30
0.0
 40
4.0357398970965539
 50
71.954870225898901
 51
83.3118547102103975
  0
ARC
  5
19ACC
  8
0
 10
4458.8450026931113825
 20
465.5000109560151031
 30
0.0
 40
1.1921936745557049
 50
107.8292428843242021
 51
126.2442826864398029
  0
ARC
  5
19ACD
  8
0
 10
4459.0259066919215911
 20
487.3381414489144845
 30
0.0
 40
20.7028815179735091
 50
271.9955624059612092
 51
274.9599234284215754
  0
ARC
  5
19ACE
  8
0
 10
4458.7617558523379557
 20
501.2599615106536817
 30
0.0
 40
34.6261606260616333
 50
269.5337337557626256
 51
271.6302091517000008
  0
ARC
  5
19ACF
  8
0
 10
4460.513696648489713
 20
465.0009031942491902
 30
0.0
 40
1.7383424211739451
 50
71.7064390322558296
 51
79.9900020056405339
  0
ARC
  5
19AD0
  8
0
 10
4460.4752596264397653
 20
464.8660678337205923
 30
0.0
 40
1.878437180949335
 50
66.1228183472444755
 51
71.884217881602126
  0
ARC
  5
19AD1
  8
0
 10
4460.2658617055985815
 20
464.4390390803355899
 30
0.0
 40
2.3537520241453
 50
62.0954786748188425
 51
65.6694369905529669
  0
ARC
  5
19AD2
  8
0
 10
4461.5817697047277761
 20
466.9770383391474979
 30
0.0
 40
0.5056074863863075
 50
244.9156785803614014
 51
265.3222774179886869
  0
ARC
  5
19AD3
  8
0
 10
4461.5828361404874158
 20
466.9629542711880958
 30
0.0
 40
0.4916622724420447
 50
265.0645652012893265
 51
288.7604514981966872
  0
ARC
  5
19AD4
  8
0
 10
4461.5880942678759311
 20
466.9553145802573795
 30
0.0
 40
0.4827439757131164
 50
288.4611490221570875
 51
318.1594551137555982
  0
ARC
  5
19AD5
  8
0
 10
4461.5949552106767442
 20
466.952851779671505
 30
0.0
 40
0.4759976064926827
 50
317.8294155757649264
 51
325.4844518188784832
  0
ARC
  5
19AD6
  8
0
 10
4461.5888931556710304
 20
466.9578316024641254
 30
0.0
 40
0.4838147506700005
 50
325.4053088804474214
 51
340.6717075625297184
  0
ARC
  5
19AD7
  8
0
 10
4461.5693596603532569
 20
466.9639312922355998
 30
0.0
 40
0.504266668499561
 50
340.7523004864356153
 51
7.700906690580088
  0
ARC
  5
19AD8
  8
0
 10
4458.8154464253439073
 20
489.3979392353423918
 30
0.0
 40
22.7731842893062293
 50
275.039387397033579
 51
275.6786469340277108
  0
ARC
  5
19AD9
  8
0
 10
4461.5243099660892767
 20
463.051102029921708
 30
0.0
 40
3.7134519151622598
 50
90.8740624307601479
 51
97.0454866638139748
  0
ARC
  5
19ADA
  8
0
 10
4461.4995118773185823
 20
464.8346808188950945
 30
0.0
 40
1.9297038837385869
 50
79.9829145958333356
 51
90.9456994740383635
  0
ARC
  5
19ADB
  8
0
 10
4461.7476268559576056
 20
466.2327453626335796
 30
0.0
 40
0.5097952605255135
 50
66.3281408562652217
 51
80.1122508524363326
  0
ARC
  5
19ADC
  8
0
 10
4461.9291905345753548
 20
466.6506843270425975
 30
0.0
 40
0.0541454612220968
 50
43.2771723279872091
 51
64.7250330203757898
  0
ARC
  5
19ADD
  8
0
 10
4461.9519808916702459
 20
466.6731590577163047
 30
0.0
 40
0.0221583026873822
 50
6.3700398805221541
 51
41.3654309103850295
  0
ARC
  5
19ADE
  8
0
 10
4461.925853136234764
 20
466.6691097179922281
 30
0.0
 40
0.04858705576427
 50
355.5203506137439149
 51
7.6973738522482194
  0
ARC
  5
19ADF
  8
0
 10
4461.5781221595580064
 20
466.9571079956735957
 30
0.0
 40
0.4965609515762044
 50
8.6166366608620262
 51
22.5885292312556807
  0
ARC
  5
19AE0
  8
0
 10
4461.5203896193606852
 20
466.9254265426180837
 30
0.0
 40
0.5620783756809021
 50
23.30978361651961
 51
35.2105180240515594
  0
ARC
  5
19AE1
  8
0
 10
4461.5839901944809753
 20
466.961378913318697
 30
0.0
 40
0.4894391104268824
 50
36.0647054378844985
 51
62.3409416979149071
  0
ARC
  5
19AE2
  8
0
 10
4461.582790515664783
 20
466.9615587527028993
 30
0.0
 40
0.4898380648206859
 50
62.2068872043033423
 51
82.3326784887273817
  0
ARC
  5
19AE3
  8
0
 10
4461.5825996357716576
 20
466.9336205556326718
 30
0.0
 40
0.5175640419295983
 50
82.7243886925856344
 51
99.4247933792128151
  0
ARC
  5
19AE4
  8
0
 10
4461.5804559591497309
 20
466.9608987034059737
 30
0.0
 40
0.490308719872115
 50
99.6996567632561437
 51
118.0953634156383032
  0
ARC
  5
19AE5
  8
0
 10
4461.5820575968446065
 20
466.9554680597530023
 30
0.0
 40
0.4958550406305398
 50
117.9631052393131938
 51
138.1215761153316919
  0
ARC
  5
19AE6
  8
0
 10
4461.1659256100938364
 20
473.9770799391300216
 30
0.0
 40
6.878168594246107
 50
269.9544013067967967
 51
272.7075046228382007
  0
ARC
  5
19AE7
  8
0
 10
4461.2519694585689649
 20
472.1771203492198197
 30
0.0
 40
5.07615391177871
 50
272.6970910944705224
 51
276.0312155933555118
  0
ARC
  5
19AE8
  8
0
 10
4461.5449676673651993
 20
469.4160292688542881
 30
0.0
 40
2.2995609714319531
 50
275.9996271993140908
 51
279.808133153647816
  0
ARC
  5
19AE9
  8
0
 10
4461.8619431187717055
 20
467.6351375979330101
 30
0.0
 40
0.4907846825582403
 50
278.7610439872624966
 51
286.8191976680280959
  0
ARC
  5
19AEA
  8
0
 10
4461.990262201465157
 20
467.2093061155429154
 30
0.0
 40
0.0460413248257312
 50
287.2989310744525255
 51
304.8318872776798116
  0
ARC
  5
19AEB
  8
0
 10
4462.0102234339319693
 20
467.1802134489541913
 30
0.0
 40
0.0107623844053327
 50
306.067427921553076
 51
335.2927411531376265
  0
ARC
  5
19AEC
  8
0
 10
4462.0106884617889591
 20
467.1796681511060001
 30
0.0
 40
0.0101164816800575
 50
336.997768775977022
 51
0.1348268034174052
  0
ARC
  5
19AED
  8
0
 10
4462.005205685591136
 20
467.1796984016967258
 30
0.0
 40
0.0155992311984274
 50
359.9763283485194165
 51
7.0801410121357042
  0
ARC
  5
19AEE
  8
0
 10
4461.5813423162489926
 20
466.9611182470250128
 30
0.0
 40
0.5118110276236231
 50
2.4829421317532221
 51
20.0499756243111911
  0
ARC
  5
19AEF
  8
0
 10
4461.3956764862787168
 20
466.9565442868258174
 30
0.0
 40
0.697509350646741
 50
357.4073979485198151
 51
2.1975961609764769
  0
ARC
  5
19AF0
  8
0
 10
4461.5590454973980741
 20
466.9685776245959801
 30
0.0
 40
0.5352039906835416
 50
335.8743042450179246
 51
355.3289305925900976
  0
ARC
  5
19AF1
  8
0
 10
4461.5813423202553167
 20
466.9611182475068176
 30
0.0
 40
0.511811023600025
 50
308.4440356776926819
 51
335.6161766307423022
  0
ARC
  5
19AF2
  8
0
 10
4461.5813423202553167
 20
466.9611182475068176
 30
0.0
 40
0.5118110235999415
 50
285.5763073262818921
 51
308.4440356776926819
  0
ARC
  5
19AF3
  8
0
 10
4461.9423514273703404
 20
467.5877519719688848
 30
0.0
 40
0.0723818897837785
 50
277.0110430050074228
 51
354.6092830596687122
  0
ARC
  5
19AF4
  8
0
 10
4460.3171348470632438
 20
481.1781039096500194
 30
0.0
 40
13.7595650805134895
 50
275.1582061741788152
 51
276.820399849192313
  0
ARC
  5
19AF5
  8
0
 10
4457.7387429379441528
 20
507.826045100364297
 30
0.0
 40
40.531767369804939
 50
274.6395620757353981
 51
275.4015402179240937
  0
ARC
  5
19AF6
  8
0
 10
4458.1231086254101683
 20
503.2835331948007251
 30
0.0
 40
35.9730532374336818
 50
272.3538922517557239
 51
274.6145953842525955
  0
ARC
  5
19AF7
  8
0
 10
4457.5851156013122818
 20
513.4906329583809566
 30
0.0
 40
46.1937880698472085
 50
270.1470611735056764
 51
272.5006451542304831
  0
ARC
  5
19AF8
  8
0
 10
4449.5835358296380946
 20
416.0173749131905083
 30
0.0
 40
51.2800685981111997
 50
89.8341643539807961
 51
90.8934824008408526
  0
ARC
  5
19AF9
  8
0
 10
4460.8043155971754459
 20
467.3200957964427857
 30
0.0
 40
0.2382975091248538
 50
5.7431392065729687
 51
26.6790687443425085
  0
ARC
  5
19AFA
  8
0
 10
4460.96886555349829
 20
467.4472864881213923
 30
0.0
 40
0.2877267429585841
 50
287.1095595932292781
 51
299.5528557100906255
  0
ARC
  5
19AFB
  8
0
 10
4460.5915855021576135
 20
468.5895062286999746
 30
0.0
 40
1.4905941085465171
 50
270.0786103218902099
 51
288.0529649953858211
  0
ARC
  5
19AFC
  8
0
 10
4445.6982606187293641
 20
456.4378986306466004
 30
0.0
 40
10.8571214052544498
 50
85.4210104220501307
 51
86.8809969293922961
  0
ARC
  5
19AFD
  8
0
 10
4445.3963569715579069
 20
448.2728265802284113
 30
0.0
 40
19.0270608497660909
 50
87.3110267883490963
 51
88.6020582442466207
  0
ARC
  5
19AFE
  8
0
 10
4444.1844358566168012
 20
685.2297524344694466
 30
0.0
 40
217.9406911539057035
 50
269.902717435924103
 51
270.4016233493435948
  0
ARC
  5
19AFF
  8
0
 10
4443.8077024028598316
 20
467.3623333282629915
 30
0.0
 40
0.0732641579710947
 50
213.3732097559355907
 51
275.2406660489234014
  0
ARC
  5
19B00
  8
0
 10
4443.380309076615049
 20
467.0852853001277936
 30
0.0
 40
0.4360716999631983
 50
32.8817112180828204
 51
71.0267316779686411
  0
ARC
  5
19B01
  8
0
 10
4443.5475049509959717
 20
467.5724911370862173
 30
0.0
 40
0.0790248512999802
 50
180.1579444098591125
 51
251.2381372690666979
  0
ARC
  5
19B02
  8
0
 10
4447.5376547796640807
 20
483.2637660978909935
 30
0.0
 40
15.7587763168897492
 50
269.5155950389187751
 51
271.8576972795028723
  0
ARC
  5
19B03
  8
0
 10
4447.2900025867429576
 20
380.5973218756344068
 30
0.0
 40
86.9083064270975285
 50
89.9245654516184061
 51
90.8450979992835954
  0
ARC
  5
19B04
  8
0
 10
4444.8351949771522413
 20
584.3548097646474844
 30
0.0
 40
116.8645217466985002
 50
269.3562025147388113
 51
270.5750921683205092
  0
ARC
  5
19B05
  8
0
 10
4446.6184020109431003
 20
467.2089404599840918
 30
0.0
 40
0.0594345034321589
 50
55.5250067726689309
 51
64.4483867231716658
  0
ARC
  5
19B06
  8
0
 10
4462.5171631969769805
 20
448.7818302216983852
 30
0.0
 40
23.3520921477410717
 50
127.7276980205628973
 51
128.3146653018785912
  0
ARC
  5
19B07
  8
0
 10
4448.2917437920086741
 20
467.1243434785960176
 30
0.0
 40
0.1424640220729192
 50
95.7061672398690462
 51
116.6707315176646063
  0
ARC
  5
19B08
  8
0
 10
4446.6254562601397993
 20
467.3561297092650761
 30
0.0
 40
0.0913256356065499
 50
254.6197691856276037
 51
265.4935277414990082
  0
ARC
  5
19B09
  8
0
 10
4446.6024406617207205
 20
467.2728758175172175
 30
0.0
 40
0.0049502736517975
 50
232.3688137107143064
 51
255.8983172629226033
  0
ARC
  5
19B0A
  8
0
 10
4446.5996508222506236
 20
467.2693514377688189
 30
0.0
 40
0.0004593222463036
 50
142.1907324808722137
 51
239.5641512833078934
  0
ARC
  5
19B0B
  8
0
 10
4446.6006540380403749
 20
467.2681858456684267
 30
0.0
 40
0.0019901141518722
 50
103.2232742262678045
 51
133.3494382050024001
  0
ARC
  5
19B0C
  8
0
 10
4446.6078309303011338
 20
467.2351978359452005
 30
0.0
 40
0.035749544747811
 50
89.6303047248357956
 51
102.3268773169789938
  0
ARC
  5
19B0D
  8
0
 10
4447.3507064007308145
 20
429.0312289238783023
 30
0.0
 40
38.2470161055680222
 50
88.8748939596013656
 51
91.0831978513752887
  0
ARC
  5
19B0E
  8
0
 10
4447.9400280196568929
 20
458.0642886050152924
 30
0.0
 40
9.2080020959196442
 50
87.8991552032444901
 51
88.9939166197762148
  0
ARC
  5
19B0F
  8
0
 10
4448.272733542901733
 20
467.0920845158548786
 30
0.0
 40
0.1740845058859046
 50
76.2168881261984694
 51
88.4050130019830647
  0
ARC
  5
19B10
  8
0
 10
4448.7013098459055982
 20
463.9175699735818057
 30
0.0
 40
3.3573040851294369
 50
97.6378528582554992
 51
98.3907843450197106
  0
ARC
  5
19B11
  8
0
 10
4448.1910122585113641
 20
467.8629835442425815
 30
0.0
 40
0.6212089469747945
 50
275.9202678929149215
 51
282.4354152561459728
  0
ARC
  5
19B12
  8
0
 10
4448.2958571621502415
 20
467.2067608131736165
 30
0.0
 40
0.0574076163796795
 50
59.7440681271090384
 51
71.35699462179997
  0
ARC
  5
19B13
  8
0
 10
4443.5472300556193659
 20
467.0202038965979909
 30
0.0
 40
0.0787096269862102
 50
89.9936897645957146
 51
180.0222267272251884
  0
ARC
  5
19B14
  8
0
 10
4443.4061328049538133
 20
466.4450645787471785
 30
0.0
 40
0.4039219198658099
 50
34.5441276298883224
 51
64.5352470658887114
  0
ARC
  5
19B15
  8
0
 10
4443.7972617583491228
 20
466.7136527265404879
 30
0.0
 40
0.0705495764228906
 50
214.0951947760187011
 51
266.457713036843586
  0
ARC
  5
19B16
  8
0
 10
4444.0145656125250753
 20
551.3056396528727419
 30
0.0
 40
84.6626918934773727
 50
269.8499887540119744
 51
271.0940977825113123
  0
ARC
  5
19B17
  8
0
 10
4445.7081119901131387
 20
466.1076514200979091
 30
0.0
 40
0.7246048966628765
 50
28.3095032194560901
 51
42.0258824464148688
  0
ARC
  5
19B18
  8
0
 10
4445.6042468120658668
 20
463.5311597810184026
 30
0.0
 40
3.1273390537133312
 50
82.9773330256528254
 51
89.5070475060392852
  0
ARC
  5
19B19
  8
0
 10
4445.5029329676981433
 20
462.8446984061964145
 30
0.0
 40
3.8210735023930398
 50
76.3614524364183751
 51
82.7280361502590864
  0
ARC
  5
19B1A
  8
0
 10
4444.6451926734389417
 20
459.3313456037996048
 30
0.0
 40
7.4376122979883386
 50
73.7575224262223657
 51
76.3220121681150374
  0
ARC
  5
19B1B
  8
0
 10
4449.1298902593371167
 20
464.5158416455869883
 30
0.0
 40
2.1443574413984501
 50
104.4231707755736949
 51
115.1403695325038967
  0
ARC
  5
19B1C
  8
0
 10
4449.1278342651057756
 20
464.2446565150261222
 30
0.0
 40
2.4074878780824829
 50
93.6608029276741831
 51
102.7679966104582974
  0
ARC
  5
19B1D
  8
0
 10
4449.3527922279581617
 20
460.1557430617806972
 30
0.0
 40
6.502524384304226
 50
90.789141859995695
 51
93.3385137880020892
  0
ARC
  5
19B1E
  8
0
 10
4445.943596318683376
 20
461.130066191172773
 30
0.0
 40
5.5371390218948706
 50
87.6019336772628492
 51
93.2347385963809643
  0
ARC
  5
19B1F
  8
0
 10
4447.8900030444283402
 20
661.8013720545379783
 30
0.0
 40
195.146549673426108
 50
269.4965444949510243
 51
269.8960693255656906
  0
ARC
  5
19B20
  8
0
 10
4447.9626562949133586
 20
590.3330187725076712
 30
0.0
 40
123.6786111942566038
 50
269.8023548755443812
 51
270.4309947683728979
  0
ARC
  5
19B21
  8
0
 10
4445.3987241598324545
 20
463.9632518701031927
 30
0.0
 40
2.8380767289194591
 50
61.4053896926049987
 51
64.3914072390977736
  0
ARC
  5
19B22
  8
0
 10
4446.5751435428592231
 20
466.5936188018479811
 30
0.0
 40
0.0528559937633497
 50
234.8389487505517081
 51
254.6143016353593964
  0
ARC
  5
19B23
  8
0
 10
4446.5521528147000936
 20
466.5620332182194829
 30
0.0
 40
0.0138071207063893
 50
199.8300848805224064
 51
237.3559828490240022
  0
ARC
  5
19B24
  8
0
 10
4446.5439113201118744
 20
466.5586073509858807
 30
0.0
 40
0.0049107550525921
 50
122.2260292823903995
 51
194.8424485472384049
  0
ARC
  5
19B25
  8
0
 10
4446.5503785011960645
 20
466.5489301923643097
 30
0.0
 40
0.0165487627803454
 50
95.4282890615650814
 51
123.3010153395913022
  0
ARC
  5
19B26
  8
0
 10
4447.1489860227102326
 20
462.3276121846299134
 30
0.0
 40
4.280081005353602
 50
96.7147422093974853
 51
98.0608482906148424
  0
ARC
  5
19B27
  8
0
 10
4447.2500046791874411
 20
461.4380361417523204
 30
0.0
 40
5.1753681380374497
 50
93.937663165490136
 51
96.6739008577109615
  0
ARC
  5
19B28
  8
0
 10
4447.3283690630805722
 20
460.340091682953414
 30
0.0
 40
6.2761027234776341
 50
92.2015369624163412
 51
93.9630636936708044
  0
ARC
  5
19B29
  8
0
 10
4447.3626696380561043
 20
459.4148407550703723
 30
0.0
 40
7.201988465937009
 50
90.5267344263935456
 51
92.1914501179080759
  0
ARC
  5
19B2A
  8
0
 10
4447.3666732475221579
 20
458.4337317862203918
 30
0.0
 40
8.1830943184555132
 50
87.8617995410127577
 51
90.4916136804113478
  0
ARC
  5
19B2B
  8
0
 10
4447.3423359186353991
 20
457.7685046916365081
 30
0.0
 40
8.8487662815652364
 50
85.2425709982574347
 51
87.8650320141630061
  0
ARC
  5
19B2C
  8
0
 10
4447.3392041251736373
 20
457.7167737732008277
 30
0.0
 40
8.9005787941247867
 50
84.1838514420279722
 51
85.2500989510066347
  0
ARC
  5
19B2D
  8
0
 10
4447.3440321638427122
 20
457.764805702914316
 30
0.0
 40
8.8523048665479855
 50
83.8909317681498123
 51
84.1834358339577591
  0
ARC
  5
19B2E
  8
0
 10
4448.2819935294655807
 20
466.5176365810585253
 30
0.0
 40
0.0493744194233077
 50
57.1341595065760899
 51
85.2207754468453942
  0
ARC
  5
19B2F
  8
0
 10
4448.3036036903758941
 20
466.550008836044185
 30
0.0
 40
0.0104725664586306
 50
4.139899519381812
 51
60.3294854061391987
  0
ARC
  5
19B30
  8
0
 10
4448.3065213371974096
 20
466.5518114410796215
 30
0.0
 40
0.0075999987144385
 50
298.6463401530497208
 51
352.0848462030568271
  0
ARC
  5
19B31
  8
0
 10
4448.2749235710998619
 20
466.6100818069252796
 30
0.0
 40
0.0738861211708267
 50
291.5217933890165227
 51
298.4874796510409283
  0
ARC
  5
19B32
  8
0
 10
4447.5052430203695621
 20
468.1036132615171255
 30
0.0
 40
1.7537227152217669
 50
295.3954545450658884
 51
297.0224647008016063
  0
ARC
  5
19B33
  8
0
 10
4446.6034623985588041
 20
470.1717048077304071
 30
0.0
 40
4.0113831708834997
 50
294.3623043627479205
 51
295.0195402995208269
  0
ARC
  5
19B34
  8
0
 10
4448.1139657260364402
 20
466.9695153735220856
 30
0.0
 40
0.4710648058186087
 50
293.2593060696510179
 51
295.5794068948637232
  0
ARC
  5
19B35
  8
0
 10
4448.2990281422889893
 20
466.5770450350465808
 30
0.0
 40
0.0372445205782212
 50
299.4738304235572741
 51
320.0566873881302854
  0
ARC
  5
19B36
  8
0
 10
4448.3020507410774371
 20
466.5688378974230091
 30
0.0
 40
0.0299754855805243
 50
328.4040236063873976
 51
10.1726437971486696
  0
ARC
  5
19B37
  8
0
 10
4448.3326353657366781
 20
466.5565700273575089
 30
0.0
 40
0.0211816943388242
 50
291.7780718521677272
 51
321.352806398759185
  0
ARC
  5
19B38
  8
0
 10
4448.336812466446645
 20
466.5524277272782001
 30
0.0
 40
0.015345183195181
 50
323.6925551241388916
 51
1.807828479887178
  0
ARC
  5
19B39
  8
0
 10
4448.3315558434760533
 20
466.549078873711494
 30
0.0
 40
0.0209478231472479
 50
10.5431631427939099
 51
47.7769400832937876
  0
ARC
  5
19B3A
  8
0
 10
4448.3046279532336484
 20
466.5192409070988901
 30
0.0
 40
0.0611400031050302
 50
47.8806309061927422
 51
66.792673706616867
  0
ARC
  5
19B3B
  8
0
 10
4448.2831348918052754
 20
466.4727706536431242
 30
0.0
 40
0.112328912625236
 50
66.0571774519594612
 51
77.91624855019883
  0
ARC
  5
19B3C
  8
0
 10
4448.2774072306146991
 20
466.4518902651735175
 30
0.0
 40
0.1339513265858825
 50
77.3902867550238653
 51
84.6559564514445952
  0
ARC
  5
19B3D
  8
0
 10
4447.2302548466686858
 20
455.2858756935954148
 30
0.0
 40
11.34895954974108
 50
84.6426124508255953
 51
84.8919299767826772
  0
ARC
  5
19B3E
  8
0
 10
4447.4013890787045966
 20
457.2419240315276738
 30
0.0
 40
9.3854434537263316
 50
84.8693339962139532
 51
86.6431064006415568
  0
ARC
  5
19B3F
  8
0
 10
4447.3747108978277538
 20
456.4601092599718868
 30
0.0
 40
10.1674969379332705
 50
86.7510035557964869
 51
88.7941430474314473
  0
ARC
  5
19B40
  8
0
 10
4447.3921922751387683
 20
457.1991444150523876
 30
0.0
 40
9.4282577589850227
 50
88.805840057918445
 51
90.5757134762053937
  0
ARC
  5
19B41
  8
0
 10
4447.3856298596956549
 20
457.6684251917457118
 30
0.0
 40
8.9589349240562317
 50
90.5639025848878845
 51
91.8629877076365204
  0
ARC
  5
19B42
  8
0
 10
4447.3442319398973268
 20
458.7317865028650772
 30
0.0
 40
7.8947927858322311
 50
91.8135890211057699
 51
94.5056077248134443
  0
ARC
  5
19B43
  8
0
 10
4447.2282153044743609
 20
460.1559274262025951
 30
0.0
 40
6.4659401826056486
 50
94.4720917808589036
 51
96.2136931902221733
  0
ARC
  5
19B44
  8
0
 10
4446.5112705491128509
 20
466.5687375719903116
 30
0.0
 40
0.0108754245520986
 50
120.2840559685485999
 51
174.45117017835301
  0
ARC
  5
19B45
  8
0
 10
4446.5159398512623738
 20
466.5700322698295963
 30
0.0
 40
0.0154956732951224
 50
180.8989412484943102
 51
220.035840118583593
  0
ARC
  5
19B46
  8
0
 10
4446.5505143457967279
 20
466.599761516824401
 30
0.0
 40
0.0610934238790097
 50
220.5247850738660134
 51
243.8907124620990885
  0
ARC
  5
19B47
  8
0
 10
4446.5864989105921268
 20
466.6658649599610271
 30
0.0
 40
0.1363257489858783
 50
242.5366571730486953
 51
253.152856554306112
  0
ARC
  5
19B48
  8
0
 10
4444.4073555297600251
 20
459.1608068031343919
 30
0.0
 40
7.6886154371433664
 50
73.2327639657958116
 51
73.5988091532939279
  0
ARC
  5
19B49
  8
0
 10
4446.6396917154943367
 20
466.7862734521207244
 30
0.0
 40
0.2571456404714441
 50
249.9859575985836955
 51
256.193079180740483
  0
ARC
  5
19B4A
  8
0
 10
4446.5725373578834478
 20
466.5970833065936745
 30
0.0
 40
0.0564214905913633
 50
225.4630686083237094
 51
248.3085384648823037
  0
ARC
  5
19B4B
  8
0
 10
4446.5522611726373725
 20
466.5743422834231069
 30
0.0
 40
0.0260337149079877
 50
183.1599260270253922
 51
222.1665839243871972
  0
ARC
  5
19B4C
  8
0
 10
4446.5494163358425794
 20
466.5765204154359935
 30
0.0
 40
0.0234295762308981
 50
161.9616026195822087
 51
188.8712729768299994
  0
ARC
  5
19B4D
  8
0
 10
4446.5389986655764005
 20
466.4534323759531844
 30
0.0
 40
0.1308815996599432
 50
94.6616709646808943
 51
97.2982966349884038
  0
ARC
  5
19B4E
  8
0
 10
4446.5279247964581373
 20
466.5306216844501819
 30
0.0
 40
0.0529240123289921
 50
96.0224521182948507
 51
106.6211818262230935
  0
ARC
  5
19B4F
  8
0
 10
4446.5204297577520265
 20
466.5553966084174249
 30
0.0
 40
0.0270405286210429
 50
106.4194884845080935
 51
122.7885847465145019
  0
ARC
  5
19B50
  8
0
 10
4448.0862075413606362
 20
467.3152199632120869
 30
0.0
 40
0.0338349416182687
 50
190.6052527268230108
 51
224.7768506948914933
  0
ARC
  5
19B51
  8
0
 10
4448.2576986511012365
 20
467.3572040086627908
 30
0.0
 40
0.21034755075987
 50
178.816544462610409
 51
193.2498143949339919
  0
ARC
  5
19B52
  8
0
 10
4436.124309331470613
 20
467.5250403507587862
 30
0.0
 40
11.92420750322181
 50
359.2143974100328023
 51
0.7900835397575293
  0
ARC
  5
19B53
  8
0
 10
4448.1779501149731004
 20
467.7014834078087233
 30
0.0
 40
0.1311189625783842
 50
149.4119440212693064
 51
185.2592618544815934
  0
ARC
  5
19B54
  8
0
 10
4448.28349717135643
 20
466.7094540055538801
 30
0.0
 40
0.1597353436087045
 50
176.6372569870815141
 51
200.1129205634225059
  0
ARC
  5
19B55
  8
0
 10
4172.9282428343303764
 20
466.8713544249392839
 30
0.0
 40
275.1958362997897893
 50
359.9682430856777273
 51
0.0309841098311603
  0
ARC
  5
19B56
  8
0
 10
4448.3275061170752451
 20
467.0276462873160881
 30
0.0
 40
0.2036044075450282
 50
159.5109746063909881
 51
182.1034057182868082
  0
ARC
  5
19B57
  8
0
 10
4445.308978254671274
 20
799.6962546137623349
 30
0.0
 40
332.8703727173063953
 50
269.6928948225847193
 51
270.4845585092460283
  0
ARC
  5
19B58
  8
0
 10
4471.0867116728813926
 20
479.9478859879815218
 30
0.0
 40
0.0393610263169435
 50
311.3486210135387182
 51
356.6581602328561189
  0
LINE
  5
19B59
  8
0
 10
4467.4035804653958621
 20
480.1879347370069127
 30
0.0
 11
4467.4035768810963418
 21
480.159149742206921
 31
0.0
  0
ARC
  5
19B5A
  8
0
 10
4467.4153879046962174
 20
480.1591497436069176
 30
0.0
 40
0.0118110236
 50
180.0
 51
213.5959957552773858
  0
ARC
  5
19B5B
  8
0
 10
4467.7069208286538924
 20
479.5057299921949721
 30
0.0
 40
0.7795241475018648
 50
97.5127440990672056
 51
109.9501213171296001
  0
ARC
  5
19B5C
  8
0
 10
4467.5053957787531544
 20
480.1896987031926756
 30
0.0
 40
0.1018305927045948
 50
172.6212738696619056
 51
180.9925590162822004
  0
ARC
  5
19B5D
  8
0
 10
4467.4459992689007777
 20
480.1985173972934149
 30
0.0
 40
0.0418083268728806
 50
149.9388727981016132
 51
174.1529601056251124
  0
ARC
  5
19B5E
  8
0
 10
4467.4401295208190277
 20
480.1988972946467129
 30
0.0
 40
0.0366310183770475
 50
115.0604630388026948
 51
145.8506753143132926
  0
ARC
  5
19B5F
  8
0
 10
4467.4705791078458788
 20
480.1387416024585946
 30
0.0
 40
0.1040426483467718
 50
106.5481035275719961
 51
116.2184826265809932
  0
ARC
  5
19B60
  8
0
 10
4467.6130167537057787
 20
480.2598968478870916
 30
0.0
 40
0.0203142088941856
 50
93.0752733777511168
 51
113.2415140838566003
  0
ARC
  5
19B61
  8
0
 10
4467.6130919082534092
 20
480.2565028654997832
 30
0.0
 40
0.0237075771584233
 50
74.9860693670850935
 51
92.8165967378151748
  0
ARC
  5
19B62
  8
0
 10
4467.6138894247624194
 20
480.2595734660131939
 30
0.0
 40
0.0205352137948544
 50
48.5516253596298171
 51
74.9158714697801713
  0
ARC
  5
19B63
  8
0
 10
4467.5977888413863184
 20
480.2423255901094876
 30
0.0
 40
0.0441259051130207
 50
35.1740559650523821
 51
47.7061826669456224
  0
ARC
  5
19B64
  8
0
 10
4467.6420306641730349
 20
480.6714454240658938
 30
0.0
 40
0.4037832904960813
 50
267.9309011035231833
 51
268.8401865351813171
  0
ARC
  5
19B65
  8
0
 10
4467.6322238137827298
 20
480.4054890996364975
 30
0.0
 40
0.1376464354502115
 50
265.8498400833937012
 51
268.0133911220110008
  0
ARC
  5
19B66
  8
0
 10
4467.6237738585832631
 20
480.2952414043016915
 30
0.0
 40
0.027080026429934
 50
258.4911238025146076
 51
266.8000921804604104
  0
ARC
  5
19B67
  8
0
 10
4467.6187871591591829
 20
480.27101636825779
 30
0.0
 40
0.0023477183986186
 50
238.9448392795061125
 51
259.7862293472118154
  0
ARC
  5
19B68
  8
0
 10
4467.6177484844047285
 20
480.2693215851297168
 30
0.0
 40
0.0003603674392008
 50
197.7043237925146002
 51
241.4142078365838131
  0
ARC
  5
19B69
  8
0
 10
4467.5984953309107368
 20
480.2635809302823873
 30
0.0
 40
0.0197304703345999
 50
16.5827290534127414
 51
32.9500086198960886
  0
ARC
  5
19B6A
  8
0
 10
4467.6063890579716826
 20
480.2675954881602252
 30
0.0
 40
0.0109620061589753
 50
37.7887136030641528
 51
67.5335738348298236
  0
ARC
  5
19B6B
  8
0
 10
4467.6061341190670646
 20
480.2671145398192039
 30
0.0
 40
0.0115039917427297
 50
67.2755853588569437
 51
95.6546366064530105
  0
ARC
  5
19B6C
  8
0
 10
4467.6563163489227009
 20
481.3855276599837225
 30
0.0
 40
1.118008401975483
 50
268.8489555927108086
 51
270.6666789028727749
  0
ARC
  5
19B6D
  8
0
 10
4467.6649944508271801
 20
482.1037270801456884
 30
0.0
 40
1.8361372457629259
 50
270.1351301017190281
 51
271.4770465119999017
  0
ARC
  5
19B6E
  8
0
 10
4468.009934711832102
 20
469.6469977156120876
 30
0.0
 40
10.6253709934907707
 50
90.9397468812647674
 51
91.6050349513769362
  0
ARC
  5
19B6F
  8
0
 10
4467.7100291959222886
 20
480.2696312021569156
 30
0.0
 40
0.0407551842166306
 50
172.2105350074569117
 51
182.8638752944951023
  0
ARC
  5
19B70
  8
0
 10
4467.6890620860558556
 20
480.271714557764426
 30
0.0
 40
0.0197145201332521
 50
128.5763207457434874
 51
169.9499966791798897
  0
ARC
  5
19B71
  8
0
 10
4467.6892483827277829
 20
480.2713450641232953
 30
0.0
 40
0.0201197272617779
 50
107.6538929184594053
 51
128.3349526005630139
  0
ARC
  5
19B72
  8
0
 10
4467.6898443761620001
 20
480.268881819579974
 30
0.0
 40
0.0226484202107491
 50
98.6739234715430058
 51
107.2008189254097061
  0
ARC
  5
19B73
  8
0
 10
4467.9408203655220859
 20
478.3618974166382145
 30
0.0
 40
1.94607253119302
 50
96.636091122998522
 51
97.5112305376430157
  0
ARC
  5
19B74
  8
0
 10
4467.9932063087708229
 20
477.8728500165860282
 30
0.0
 40
2.4379013833557361
 50
94.9921160547296353
 51
96.530784048222344
  0
ARC
  5
19B75
  8
0
 10
4468.0948314110792126
 20
475.776823767430983
 30
0.0
 40
4.535546111861172
 50
91.4036126695352635
 51
93.9668771457687484
  0
ARC
  5
19B76
  8
0
 10
4468.0990454986822442
 20
474.4207165795988885
 30
0.0
 40
5.8914210225475063
 50
90.4752952990409938
 51
91.1215264685140767
  0
ARC
  5
19B77
  8
0
 10
4468.0948218054254539
 20
473.8842997492251925
 30
0.0
 40
6.4277902108816862
 50
89.6020166665301474
 51
90.3979833334177556
  0
ARC
  5
19B78
  8
0
 10
4464.0619039365146818
 20
467.0027763616342895
 30
0.0
 40
1.968750606288453
 50
179.9932583900940131
 51
180.8476714424450051
  0
ARC
  5
19B79
  8
0
 10
4461.5806679773932046
 20
467.0029260644670899
 30
0.0
 40
0.5124853730150079
 50
0.0091616430968813
 51
28.6498947424056603
  0
LINE
  5
19B7B
  8
0
 10
4453.8175478520743127
 20
466.4643430603011893
 30
0.0
 11
4443.7738914278152151
 21
466.451283873054706
 31
0.0
  0
ATTDEF
  5
19B7C
  8
DEFPOINTS
 10
4472.1090151441258058
 20
451.1206751335208196
 30
0.0
 40
0.001
  1
K-77739T-SL
  3

  2
MODELNUMBER
 70
     0
1001
ACDBATTR
1070
     0
1070
     1
  0
ATTDEF
  5
19B7D
  8
DEFPOINTS
 10
4472.1088893344685857
 20
451.1190082931416896
 30
0.0
 40
0.001
  1
MODERN LIFE
  3

  2
TRADENAME
 70
     0
1001
ACDBATTR
1070
     0
1070
     1
  0
ATTDEF
  5
19B7E
  8
DEFPOINTS
 10
4472.1090151441258058
 20
451.1173418001874893
 30
0.0
 40
0.001
  1
TOILET
  3

  2
PRODUCT
 70
     0
1001
ACDBATTR
1070
     0
1070
     1
  0
ENDSEC
  0
EOF
