  0
SECTION
  2
HEADER
  9
$ACADVER
  1
AC1009
  9
$INSBASE
 10
4573.3726833871533017
 20
457.5278355929157783
 30
0.0
  9
$EXTMIN
 10
4566.046324983903105
 20
457.5120698277888209
 30
-0.0000000000112498
  9
$EXTMAX
 10
4580.5816963407260118
 20
486.7455979318942241
 30
0.0000000000002956
  9
$LIMMIN
 10
0.0
 20
0.0
  9
$LIMMAX
 10
11.6929133858000007
 20
8.2677165353999982
  9
$ORTHOMODE
 70
     0
  9
$REGENMODE
 70
     1
  9
$FILLMODE
 70
     1
  9
$QTEXTMODE
 70
     0
  9
$MIRRTEXT
 70
     0
  9
$DRAGMODE
 70
     2
  9
$LTSCALE
 40
0.6431102362
  9
$OSMODE
 70
  4095
  9
$ATTMODE
 70
     1
  9
$TEXTSIZE
 40
0.2
  9
$TRACEWID
 40
0.05
  9
$TEXTSTYLE
  7
STANDARD
  9
$CLAYER
  8
0
  9
$CELTYPE
  6
BYLAYER
  9
$CECOLOR
 62
   256
  9
$DIMSCALE
 40
1.0
  9
$DIMASZ
 40
0.1875
  9
$DIMEXO
 40
0.0625
  9
$DIMDLI
 40
0.4443307087
  9
$DIMRND
 40
0.0
  9
$DIMDLE
 40
0.0
  9
$DIMEXE
 40
0.125
  9
$DIMTP
 40
0.01
  9
$DIMTM
 40
0.01
  9
$DIMTXT
 40
2.0
  9
$DIMCEN
 40
0.1052362205
  9
$DIMTSZ
 40
0.0
  9
$DIMTOL
 70
     1
  9
$DIMLIM
 70
     0
  9
$DIMTIH
 70
     1
  9
$DIMTOH
 70
     1
  9
$DIMSE1
 70
     0
  9
$DIMSE2
 70
     0
  9
$DIMTAD
 70
     0
  9
$DIMZIN
 70
     0
  9
$DIMBLK
  1

  9
$DIMASO
 70
     1
  9
$DIMSHO
 70
     1
  9
$DIMPOST
  1
\X
  9
$DIMAPOST
  1

  9
$DIMALT
 70
     1
  9
$DIMALTD
 70
     2
  9
$DIMALTF
 40
25.3999999999999986
  9
$DIMLFAC
 40
1.0
  9
$DIMTOFL
 70
     0
  9
$DIMTVP
 40
0.0
  9
$DIMTIX
 70
     0
  9
$DIMSOXD
 70
     0
  9
$DIMSAH
 70
     0
  9
$DIMBLK1
  1

  9
$DIMBLK2
  1

  9
$DIMSTYLE
  2
STANDARD
  9
$DIMCLRD
 70
     0
  9
$DIMCLRE
 70
     0
  9
$DIMCLRT
 70
     0
  9
$DIMTFAC
 40
1.0
  9
$DIMGAP
 40
0.09
  9
$LUNITS
 70
     2
  9
$LUPREC
 70
     4
  9
$SKETCHINC
 40
0.1
  9
$FILLETRAD
 40
0.0
  9
$AUNITS
 70
     0
  9
$AUPREC
 70
     0
  9
$MENU
  1
.
  9
$ELEVATION
 40
0.0
  9
$PELEVATION
 40
0.0
  9
$THICKNESS
 40
0.0
  9
$LIMCHECK
 70
     0
  9
$BLIPMODE
 70
     0
  9
$CHAMFERA
 40
0.0
  9
$CHAMFERB
 40
0.0
  9
$SKPOLY
 70
     0
  9
$TDCREATE
 40
2458060.468368056230247
  9
$TDUPDATE
 40
2460020.7631712961010635
  9
$TDINDWG
 40
1.5186949074
  9
$TDUSRTIMER
 40
1.5186949074
  9
$USRTIMER
 70
     1
  9
$ANGBASE
 50
0.0
  9
$ANGDIR
 70
     0
  9
$PDMODE
 70
     0
  9
$PDSIZE
 40
0.3125
  9
$PLINEWID
 40
0.0
  9
$COORDS
 70
     1
  9
$SPLFRAME
 70
     0
  9
$SPLINETYPE
 70
     6
  9
$SPLINESEGS
 70
     8
  9
$ATTDIA
 70
     1
  9
$ATTREQ
 70
     1
  9
$HANDLING
 70
     1
  9
$HANDSEED
  5
1A2A2
  9
$SURFTAB1
 70
     6
  9
$SURFTAB2
 70
     6
  9
$SURFTYPE
 70
     6
  9
$SURFU
 70
     6
  9
$SURFV
 70
     6
  9
$UCSNAME
  2

  9
$UCSORG
 10
0.0
 20
0.0
 30
0.0
  9
$UCSXDIR
 10
1.0
 20
0.0
 30
0.0
  9
$UCSYDIR
 10
0.0
 20
1.0
 30
0.0
  9
$PUCSNAME
  2

  9
$PUCSORG
 10
0.0
 20
0.0
 30
0.0
  9
$PUCSXDIR
 10
1.0
 20
0.0
 30
0.0
  9
$PUCSYDIR
 10
0.0
 20
1.0
 30
0.0
  9
$USERI1
 70
     0
  9
$USERI2
 70
     0
  9
$USERI3
 70
     0
  9
$USERI4
 70
     0
  9
$USERI5
 70
     0
  9
$USERR1
 40
0.0
  9
$USERR2
 40
0.0
  9
$USERR3
 40
0.0
  9
$USERR4
 40
0.0
  9
$USERR5
 40
0.0
  9
$WORLDVIEW
 70
     1
  9
$SHADEDGE
 70
     3
  9
$SHADEDIF
 70
    70
  9
$TILEMODE
 70
     1
  9
$MAXACTVP
 70
    64
  9
$PLIMCHECK
 70
     0
  9
$PEXTMIN
 10
1.0000000000000000E+20
 20
1.0000000000000000E+20
 30
1.0000000000000000E+20
  9
$PEXTMAX
 10
-1.0000000000000000E+20
 20
-1.0000000000000000E+20
 30
-1.0000000000000000E+20
  9
$PLIMMIN
 10
0.0
 20
0.0
  9
$PLIMMAX
 10
12.0
 20
9.0
  9
$UNITMODE
 70
     0
  9
$VISRETAIN
 70
     1
  9
$PLINEGEN
 70
     0
  9
$PSLTSCALE
 70
     1
  0
ENDSEC
  0
SECTION
  2
TABLES
  0
TABLE
  2
VPORT
 70
     1
  0
VPORT
  2
*ACTIVE
 70
     0
 10
0.0
 20
0.0
 11
1.0
 21
1.0
 12
661.9486542170025132
 22
339.5492287773024032
 13
0.0
 23
0.0
 14
1.0
 24
1.0
 15
0.0
 25
0.0
 16
0.0
 26
0.0
 36
60.4960186965801583
 17
3911.3653564453120453
 27
132.5796051025390057
 37
0.0
 40
29.4581134672612315
 41
1.593589743589743
 42
50.0
 43
0.0
 44
0.0
 50
0.0
 51
0.0
 71
     0
 72
   100
 73
     1
 74
     1
 75
     0
 76
     0
 77
     0
 78
     0
  0
ENDTAB
  0
TABLE
  2
LTYPE
 70
     2
  0
LTYPE
  2
CONTINUOUS
 70
     0
  3
Solid line
 72
    65
 73
     0
 40
0.0
  0
LTYPE
  2
PHANTOM2
 70
     0
  3
___ _ _ ___ _ _ ___ _ _ ___ _ _
 72
    65
 73
     6
 40
1.25
 49
0.625
 49
-0.125
 49
0.125
 49
-0.125
 49
0.125
 49
-0.125
  0
ENDTAB
  0
TABLE
  2
LAYER
 70
     2
  0
LAYER
  2
0
 70
     0
 62
   255
  6
CONTINUOUS
  0
LAYER
  2
DEFPOINTS
 70
     0
 62
     7
  6
CONTINUOUS
  0
ENDTAB
  0
TABLE
  2
STYLE
 70
     1
  0
STYLE
  2
STANDARD
 70
     0
 40
0.0
 41
0.8
 50
0.0
 71
     0
 42
0.2
  3
txt
  4

  0
ENDTAB
  0
TABLE
  2
VIEW
 70
     0
  0
ENDTAB
  0
TABLE
  2
UCS
 70
     0
  0
ENDTAB
  0
TABLE
  2
APPID
 70
    11
  0
APPID
  2
ACAD
 70
     0
  0
APPID
  2
ACAD_MLEADERVER
 70
     0
  0
APPID
  2
ACAD_EXEMPT_FROM_CAD_STANDARDS
 70
     0
  0
APPID
  2
ACAD_NAV_VCDISPLAY
 70
     0
  0
APPID
  2
ACAECLAYERSTANDARD
 70
     0
  0
APPID
  2
ACCMTRANSPARENCY
 70
     0
  0
APPID
  2
ACAD_DSTYLE_DIMJAG
 70
     0
  0
APPID
  2
ACAD_DSTYLE_DIMTALN
 70
     0
  0
APPID
  2
ACDBATTR
 70
     0
  0
APPID
  2
ACADANNOTATIVE
 70
     0
  0
APPID
  2
DCO15
 70
     0
  0
ENDTAB
  0
TABLE
  2
DIMSTYLE
 70
     1
  0
DIMSTYLE
  2
STANDARD
 70
     0
  3

  4

  5

  6

  7

 40
1.0
 41
0.1875
 42
0.0625
 43
0.38
 44
0.125
 45
0.0
 46
0.0
 47
0.01
 48
0.01
140
0.15625
141
0.09
142
0.0
143
25.3999999999999986
144
1.0
145
0.0
146
1.0
147
0.09
 71
     1
 72
     0
 73
     1
 74
     1
 75
     0
 76
     0
 77
     0
 78
     4
170
     0
171
     2
172
     0
173
     0
174
     0
175
     0
176
     0
177
     0
178
     0
  0
ENDTAB
  0
ENDSEC
  0
SECTION
  2
BLOCKS
  0
BLOCK
  8
0
  2
$MODEL_SPACE
 70
     0
 10
0.0
 20
0.0
 30
0.0
  3
$MODEL_SPACE
  1

  0
ENDBLK
  5
21
  8
0
  0
BLOCK
 67
     1
  8
0
  2
$PAPER_SPACE
 70
     0
 10
0.0
 20
0.0
 30
0.0
  3
$PAPER_SPACE
  1

  0
ENDBLK
  5
1D
 67
     1
  8
0
  0
ENDSEC
  0
SECTION
  2
ENTITIES
  0
ATTDEF
  5
19A96
  8
DEFPOINTS
 10
4573.3661015135257912
 20
457.5258353287441082
 30
0.0
 40
0.001
  1
K-77740T-SL
  3

  2
MODELNUMBER
 70
     0
1001
ACDBATTR
1070
     0
1070
     1
  0
ATTDEF
  5
19A97
  8
DEFPOINTS
 10
4573.3659757038685711
 20
457.5241684883649214
 30
0.0
 40
0.001
  1
MODERNLIFE
  3

  2
TRADENAME
 70
     0
1001
ACDBATTR
1070
     0
1070
     1
  0
ATTDEF
  5
19A98
  8
DEFPOINTS
 10
4573.3661015135257912
 20
457.5225019954107779
 30
0.0
 40
0.001
  1
TOILET
  3

  2
PRODUCT
 70
     0
1001
ACDBATTR
1070
     0
1070
     1
  0
LINE
  5
1A0FD
  8
0
 10
4568.1398459506981453
 20
457.5278355929157783
 30
0.0
 11
4578.6055208236075487
 21
457.5278355929157783
 31
0.0
  0
LINE
  5
1A0FE
  8
0
 10
4568.2128586822545913
 20
458.5636477631156822
 30
0.0
 11
4568.2231366676551261
 21
458.5590769538158042
 31
0.0
  0
LINE
  5
1A0FF
  8
0
 10
4568.2318132553309624
 20
458.9427208043297242
 30
0.0
 11
4568.2371543185581686
 21
458.942600009482419
 31
0.0
  0
LINE
  5
1A100
  8
0
 10
4568.2390486071808482
 20
459.2626389964868849
 30
0.0
 11
4568.2461223417603833
 21
459.262479015050701
 31
0.0
  0
LINE
  5
1A101
  8
0
 10
4566.9426971306547784
 20
486.1601241811158047
 30
0.0
 11
4566.9270477077552641
 21
485.9795946285157129
 31
0.0
  0
LINE
  5
1A102
  8
0
 10
4567.4541562576550859
 20
467.4908268009875201
 30
0.0
 11
4567.565211510053814
 21
467.3008154121156963
 31
0.0
  0
LINE
  5
1A103
  8
0
 10
4566.289896767605569
 20
473.4308277187158183
 30
0.0
 11
4566.2898937491063407
 21
473.1186984040156744
 31
0.0
  0
LINE
  5
1A104
  8
0
 10
4566.2898914279558085
 20
474.1001190574157818
 30
0.0
 11
4566.2898990887570108
 21
473.7791497749157088
 31
0.0
  0
LINE
  5
1A105
  8
0
 10
4566.8862911189644365
 20
473.0081738138354126
 30
0.0
 11
4566.8862911224550771
 21
472.9902522395157121
 31
0.0
  0
LINE
  5
1A106
  8
0
 10
4567.2293798550563224
 20
467.7860857451157131
 30
0.0
 11
4567.3929500112562891
 21
467.451790843815786
 31
0.0
  0
LINE
  5
1A107
  8
0
 10
4567.2293798550563224
 20
467.7860857451157131
 30
0.0
 11
4567.0139340954547151
 21
468.3780181046158191
 31
0.0
  0
LINE
  5
1A108
  8
0
 10
4567.4595424017152254
 20
467.4760284918011735
 30
0.0
 11
4566.9909478746949389
 21
468.7634813738301887
 31
0.0
  0
LINE
  5
1A109
  8
0
 10
4566.9592703112539311
 20
468.9656251734157877
 30
0.0
 11
4567.565211510053814
 21
467.3008154121156963
 31
0.0
  0
LINE
  5
1A10A
  8
0
 10
4567.6392030550550771
 20
467.327746132115692
 30
0.0
 11
4567.0281312502493165
 21
468.9906885054958821
 31
0.0
  0
LINE
  5
1A10B
  8
0
 10
4567.0139340954547151
 20
468.3780181046158191
 30
0.0
 11
4566.9243554841550576
 21
468.7392437258156974
 31
0.0
  0
LINE
  5
1A10C
  8
0
 10
4566.9963340186213827
 20
468.7486830650119032
 30
0.0
 11
4566.9592703112539311
 21
468.9656251734157877
 31
0.0
  0
LINE
  5
1A10D
  8
0
 10
4566.5519476432546071
 20
486.4389770388157217
 30
0.0
 11
4566.5550425901546987
 21
486.3799219294157865
 31
0.0
  0
LINE
  5
1A10E
  8
0
 10
4566.453819537585332
 20
472.9932259300408077
 30
0.0
 11
4566.5078103661671776
 21
472.8619382262635895
 31
0.0
  0
LINE
  5
1A10F
  8
0
 10
4569.0988094860913407
 20
473.7000297808157825
 30
0.0
 11
4569.1020981642732295
 21
473.5116215364071195
 31
0.0
  0
LINE
  5
1A110
  8
0
 10
4569.0836081738043504
 20
473.5145527261648795
 30
0.0
 11
4569.0819895400500172
 21
473.7000297808157825
 31
0.0
  0
LINE
  5
1A111
  8
0
 10
4568.2231366676551261
 20
458.5590769538158042
 30
0.0
 11
4568.2477251948539561
 21
459.6462828469157103
 31
0.0
  0
LINE
  5
1A112
  8
0
 10
4567.8480428636539727
 20
473.6826031231157117
 30
0.0
 11
4567.8701189347157197
 21
473.7000297808157825
 31
0.0
  0
LINE
  5
1A113
  8
0
 10
4566.9282729606538851
 20
472.9563958870157876
 30
0.0
 11
4566.9934988145423631
 21
472.8619382262635895
 31
0.0
  0
LINE
  5
1A114
  8
0
 10
4569.6290165176078517
 20
473.7000297808157825
 30
0.0
 11
4569.6290165176078517
 21
473.5095678763157139
 31
0.0
  0
LINE
  5
1A115
  8
0
 10
4569.6105048627396172
 20
473.5095678763157139
 30
0.0
 11
4569.6121669985632252
 21
473.7000297808157825
 31
0.0
  0
LINE
  5
1A116
  8
0
 10
4566.3480408628856821
 20
473.0538922904157175
 30
0.0
 11
4566.4439281709082934
 21
473.0096740314157842
 31
0.0
  0
LINE
  5
1A117
  8
0
 10
4566.9592703112539311
 20
468.9656251734157877
 30
0.0
 11
4567.0281312502493165
 21
468.9906885054958821
 31
0.0
  0
LINE
  5
1A118
  8
0
 10
4566.9243554841550576
 20
468.7392437258156974
 30
0.0
 11
4566.9909478746949389
 21
468.7634813738301887
 31
0.0
  0
LINE
  5
1A119
  8
0
 10
4566.8727794794549482
 20
473.6790392005157742
 30
0.0
 11
4566.9718559460079632
 21
473.6674820748157799
 31
0.0
  0
LINE
  5
1A11A
  8
0
 10
4566.3648949040552907
 20
473.5095678763157139
 30
0.0
 11
4580.3804718702522223
 21
473.5095678763157139
 31
0.0
  0
LINE
  5
1A11B
  8
0
 10
4569.0067332639564484
 20
473.5096565604158059
 30
0.0
 11
4568.1685603782552789
 21
473.5095705273157023
 31
0.0
  0
LINE
  5
1A11C
  8
0
 10
4580.3795434331514116
 20
474.1788592149156898
 30
0.0
 11
4566.3658233411551919
 21
474.1788592149156898
 31
0.0
  0
LINE
  5
1A11D
  8
0
 10
4566.3728646908548399
 20
473.7077578370157767
 30
0.0
 11
4566.5822400694551106
 21
473.7078021800156762
 31
0.0
  0
LINE
  5
1A11E
  8
0
 10
4567.3929500112562891
 20
467.451790843815786
 30
0.0
 11
4567.4595424017152254
 21
467.4760284918011735
 31
0.0
  0
LINE
  5
1A11F
  8
0
 10
4567.565211510053814
 20
467.3008154121156963
 30
0.0
 11
4567.6392030550550771
 21
467.327746132115692
 31
0.0
  0
LINE
  5
1A120
  8
0
 10
4567.7110155543086876
 20
473.6064122621157253
 30
0.0
 11
4567.6474000305288428
 21
473.5919116000376903
 31
0.0
  0
LINE
  5
1A121
  8
0
 10
4568.2372510747545675
 20
459.6421813725157222
 30
0.0
 11
4568.2477251948539561
 21
459.6462828469157103
 31
0.0
  0
LINE
  5
1A122
  8
0
 10
4566.6729842565546278
 20
486.2679930732156777
 30
0.0
 11
4580.0723825177510662
 21
486.2679930732156777
 31
0.0
  0
LINE
  5
1A123
  8
0
 10
4580.1056538530510807
 20
485.874292285815784
 30
0.0
 11
4566.6397129212546133
 21
485.874292285815784
 31
0.0
  0
LINE
  5
1A124
  8
0
 10
4580.0754458090514163
 20
486.5632686637158031
 30
0.0
 11
4566.6699209652560967
 21
486.5632686637158031
 31
0.0
  0
LINE
  5
1A125
  8
0
 10
4573.8155156180209815
 20
486.7224246472767959
 30
0.0
 11
4572.3056883407944042
 21
486.7224246472766822
 31
0.0
  0
ARC
  5
1A126
  8
0
 10
4570.6568117482538582
 20
459.0479173312156718
 30
0.0
 40
2.5
 50
166.5784827934949988
 51
190.8303268716960872
  0
ARC
  5
1A127
  8
0
 10
4568.2445436312546008
 20
459.6235583056158021
 30
0.0
 40
0.02
 50
111.3846800925196021
 51
166.5791169007981125
  0
ARC
  5
1A128
  8
0
 10
4568.2209857197540259
 20
458.5819220965158252
 30
0.0
 40
0.02
 50
190.8296927643015124
 51
246.0241295726862916
  0
ARC
  5
1A129
  8
0
 10
4567.0508758627538555
 20
473.2409487948157221
 30
0.0
 40
0.3083431969
 50
245.7233050714816045
 51
246.2083818476525039
  0
ARC
  5
1A12A
  8
0
 10
4566.9022812196553787
 20
472.9904376328157127
 30
0.0
 40
0.01598287
 50
196.6799197209010117
 51
206.0474104248010008
  0
ARC
  5
1A12B
  8
0
 10
4571.0915440114540615
 20
474.9899688542157037
 30
0.0
 40
4.0297322886999991
 50
210.3601434792111036
 51
211.8759804726053915
  0
ARC
  5
1A12C
  8
0
 10
4569.1736756216641879
 20
474.0229164163649784
 30
0.0
 40
0.5162807246815339
 50
259.9530904394920867
 51
263.890634733716297
  0
ARC
  5
1A12D
  8
0
 10
4573.0362658800540885
 20
476.2289970867157081
 30
0.0
 40
6.3524915198
 50
211.3112756534910943
 51
212.0079900386390079
  0
ARC
  5
1A12E
  8
0
 10
4528.9816036283164067
 20
458.9843217938072826
 30
0.0
 40
39.185319876604467
 50
357.8698721971417172
 51
359.7697164661501006
  0
ARC
  5
1A12F
  8
0
 10
4266.9703800087927448
 20
468.735020348507021
 30
0.0
 40
301.3488170883150019
 50
358.2106352770305762
 51
358.7899272999694062
  0
ARC
  5
1A130
  8
0
 10
4546.7660523288177501
 20
463.3561387127277271
 30
0.0
 40
21.5085087890251714
 50
357.3750201791801828
 51
3.504122213152419
  0
ARC
  5
1A131
  8
0
 10
4559.3805572025576112
 20
463.9753238922477863
 30
0.0
 40
8.8810607232504228
 50
4.4910853159105102
 51
15.4642770514109902
  0
ARC
  5
1A132
  8
0
 10
4557.8011898942586413
 20
463.7824579006287991
 30
0.0
 40
10.4573214350669108
 50
14.1753135232906899
 51
19.8174528418642488
  0
ARC
  5
1A133
  8
0
 10
4571.6073054142943874
 20
458.8578482452364824
 30
0.0
 40
3.3763848767251559
 50
178.5596647806455053
 51
180.5202667791384101
  0
ARC
  5
1A134
  8
0
 10
4559.4398055851197569
 20
459.3493048169386839
 30
0.0
 40
8.8067447753491255
 50
356.6011804714635787
 51
0.1891016171703652
  0
ARC
  5
1A135
  8
0
 10
4570.2566577866818989
 20
459.2049328698035993
 30
0.0
 40
2.0176237177636391
 50
175.0686795128520998
 51
178.3615785508328031
  0
ARC
  5
1A136
  8
0
 10
4583.9655950934939028
 20
476.0302015187530174
 30
0.0
 40
18.3420943434777115
 50
200.0299566315121069
 51
202.5686446200388104
  0
ARC
  5
1A137
  8
0
 10
4584.1997458881123748
 20
476.8656539375792249
 30
0.0
 40
18.8614040363467304
 50
200.070159851893095
 51
202.1712003046561961
  0
ARC
  5
1A138
  8
0
 10
4571.315085497567452
 20
472.179393702692721
 30
0.0
 40
5.1510411726432013
 50
190.747873884517702
 51
200.2921551300001966
  0
ARC
  5
1A139
  8
0
 10
4571.3861773655544312
 20
472.1007507771171277
 30
0.0
 40
5.2070068597810142
 50
181.5554874694508101
 51
189.7517667964484929
  0
ARC
  5
1A13A
  8
0
 10
4577.7568289021692181
 20
472.1299216861492027
 30
0.0
 40
11.5792018988922294
 50
177.4684361142739135
 51
178.5988367284024889
  0
ARC
  5
1A13B
  8
0
 10
4567.0509806806676352
 20
472.6383534444959196
 30
0.0
 40
0.8620581287738279
 50
177.2290482005402907
 51
179.7993651528290968
  0
ARC
  5
1A13C
  8
0
 10
4527.3706990491673423
 20
473.1485333925227792
 30
0.0
 40
38.8220585087309686
 50
359.3085369507427913
 51
359.4859247569559102
  0
ARC
  5
1A13D
  8
0
 10
4592.2617966220350354
 20
472.6376260718801063
 30
0.0
 40
26.0711086704279289
 50
178.6130830754376859
 51
179.6426810112344015
  0
ARC
  5
1A13E
  8
0
 10
-31004.4704902523517376
 20
1398.1901102626050033
 30
0.0
 40
35582.6918560489430092
 50
358.5105099445655128
 51
358.5306291573079989
  0
ARC
  5
1A13F
  8
0
 10
4566.6362513480171401
 20
485.7533751499290133
 30
0.0
 40
0.1154838197836973
 50
154.7734457405975093
 51
177.098186327803802
  0
ARC
  5
1A140
  8
0
 10
4566.6479797066040192
 20
485.747396168176806
 30
0.0
 40
0.1286425278848543
 50
124.0433724358279051
 51
154.5907679272654889
  0
ARC
  5
1A141
  8
0
 10
4566.641181862337362
 20
485.759434631286922
 30
0.0
 40
0.1148670474581734
 50
90.7327290149781618
 51
124.5953475500962071
  0
ARC
  5
1A142
  8
0
 10
4566.808690429962553
 20
485.993434388200285
 30
0.0
 40
0.1191636863914854
 50
271.0905316048421128
 51
353.3305739826583931
  0
ARC
  5
1A143
  8
0
 10
4567.0648897150040284
 20
486.1450050863448951
 30
0.0
 40
0.1231243870908405
 50
92.6972004674965575
 51
172.9465457036538965
  0
ARC
  5
1A144
  8
0
 10
4566.6739009551592972
 20
486.3870621870717059
 30
0.0
 40
0.119072642579067
 50
183.4378359235741129
 51
269.5588954877400738
  0
ARC
  5
1A145
  8
0
 10
4566.6706684172577297
 20
486.4444252921709904
 30
0.0
 40
0.1188457220291792
 50
90.3603506024195156
 51
182.627535601946505
  0
ARC
  5
1A146
  8
0
 10
4570.8476888427539961
 20
486.5698040968156874
 30
0.0
 40
0.0118110235999987
 50
181.426787644382614
 51
213.5959957242806979
  0
ARC
  5
1A147
  8
0
 10
4570.938222985968423
 20
486.600453632105598
 30
0.0
 40
0.1023918172374974
 50
170.9158277576669889
 51
178.2037778215347998
  0
ARC
  5
1A148
  8
0
 10
4570.8695782331378723
 20
486.6115282391946835
 30
0.0
 40
0.0328596716796535
 50
117.240786421561296
 51
171.0861940971223021
  0
ARC
  5
1A149
  8
0
 10
4570.9004207862881231
 20
486.5455843159930964
 30
0.0
 40
0.1056435268204069
 50
104.6977904529266965
 51
115.7422402072616023
  0
ARC
  5
1A14A
  8
0
 10
4571.239752474357374
 20
485.2974434652430205
 30
0.0
 40
1.39908525594276
 50
97.8826107666274936
 51
105.170746767056599
  0
ARC
  5
1A14B
  8
0
 10
4571.0499351380567532
 20
486.6628752866513992
 30
0.0
 40
0.0205371082682333
 50
48.428616423126158
 51
95.7531629852918655
  0
ARC
  5
1A14C
  8
0
 10
4571.0416370346019903
 20
490.5125309520719838
 30
0.0
 40
3.8343539346506219
 50
270.3276298129841848
 51
272.8038111515605806
  0
ARC
  5
1A14D
  8
0
 10
4572.0686766002663717
 20
439.2845964745623064
 30
0.0
 40
47.4056041880180814
 50
89.6367389126848337
 51
91.0146697534068352
  0
ARC
  5
1A14E
  8
0
 10
4573.9026290909214367
 20
-88.914455028998745
 30
0.0
 40
575.6057453849630292
 50
89.9533723038013733
 51
90.1526345874842292
  0
ARC
  5
1A14F
  8
0
 10
4572.4393531162686486
 20
447.0805769937086893
 30
0.0
 40
39.6420729990359675
 50
90.1931897460615062
 51
91.384072148911585
  0
ARC
  5
1A150
  8
0
 10
4571.6711848404165721
 20
479.4993417692797948
 30
0.0
 40
7.2142278972799359
 50
91.504055487545827
 51
93.5726760898810568
  0
ARC
  5
1A151
  8
0
 10
4571.6474774146563504
 20
480.6361602078338819
 30
0.0
 40
6.078324580848057
 50
94.0174013002478546
 51
94.9825503161583953
  0
ARC
  5
1A152
  8
0
 10
4571.1218431847037209
 20
486.6715816416901816
 30
0.0
 40
0.0200645959675453
 50
96.5319771686187096
 51
159.3145243857547086
  0
ARC
  5
1A153
  8
0
 10
4573.8100584436024292
 20
486.7015016841349961
 30
0.0
 40
0.0216229308668741
 50
6.1190143266757664
 51
75.3816640222349292
  0
LINE
  5
1A154
  8
0
 10
4573.831558180508182
 20
486.7038065598887897
 30
0.0
 11
4573.831558180508182
 21
486.6912859683479269
 31
0.0
  0
ARC
  5
1A155
  8
0
 10
4575.7846967156892788
 20
486.5698040973184106
 30
0.0
 40
0.0118110247662086
 50
326.4040051085560208
 51
356.5046875599484792
  0
ARC
  5
1A156
  8
0
 10
4575.7498340203619591
 20
486.6062707732247077
 30
0.0
 40
0.0466825257210042
 50
2.080629587093604
 51
28.9298322557144196
  0
ARC
  5
1A157
  8
0
 10
4575.7626996250883167
 20
486.6114388672975792
 30
0.0
 40
0.0329662624509244
 50
31.88646405673801
 51
60.4722432350263901
  0
ARC
  5
1A158
  8
0
 10
4575.7386085904754509
 20
486.564108159872319
 30
0.0
 40
0.086055162450535
 50
62.0468586715405834
 51
76.4842310396200418
  0
ARC
  5
1A159
  8
0
 10
4575.1634712525592477
 20
484.0915598671704743
 30
0.0
 40
2.6246111700593922
 50
76.8915277269090041
 51
80.9235655023111775
  0
ARC
  5
1A15A
  8
0
 10
4575.5757809577717126
 20
486.6614575002110996
 30
0.0
 40
0.0219183897862842
 50
85.4787911981231616
 51
130.0098133463247052
  0
LINE
  5
1A15B
  8
0
 10
4575.5775014889441081
 20
486.6788679000807747
 30
0.0
 11
4575.5775087430720305
 21
486.6833076848506039
 31
0.0
  0
ARC
  5
1A15C
  8
0
 10
4575.5764304936747067
 20
486.6807868829708923
 30
0.0
 40
0.0021976183013613
 50
280.2499628480093747
 51
299.1661347671528119
  0
ARC
  5
1A15D
  8
0
 10
4575.5731860719088218
 20
486.7013323459445928
 30
0.0
 40
0.0229971810303224
 50
272.5174292434878112
 51
279.0956668403342178
  0
ARC
  5
1A15E
  8
0
 10
4575.5681414789250994
 20
486.7936691586915003
 30
0.0
 40
0.115470647872065
 50
271.4219066344205089
 51
273.0056833345021801
  0
ARC
  5
1A15F
  8
0
 10
4575.5847072942433442
 20
489.6366880466653129
 30
0.0
 40
2.9584857025865019
 50
268.2516721758527183
 51
269.734667475593028
  0
ARC
  5
1A160
  8
0
 10
4574.0134635305676056
 20
397.0411925645876181
 30
0.0
 40
89.650620377926785
 50
89.0534600264538057
 51
89.7714586303739139
  0
ARC
  5
1A161
  8
0
 10
4575.5051829910917149
 20
486.6721230316030073
 30
0.0
 40
0.0198997164883607
 50
19.6870935701259313
 51
55.8241238283848702
  0
ARC
  5
1A162
  8
0
 10
4575.5039564654416608
 20
486.6698389202957742
 30
0.0
 40
0.0224799850906268
 50
56.5080700544284227
 51
80.6427117813912417
  0
ARC
  5
1A163
  8
0
 10
4574.8920843353262171
 20
477.9070352339084025
 30
0.0
 40
8.8065218524286824
 50
85.9920741562204256
 51
87.7664393346842218
  0
ARC
  5
1A164
  8
0
 10
4572.6890079541617524
 20
323.8128638320379764
 30
0.0
 40
162.9139026929375973
 50
89.1044482026135256
 51
89.5842174225722516
  0
ARC
  5
1A165
  8
0
 10
4573.8714295265035616
 20
486.702602506524272
 30
0.0
 40
0.0198754812628156
 50
90.5835356101291183
 51
175.8788466143209916
  0
ARC
  5
1A166
  8
0
 10
4566.3692804567590429
 20
474.0995434055141118
 30
0.0
 40
0.0793911158086212
 50
92.4957551501397859
 51
179.5845541014298874
  0
ARC
  5
1A167
  8
0
 10
4566.3628248027562222
 20
473.7795449552448872
 30
0.0
 40
0.07292678472194
 50
180.3104795570671968
 51
223.7954803022433055
  0
ARC
  5
1A168
  8
0
 10
4566.3607861486252659
 20
473.7781921050809046
 30
0.0
 40
0.0705203030239491
 50
224.1484343632363903
 51
260.300630687212788
  0
ARC
  5
1A169
  8
0
 10
4566.3675922905149491
 20
473.8825173840559728
 30
0.0
 40
0.174839061673965
 50
263.8643429863440133
 51
271.7280582942985916
  0
ARC
  5
1A16A
  8
0
 10
4566.538847489174259
 20
473.3665593640553766
 30
0.0
 40
0.3439906618907038
 50
80.2747080432159521
 51
82.7531375588824574
  0
ARC
  5
1A16B
  8
0
 10
4566.653941139627932
 20
474.030891865171327
 30
0.0
 40
0.3302390947551758
 50
260.0634536320163193
 51
265.0744215581676144
  0
ARC
  5
1A16C
  8
0
 10
4570.7360373740148134
 20
475.7486173656330948
 30
0.0
 40
4.299504782550212
 50
209.1514699484851008
 51
211.0002985841410919
  0
ARC
  5
1A16D
  8
0
 10
4564.7143020144230832
 20
452.6323454475008248
 30
0.0
 40
21.1570872971741615
 50
84.1444115022718364
 51
84.3581351883711363
  0
ARC
  5
1A16E
  8
0
 10
4566.0663265846651484
 20
466.4225009339235726
 30
0.0
 40
7.300823184823213
 50
84.2778049551131403
 51
85.6067092373100849
  0
ARC
  5
1A16F
  8
0
 10
4566.368697845630777
 20
473.4308586107403016
 30
0.0
 40
0.0788010840790673
 50
92.7661696914690879
 51
180.0224614001122916
  0
ARC
  5
1A170
  8
0
 10
4566.3680960178589885
 20
473.1195316767307872
 30
0.0
 40
0.0782067080337766
 50
180.6104836058867136
 51
206.0784585443423111
  0
ARC
  5
1A171
  8
0
 10
4566.3634339290601929
 20
473.1167752997656066
 30
0.0
 40
0.0728087934304281
 50
205.742988648848609
 51
239.7315545816447013
  0
ARC
  5
1A172
  8
0
 10
4566.3950391930929982
 20
472.9690755223488168
 30
0.0
 40
0.0635481792843136
 50
22.3357291798266218
 51
39.7070047573436895
  0
ARC
  5
1A173
  8
0
 10
4567.7254945170261635
 20
473.7136360522551968
 30
0.0
 40
0.1058706727628939
 50
297.3333465994977018
 51
313.2285684574526954
  0
ARC
  5
1A174
  8
0
 10
4604.386009604825631
 20
433.9808083919421051
 30
0.0
 40
53.9560517315263368
 50
132.623680393567895
 51
132.6959325558069054
  0
ARC
  5
1A175
  8
0
 10
4567.7126096866168155
 20
473.7564436757318731
 30
0.0
 40
0.150039882462857
 50
269.3912367143133224
 51
294.1967804007986729
  0
ARC
  5
1A176
  8
0
 10
4567.5652936805809077
 20
473.5542526528985263
 30
0.0
 40
0.0484227296786817
 50
292.6597324253526153
 51
328.5436494414412891
  0
LINE
  5
1A177
  8
0
 10
4567.6066001076133034
 20
473.52898330713532
 30
0.0
 11
4567.6474000305261143
 21
473.5919116000368945
 31
0.0
  0
ARC
  5
1A178
  8
0
 10
4566.4265042108581838
 20
472.6395178418953265
 30
0.0
 40
0.240373509202968
 50
112.2846189629895974
 51
123.1032284521998008
  0
ARC
  5
1A179
  8
0
 10
4566.4241566440232418
 20
472.6444461274621744
 30
0.0
 40
0.2349641408171917
 50
123.2800316242597063
 51
137.6784542398767996
  0
ARC
  5
1A17A
  8
0
 10
4566.4305302046377619
 20
472.6387555003150283
 30
0.0
 40
0.2435080712266052
 50
137.6981563139059119
 51
151.9248736073637929
  0
ARC
  5
1A17B
  8
0
 10
4566.4223473991805804
 20
472.6428204102924155
 30
0.0
 40
0.2343752113366583
 50
151.8602214150427869
 51
162.8337133671641936
  0
ARC
  5
1A17C
  8
0
 10
4566.4000150819383634
 20
472.6494909940749949
 30
0.0
 40
0.2110690667884306
 50
162.7745719567905951
 51
173.7896787175363897
  0
ARC
  5
1A17D
  8
0
 10
4566.4061768233896146
 20
472.649348402850876
 30
0.0
 40
0.2172107073254081
 50
173.9281139193236072
 51
177.5992736136531107
  0
ARC
  5
1A17E
  8
0
 10
4568.5296061243197983
 20
472.3931920812929093
 30
0.0
 40
0.8240646043010864
 50
129.0856585871622997
 51
145.3318731798088095
  0
ARC
  5
1A17F
  8
0
 10
4571.274327820333383
 20
489.2315842994490822
 30
0.0
 40
16.5243763293768389
 50
258.6066676298539164
 51
260.4752035619659978
  0
ARC
  5
1A180
  8
0
 10
4569.4631186377710037
 20
478.6525502054525987
 30
0.0
 40
5.7915850473543182
 50
260.8281888397733042
 51
263.5555501161074972
  0
ARC
  5
1A181
  8
0
 10
4569.1453757827457594
 20
475.8155277541965233
 30
0.0
 40
2.936827155611097
 50
263.5030323035318816
 51
266.3048339692116997
  0
ARC
  5
1A182
  8
0
 10
4568.3499468409354449
 20
472.4274794523714718
 30
0.0
 40
0.759323849364945
 50
34.9013586053800324
 51
37.0334666777891428
  0
ARC
  5
1A183
  8
0
 10
4567.3969737077177342
 20
472.8031797847883126
 30
0.0
 40
0.2458577638844154
 50
30.42596331028302
 51
36.4119472281658503
  0
ARC
  5
1A184
  8
0
 10
4567.4929537444149901
 20
472.8004104532806764
 30
0.0
 40
0.1802585824569598
 50
55.5850616690821298
 51
75.4698375216118365
  0
ARC
  5
1A185
  8
0
 10
4567.2916460396481853
 20
471.9230797140000959
 30
0.0
 40
1.080329508586783
 50
76.8087957943145199
 51
83.5170424792106161
  0
ARC
  5
1A186
  8
0
 10
4566.8957024844758052
 20
469.4268970464294171
 30
0.0
 40
3.606981406489977
 50
81.7444491635504846
 51
84.7403510387673009
  0
ARC
  5
1A187
  8
0
 10
4567.067397145520772
 20
471.3793749439485055
 30
0.0
 40
1.647004757714525
 50
84.4616791707241248
 51
90.4651584093945331
  0
ARC
  5
1A188
  8
0
 10
4567.0580090609018953
 20
472.5106018464467752
 30
0.0
 40
0.5157389586105272
 50
90.442499710390976
 51
101.744260054261801
  0
ARC
  5
1A189
  8
0
 10
4566.97155438568916
 20
472.9194720861094083
 30
0.0
 40
0.097841092740564
 50
100.9115812916299006
 51
127.8298878597952069
  0
ARC
  5
1A18A
  8
0
 10
4566.936434199094947
 20
472.9673085464622773
 30
0.0
 40
0.0385515009596339
 50
130.2083021328544987
 51
149.5262234099263878
  0
ARC
  5
1A18B
  8
0
 10
4566.9304602535639788
 20
472.9711316828220902
 30
0.0
 40
0.0314650266300175
 50
150.0094382828046093
 51
158.6419966618749129
  0
ARC
  5
1A18C
  8
0
 10
4566.9045418843006701
 20
472.9812493317915028
 30
0.0
 40
0.0036419008598663
 50
158.3820732090464958
 51
190.2932783397536127
  0
ARC
  5
1A18D
  8
0
 10
4566.9074736169313837
 20
472.9819089419065108
 30
0.0
 40
0.006645492022548
 50
191.3722021823487864
 51
213.2123320871428973
  0
ARC
  5
1A18E
  8
0
 10
4566.9196153094680994
 20
472.990246343608078
 30
0.0
 40
0.0213730218861429
 50
214.0834132900598092
 51
232.9577474573752056
  0
ARC
  5
1A18F
  8
0
 10
4566.9730736501242063
 20
473.0598304377091949
 30
0.0
 40
0.1091205545797207
 50
232.5627514742920141
 51
242.4956093561746115
  0
ARC
  5
1A190
  8
0
 10
4566.8906205015273372
 20
472.930391960966972
 30
0.0
 40
0.0457592815539412
 50
34.6301306593923002
 51
45.5239359177717873
  0
ARC
  5
1A191
  8
0
 10
4567.5943286749497929
 20
472.934713489680405
 30
0.0
 40
0.0273119397169997
 50
42.6178305382125018
 51
57.4214465427950387
  0
ARC
  5
1A192
  8
0
 10
4567.5243372447175716
 20
472.8345103060648853
 30
0.0
 40
0.1495202339543521
 50
55.4960481929745626
 51
61.4290185546404928
  0
ARC
  5
1A193
  8
0
 10
4567.4590892891274052
 20
472.7136908674144138
 30
0.0
 40
0.2868319697586046
 50
61.5247293314973405
 51
69.0599830654002886
  0
ARC
  5
1A194
  8
0
 10
4567.4728232646839388
 20
472.753676367542198
 30
0.0
 40
0.2445832961971934
 50
68.7171393566741529
 51
74.6418716117042749
  0
ARC
  5
1A195
  8
0
 10
4567.5093140629596746
 20
472.8894577970439173
 30
0.0
 40
0.1039889682041858
 50
74.2152826361937343
 51
82.6560477289365139
  0
ARC
  5
1A196
  8
0
 10
4566.4299994606262771
 20
464.7512520185300104
 30
0.0
 40
8.3134531348214455
 50
82.4479749383970955
 51
83.7839609031130266
  0
ARC
  5
1A197
  8
0
 10
4566.7168226336689258
 20
467.2494346856929042
 30
0.0
 40
5.798919992467467
 50
83.92860555046542
 51
85.5818438043761347
  0
ARC
  5
1A198
  8
0
 10
4567.0113399322062833
 20
470.9481215257288795
 30
0.0
 40
2.0885542485269251
 50
85.8208937111282637
 51
89.3141460591159131
  0
ARC
  5
1A199
  8
0
 10
4567.0239368349803044
 20
472.3814967005769745
 30
0.0
 40
0.6551468619283209
 50
88.915201933419624
 51
95.3586317517699911
  0
ARC
  5
1A19A
  8
0
 10
4566.9806274571883478
 20
472.7603793665526837
 30
0.0
 40
0.2739846525121651
 50
93.7405681849175068
 51
104.3496158889487049
  0
ARC
  5
1A19B
  8
0
 10
4566.9332500832397272
 20
472.9573869677989251
 30
0.0
 40
0.0714414553290392
 50
106.6974832032757945
 51
123.1375448891948992
  0
ARC
  5
1A19C
  8
0
 10
4566.9013355310617044
 20
473.0029869741966877
 30
0.0
 40
0.0159134421411347
 50
116.6547241418574004
 51
160.9774188028648041
  0
ARC
  5
1A19D
  8
0
 10
4566.9022226751712878
 20
472.9904587424684905
 30
0.0
 40
0.0159328909939782
 50
180.7426197124013925
 51
196.8130649562741894
  0
ARC
  5
1A19E
  8
0
 10
4566.9016592929792751
 20
472.9901642889934124
 30
0.0
 40
0.0153041072560412
 50
206.1504276079876945
 51
228.9043904566530898
  0
ARC
  5
1A19F
  8
0
 10
4566.9021752705257313
 20
472.990567668926019
 30
0.0
 40
0.0159477407412128
 50
228.4599697012116053
 51
245.4889612969911923
  0
ARC
  5
1A1A0
  8
0
 10
4567.0453733828962868
 20
473.2293838959001278
 30
0.0
 40
0.295538781164934
 50
242.3516851108934986
 51
245.7739173739396108
  0
ARC
  5
1A1A1
  8
0
 10
4566.9620312943479803
 20
473.0715041374696739
 30
0.0
 40
0.1170139289752905
 50
237.4300562689168999
 51
242.6270885589046031
  0
ARC
  5
1A1A2
  8
0
 10
4566.9116845419875972
 20
472.9926581805103183
 30
0.0
 40
0.0234645884517832
 50
229.6520048457925043
 51
237.3907879416937021
  0
ARC
  5
1A1A3
  8
0
 10
4566.8997688647123141
 20
472.9786296310908824
 30
0.0
 40
0.0050585145431842
 50
217.2670705467791095
 51
229.6380620455038866
  0
ARC
  5
1A1A4
  8
0
 10
4566.8963558018031108
 20
472.9760763288772978
 30
0.0
 40
0.0007969789434184
 50
181.3813049364327128
 51
219.7655557194665903
  0
LINE
  5
1A1A5
  8
0
 10
4579.802669643650006
 20
486.1601241811158047
 30
0.0
 11
4579.8183190665513393
 21
485.9795946285157129
 31
0.0
  0
LINE
  5
1A1A6
  8
0
 10
4580.1934191310519964
 20
486.4389770388157217
 30
0.0
 11
4580.1903241841500858
 21
486.3799219294157865
 31
0.0
  0
ARC
  5
1A1A7
  8
0
 10
4570.1423205778655756
 20
458.868381709533196
 30
0.0
 40
8.3658251394401848
 50
359.7169131808071256
 51
3.494002692381827
  0
ARC
  5
1A1A8
  8
0
 10
40151.2158570266401512
 20
1398.1901102626050033
 30
0.0
 40
35582.6918560489430092
 50
181.4693708426920011
 51
181.4894900554344872
  0
ARC
  5
1A1A9
  8
0
 10
4580.1091154262876444
 20
485.7533751499290133
 30
0.0
 40
0.1154838197836973
 50
2.9018136721929091
 51
25.2265542594025014
  0
ARC
  5
1A1AA
  8
0
 10
4580.0973870677016748
 20
485.747396168176806
 30
0.0
 40
0.1286425278848543
 50
25.4092320727344401
 51
55.9566275641720665
  0
ARC
  5
1A1AB
  8
0
 10
4580.1041848536751786
 20
485.7594344482316728
 30
0.0
 40
0.1148672312440054
 50
55.4046803568088606
 51
89.2672430780882138
  0
ARC
  5
1A1AC
  8
0
 10
4579.9366762825056867
 20
485.9934343563720063
 30
0.0
 40
0.1191636212768798
 50
186.6694142704270973
 51
268.9103093413958732
  0
ARC
  5
1A1AD
  8
0
 10
4579.6804770593016656
 20
486.1450050863448951
 30
0.0
 40
0.1231243870908405
 50
7.0534542963460298
 51
87.3027995325034567
  0
ARC
  5
1A1AE
  8
0
 10
4580.0714658191473063
 20
486.3870621870717059
 30
0.0
 40
0.119072642579067
 50
270.4411045122599262
 51
356.5621640764259155
  0
ARC
  5
1A1AF
  8
0
 10
4580.0746983570470547
 20
486.4444252921709904
 30
0.0
 40
0.1188457220291792
 50
357.3724643980534097
 51
89.6396493975804844
  0
LINE
  5
1A1B1
  8
0
 10
4570.8358814810717377
 20
486.6036630888847867
 30
0.0
 11
4570.8358814810717377
 21
486.5695100074245829
 31
0.0
  0
LINE
  5
1A1B2
  8
0
 10
4575.7964857694651073
 20
486.6079656222901804
 30
0.0
 11
4575.7964857694651073
 21
486.5690840160056041
 31
0.0
  0
LINE
  5
1A1B3
  8
0
 10
4566.1810892595540281
 20
472.4130618311768899
 30
0.0
 11
4566.1810892595540281
 21
471.9594063517110953
 31
0.0
  0
LINE
  5
1A1B4
  8
0
 10
4580.4100140666942025
 20
472.8619382262635895
 30
0.0
 11
4566.335352707612401
 21
472.8619382262635895
 31
0.0
  0
ARC
  5
1A1B5
  8
0
 10
4566.911497574536952
 20
473.6153384680850991
 30
0.0
 40
0.0797627026222621
 50
29.1923019051018215
 51
40.8237399754812103
  0
ARC
  5
1A1B6
  8
0
 10
4567.0974472826746933
 20
473.5573697369558772
 30
0.0
 40
0.052220058363472
 50
206.3526877764188043
 51
246.2615584869024019
  0
LINE
  5
1A1B7
  8
0
 10
4580.4554707685401809
 20
473.908319738487819
 30
0.0
 11
4566.2898960057664226
 21
473.908319738487819
 31
0.0
  0
LINE
  5
1A1B8
  8
0
 10
4566.3267345075937556
 20
473.0538922904157175
 30
0.0
 11
4580.4186322667110289
 21
473.0538922904157175
 31
0.0
  0
LINE
  5
1A1B9
  8
0
 10
4573.8516054369083577
 20
486.7040308717157018
 30
0.0
 11
4573.8516054369083577
 21
486.6912880945092184
 31
0.0
  0
ARC
  5
1A1BA
  8
0
 10
4587.2588233342157764
 20
459.3481206993429851
 30
0.0
 40
8.7662798590467865
 50
179.8032134332092937
 51
183.4077024399811933
  0
LINE
  5
1A1BB
  8
0
 10
4580.4554700066992154
 20
473.4308277187158183
 30
0.0
 11
4580.4554730251993533
 21
473.1186984040156744
 31
0.0
  0
LINE
  5
1A1BC
  8
0
 10
4580.4554753463498855
 20
474.1001190574157818
 30
0.0
 11
4580.4554676855486832
 21
473.7791497749157088
 31
0.0
  0
LINE
  5
1A1BD
  8
0
 10
4579.8590756553412575
 20
473.0081738138354126
 30
0.0
 11
4579.8590756518497074
 21
472.9902522395157121
 31
0.0
  0
LINE
  5
1A1BE
  8
0
 10
4579.1061637192497074
 20
467.327746132115692
 30
0.0
 11
4579.7200568233984086
 21
468.9897319255123875
 31
0.0
  0
LINE
  5
1A1BF
  8
0
 10
4580.291547236720362
 20
472.9932259300408077
 30
0.0
 11
4580.2375564081376069
 21
472.8619382262635895
 31
0.0
  0
LINE
  5
1A1C0
  8
0
 10
4577.6465572882143533
 20
473.7000297808157825
 30
0.0
 11
4577.643268610033374
 21
473.5116215364071195
 31
0.0
  0
LINE
  5
1A1C1
  8
0
 10
4577.6617586005022531
 20
473.5145527261648795
 30
0.0
 11
4577.6633772342547672
 21
473.7000297808157825
 31
0.0
  0
LINE
  5
1A1C2
  8
0
 10
4578.8973239106508117
 20
473.6826031231157117
 30
0.0
 11
4578.8752478395890648
 21
473.7000297808157825
 31
0.0
  0
LINE
  5
1A1C3
  8
0
 10
4579.8170938136508994
 20
472.9563958870157876
 30
0.0
 11
4579.7518679597642404
 21
472.8619382262635895
 31
0.0
  0
LINE
  5
1A1C4
  8
0
 10
4577.1163502566969328
 20
473.7000297808157825
 30
0.0
 11
4577.1163502566969328
 21
473.5095678763157139
 31
0.0
  0
LINE
  5
1A1C5
  8
0
 10
4577.1348619115669862
 20
473.5095678763157139
 30
0.0
 11
4577.1331997757433783
 21
473.7000297808157825
 31
0.0
  0
LINE
  5
1A1C6
  8
0
 10
4580.3973259114200118
 20
473.0538922904157175
 30
0.0
 11
4580.3014386033974006
 21
473.0096740314157842
 31
0.0
  0
LINE
  5
1A1C7
  8
0
 10
4579.8725872948498363
 20
473.6790392005157742
 30
0.0
 11
4579.7735108282977308
 21
473.6674820748157799
 31
0.0
  0
LINE
  5
1A1C8
  8
0
 10
4580.3725020834508541
 20
473.7077578370157767
 30
0.0
 11
4580.1631267048496738
 21
473.7078021800156762
 31
0.0
  0
LINE
  5
1A1C9
  8
0
 10
4579.0343512199979159
 20
473.6064122621157253
 30
0.0
 11
4579.0979667437759417
 21
473.5919116000376903
 31
0.0
  0
ARC
  5
1A1CA
  8
0
 10
4579.694490911550929
 20
473.2409487948157221
 30
0.0
 40
0.3083431969
 50
293.7916181523473824
 51
294.2766949285183955
  0
ARC
  5
1A1CB
  8
0
 10
4579.8430855546512248
 20
472.9904376328157127
 30
0.0
 40
0.01598287
 50
333.9525895751989992
 51
343.3200802790988746
  0
ARC
  5
1A1CC
  8
0
 10
4575.6538227628507229
 20
474.9899688542157037
 30
0.0
 40
4.0297322886999991
 50
328.1240195273945801
 51
329.6398565207888964
  0
ARC
  5
1A1CD
  8
0
 10
4577.5716911526424155
 20
474.0229164163649784
 30
0.0
 40
0.5162807246815339
 50
276.1093652662835893
 51
280.0469095605079133
  0
ARC
  5
1A1CE
  8
0
 10
4573.709100894250696
 20
476.2289970867157081
 30
0.0
 40
6.3524915198
 50
327.9920099613610205
 51
328.6887243465088773
  0
ARC
  5
1A1CF
  8
0
 10
4630.9221817338620895
 20
459.3700479291337047
 30
0.0
 40
52.3490855229602303
 50
180.048938748672299
 51
180.2077041034368108
  0
ARC
  5
1A1D0
  8
0
 10
4630.9221817338620895
 20
459.3700479291337047
 30
0.0
 40
52.3490855229602303
 50
180.3981693711189109
 51
182.0167074298151988
  0
ARC
  5
1A1D1
  8
0
 10
4879.7749867655138587
 20
468.735020348507021
 30
0.0
 40
301.3488170883150019
 50
181.2100727000305938
 51
181.7893647229693102
  0
ARC
  5
1A1D2
  8
0
 10
4599.9793144454870344
 20
463.3561387127277271
 30
0.0
 40
21.5085087890251714
 50
176.4958777868475863
 51
182.6249798208197888
  0
ARC
  5
1A1D3
  8
0
 10
4588.4714322564414033
 20
463.8348502015849135
 30
0.0
 40
9.9954277925061223
 50
159.5463602587184084
 51
175.2028745410648867
  0
ARC
  5
1A1D4
  8
0
 10
4554.3137441375347407
 20
479.2232543942229768
 30
0.0
 40
27.3898832857953387
 50
338.0606962228229122
 51
339.7604264377147842
  0
ARC
  5
1A1D5
  8
0
 10
4562.5456208861933192
 20
476.8656539375792249
 30
0.0
 40
18.8614040363467304
 50
337.8287996953437755
 51
339.929840148106905
  0
ARC
  5
1A1D6
  8
0
 10
4575.430281276738242
 20
472.179393702692721
 30
0.0
 40
5.1510411726432013
 50
339.7078448699998034
 51
349.2521261154823264
  0
ARC
  5
1A1D7
  8
0
 10
4575.3591894087521723
 20
472.1007507771171277
 30
0.0
 40
5.2070068597810142
 50
350.2482332035514787
 51
358.4445125305492184
  0
ARC
  5
1A1D8
  8
0
 10
4568.9885378721373854
 20
472.1299216861492027
 30
0.0
 40
11.5792018988922294
 50
1.4011632715974709
 51
2.5315638857293248
  0
ARC
  5
1A1D9
  8
0
 10
4579.6943860936371493
 20
472.6383534444959196
 30
0.0
 40
0.8620581287738279
 50
0.2006348471708522
 51
2.7709517994596178
  0
ARC
  5
1A1DA
  8
0
 10
4619.3746677251401707
 20
473.1485333925227792
 30
0.0
 40
38.8220585087309686
 50
180.5140752430440898
 51
180.6914630492572087
  0
ARC
  5
1A1DB
  8
0
 10
4554.4835701522697491
 20
472.6376260718801063
 30
0.0
 40
26.0711086704279289
 50
0.3573189887655911
 51
1.3869169245623221
  0
ARC
  5
1A1DC
  8
0
 10
4580.3760863175466511
 20
474.0995434055141118
 30
0.0
 40
0.0793911158086212
 50
0.4154458985701247
 51
87.5042448498602283
  0
ARC
  5
1A1DD
  8
0
 10
4580.3825419715485623
 20
473.7795449552448872
 30
0.0
 40
0.07292678472194
 50
316.2045196977567798
 51
359.6895204429328032
  0
ARC
  5
1A1DE
  8
0
 10
4580.3845806256804281
 20
473.7781921050809046
 30
0.0
 40
0.0705203030239491
 50
279.699369312787212
 51
315.8515656367636097
  0
ARC
  5
1A1DF
  8
0
 10
4580.3777744837898354
 20
473.8825173840559728
 30
0.0
 40
0.174839061673965
 50
268.2719417057014084
 51
276.1356570136559867
  0
ARC
  5
1A1E0
  8
0
 10
4580.2065192851323445
 20
473.3665593640553766
 30
0.0
 40
0.3439906618907038
 50
97.2468624411175426
 51
99.7252919567840763
  0
ARC
  5
1A1E1
  8
0
 10
4580.091425634677762
 20
474.030891865171327
 30
0.0
 40
0.3302390947551758
 50
274.9255784418323856
 51
279.9365463679836807
  0
ARC
  5
1A1E2
  8
0
 10
4576.0093294002908806
 20
475.7486173656330948
 30
0.0
 40
4.299504782550212
 50
328.9997014158589081
 51
330.8485300515150129
  0
ARC
  5
1A1E3
  8
0
 10
4582.0310647598817013
 20
452.6323454475008248
 30
0.0
 40
21.1570872971741615
 50
95.6418648116288779
 51
95.8555884977281778
  0
ARC
  5
1A1E4
  8
0
 10
4580.6790401896396361
 20
466.4225009339235726
 30
0.0
 40
7.300823184823213
 50
94.3932907626899009
 51
95.7221950448868739
  0
ARC
  5
1A1E5
  8
0
 10
4580.3766689286758265
 20
473.4308586107403016
 30
0.0
 40
0.0788010840790673
 50
359.9775385998876231
 51
87.2338303085309263
  0
ARC
  5
1A1E6
  8
0
 10
4580.377270756445796
 20
473.1195316767307872
 30
0.0
 40
0.0782067080337766
 50
333.9215414556576889
 51
359.3895163941131727
  0
ARC
  5
1A1E7
  8
0
 10
4580.3819328452445916
 20
473.1167752997656066
 30
0.0
 40
0.0728087934304175
 50
300.2684454183536218
 51
334.2570113511515046
  0
ARC
  5
1A1E8
  8
0
 10
4580.3503275812126958
 20
472.9690755223488168
 30
0.0
 40
0.0635481792843136
 50
140.2929952426563034
 51
157.6642708201734138
  0
ARC
  5
1A1E9
  8
0
 10
4579.01987225728044
 20
473.7136360522551968
 30
0.0
 40
0.1058706727628939
 50
226.7714315425473046
 51
242.6666534005022982
  0
ARC
  5
1A1EA
  8
0
 10
4542.359357169480063
 20
433.9808083919421051
 30
0.0
 40
53.9560517315263368
 50
47.3040674441930804
 51
47.3763196064321122
  0
ARC
  5
1A1EB
  8
0
 10
4579.032757087687969
 20
473.7564436757318731
 30
0.0
 40
0.150039882462857
 50
245.8032195992012987
 51
270.6087632856866776
  0
ARC
  5
1A1EC
  8
0
 10
4579.1800730937256958
 20
473.5542526528985263
 30
0.0
 40
0.0484227296786817
 50
211.4563505585587961
 51
247.3402675746474131
  0
LINE
  5
1A1ED
  8
0
 10
4579.1387666666933001
 20
473.52898330713532
 30
0.0
 11
4579.0979667437795797
 21
473.5919116000368945
 31
0.0
  0
ARC
  5
1A1EE
  8
0
 10
4580.3188625634466007
 20
472.6395178418953265
 30
0.0
 40
0.240373509202968
 50
56.8967715478001566
 51
67.7153810370103457
  0
ARC
  5
1A1EF
  8
0
 10
4580.3212101302824522
 20
472.6444461274621744
 30
0.0
 40
0.2349641408171917
 50
42.3215457601231719
 51
56.7199683757402724
  0
ARC
  5
1A1F0
  8
0
 10
4580.3148365696670226
 20
472.6387555003150283
 30
0.0
 40
0.2435080712266052
 50
28.0751263926361716
 51
42.3018436860940881
  0
ARC
  5
1A1F1
  8
0
 10
4580.3230193751251136
 20
472.6428204102924155
 30
0.0
 40
0.2343752113366583
 50
17.1662866328358099
 51
28.1397785849572202
  0
ARC
  5
1A1F2
  8
0
 10
4580.34535169236824
 20
472.6494909940749949
 30
0.0
 40
0.2110690667884306
 50
6.2103212824635747
 51
17.22542804320938
  0
ARC
  5
1A1F3
  8
0
 10
4578.2157606499849862
 20
472.3931920812929093
 30
0.0
 40
0.8240646043010864
 50
34.6681268201911692
 51
50.9143414128376506
  0
ARC
  5
1A1F4
  8
0
 10
4575.471038953972311
 20
489.2315842994490822
 30
0.0
 40
16.5243763293768389
 50
279.5247964380341159
 51
281.3933323701460836
  0
ARC
  5
1A1F5
  8
0
 10
4577.2822481365355998
 20
478.6525502054525987
 30
0.0
 40
5.7915850473543182
 50
276.4444498838925028
 51
279.1718111602266958
  0
ARC
  5
1A1F6
  8
0
 10
4577.5999909915599346
 20
475.8155277541965233
 30
0.0
 40
2.936827155611097
 50
273.6951660307883003
 51
276.4969676964680048
  0
ARC
  5
1A1F7
  8
0
 10
4578.3954199333711585
 20
472.4274794523714718
 30
0.0
 40
0.759323849364945
 50
142.9665333222108075
 51
145.0986413946199036
  0
ARC
  5
1A1F8
  8
0
 10
4579.3483930665870503
 20
472.8031797847883126
 30
0.0
 40
0.2458577638844154
 50
143.5880527718341
 51
149.5740366897169906
  0
ARC
  5
1A1F9
  8
0
 10
4579.2524130298897944
 20
472.8004104532806764
 30
0.0
 40
0.1802585824569598
 50
104.5301624783881067
 51
124.4149383309178063
  0
ARC
  5
1A1FA
  8
0
 10
4579.4537207346584182
 20
471.9230797140000959
 30
0.0
 40
1.080329508586783
 50
96.4829575207893555
 51
103.1912042056853949
  0
ARC
  5
1A1FB
  8
0
 10
4579.8496642898289792
 20
469.4268970464294171
 30
0.0
 40
3.606981406489977
 50
95.2596489612327133
 51
98.2555508364495012
  0
ARC
  5
1A1FC
  8
0
 10
4579.677969628784922
 20
471.3793749439485055
 30
0.0
 40
1.647004757714525
 50
89.5348415906054953
 51
95.5383208292758468
  0
ARC
  5
1A1FD
  8
0
 10
4579.6873577134028892
 20
472.5106018464467752
 30
0.0
 40
0.5157389586105272
 50
78.2557399457381422
 51
89.5575002896090382
  0
ARC
  5
1A1FE
  8
0
 10
4579.773812388618353
 20
472.9194720861094083
 30
0.0
 40
0.097841092740564
 50
52.1701121402047434
 51
79.0884187083700709
  0
ARC
  5
1A1FF
  8
0
 10
4579.8089325752098375
 20
472.9673085464622773
 30
0.0
 40
0.0385515009596339
 50
30.4737765900736015
 51
49.7916978671454586
  0
ARC
  5
1A200
  8
0
 10
4579.8149065207408057
 20
472.9711316828220902
 30
0.0
 40
0.0314650266300175
 50
21.3580033381251191
 51
29.9905617171953907
  0
ARC
  5
1A201
  8
0
 10
4579.8408248900050239
 20
472.9812493317915028
 30
0.0
 40
0.0036419008598663
 50
349.7067216602463873
 51
21.6179267909535291
  0
ARC
  5
1A202
  8
0
 10
4579.8378931573761292
 20
472.9819089419065108
 30
0.0
 40
0.006645492022548
 50
326.7876679128571027
 51
348.6277978176511283
  0
ARC
  5
1A203
  8
0
 10
4579.8257514648375945
 20
472.990246343608078
 30
0.0
 40
0.0213730218861429
 50
307.0422525426247944
 51
325.9165867099401908
  0
ARC
  5
1A204
  8
0
 10
4579.7722931241833066
 20
473.0598304377091949
 30
0.0
 40
0.1091205545797207
 50
297.5043906438253885
 51
307.437248525708128
  0
ARC
  5
1A205
  8
0
 10
4579.8547462727792663
 20
472.930391960966972
 30
0.0
 40
0.0457592815539412
 50
134.4760640822281914
 51
145.3698693406076927
  0
ARC
  5
1A206
  8
0
 10
4579.1510380993559011
 20
472.934713489680405
 30
0.0
 40
0.0273119397169997
 50
122.5785534572049045
 51
137.3821694617874982
  0
ARC
  5
1A207
  8
0
 10
4579.2210295295872129
 20
472.8345103060648853
 30
0.0
 40
0.1495202339543521
 50
118.570981445359493
 51
124.5039518070254019
  0
ARC
  5
1A208
  8
0
 10
4579.2862774851791983
 20
472.7136908674144138
 30
0.0
 40
0.2868319697586046
 50
110.9400169345996972
 51
118.4752706685026027
  0
ARC
  5
1A209
  8
0
 10
4579.2725435096226647
 20
472.753676367542198
 30
0.0
 40
0.2445832961971934
 50
105.3581283882956967
 51
111.2828606433258045
  0
ARC
  5
1A20A
  8
0
 10
4579.2360527113451099
 20
472.8894577970439173
 30
0.0
 40
0.1039889682041858
 50
97.3439522710634861
 51
105.7847173638061946
  0
ARC
  5
1A20B
  8
0
 10
4580.3153673136803263
 20
464.7512520185300104
 30
0.0
 40
8.3134531348214455
 50
96.2160390968869734
 51
97.5520250616028903
  0
ARC
  5
1A20C
  8
0
 10
4580.0285441406367681
 20
467.2494346856929042
 30
0.0
 40
5.798919992467467
 50
94.4181561956238369
 51
96.0713944495345942
  0
ARC
  5
1A20D
  8
0
 10
4579.7340268421003202
 20
470.9481215257288795
 30
0.0
 40
2.0885542485269251
 50
90.6858539408841011
 51
94.1791062888717363
  0
ARC
  5
1A20E
  8
0
 10
4579.7214299393253896
 20
472.3814967005769745
 30
0.0
 40
0.6551468619283209
 50
84.6413682482300231
 51
91.084798066580376
  0
ARC
  5
1A20F
  8
0
 10
4579.7647393171182557
 20
472.7603793665526837
 30
0.0
 40
0.2739846525121651
 50
75.6503841110512951
 51
86.2594318150824932
  0
ARC
  5
1A210
  8
0
 10
4579.8121166910650572
 20
472.9573869677989251
 30
0.0
 40
0.0714414553290392
 50
56.8624551108051222
 51
73.3025167967241913
  0
ARC
  5
1A211
  8
0
 10
4579.8440312432439896
 20
473.0029869741966877
 30
0.0
 40
0.0159134421411347
 50
19.0225811971351497
 51
63.3452758581425783
  0
ARC
  5
1A212
  8
0
 10
4579.8431440991344061
 20
472.9904587424684905
 30
0.0
 40
0.0159328909939782
 50
343.1869350437257822
 51
359.2573802875953106
  0
ARC
  5
1A213
  8
0
 10
4579.8437074813264189
 20
472.9901642889934124
 30
0.0
 40
0.0153041072560412
 50
311.0956095433468818
 51
333.8495723920123055
  0
ARC
  5
1A214
  8
0
 10
4579.8431915037790532
 20
472.990567668926019
 30
0.0
 40
0.0159477407412128
 50
294.511038703008694
 51
311.5400302987883947
  0
ARC
  5
1A215
  8
0
 10
4579.6999933914094072
 20
473.2293838959001278
 30
0.0
 40
0.295538781164934
 50
294.2260826260603039
 51
297.6483148891065866
  0
ARC
  5
1A216
  8
0
 10
4579.7833354799568042
 20
473.0715041374696739
 30
0.0
 40
0.1170139289752905
 50
297.3729114410953116
 51
302.5699437310830717
  0
ARC
  5
1A217
  8
0
 10
4579.8336822323171873
 20
472.9926581805103183
 30
0.0
 40
0.0234645884517832
 50
302.6092120583062979
 51
310.3479951542075241
  0
ARC
  5
1A218
  8
0
 10
4579.8455979095933799
 20
472.9786296310908824
 30
0.0
 40
0.0050585145431842
 50
310.3619379544961134
 51
322.7329294532208905
  0
ARC
  5
1A219
  8
0
 10
4579.8490109725025832
 20
472.9760763288772978
 30
0.0
 40
0.0007969789434184
 50
320.2344442805334097
 51
358.6186950635672019
  0
LINE
  5
1A21A
  8
0
 10
4580.5642775147507564
 20
472.4130618311768899
 30
0.0
 11
4580.5642775147507564
 21
471.9594063517110953
 31
0.0
  0
ARC
  5
1A21B
  8
0
 10
4579.833869199768742
 20
473.6153384680850991
 30
0.0
 40
0.0797627026222621
 50
139.1762600245187969
 51
150.8076980948981998
  0
ARC
  5
1A21C
  8
0
 10
4579.6479194916319102
 20
473.5573697369558772
 30
0.0
 40
0.052220058363472
 50
293.7384415130975981
 51
333.6473122235811957
  0
LINE
  5
1A21D
  8
0
 10
4566.9243554841550576
 20
468.7392437258156974
 30
0.0
 11
4567.3929500117283169
 21
467.4517908439880216
 31
0.0
  0
LINE
  5
1A21E
  8
0
 10
4566.6490727203899951
 20
473.7000297808157825
 30
0.0
 11
4580.0962940539147894
 21
473.7000297808157825
 31
0.0
  0
ARC
  5
1A21F
  8
0
 10
4578.0711147971251194
 20
459.0906088655884787
 30
0.0
 40
0.5102657118307552
 50
328.9011034336318744
 51
34.3098124395476702
  0
ENDSEC
  0
EOF
