  0
SECTION
  2
HEADER
  9
$ACADVER
  1
AC1009
  9
$INSBASE
 10
4507.3991576865528259
 20
487.966199188924918
 30
0.0
  9
$EXTMIN
 10
4495.3203164694050429
 20
483.9984141738268022
 30
-0.0000000000000058
  9
$EXTMAX
 10
4519.4560740339238691
 20
491.1179108750120008
 30
0.0000000000000104
  9
$LIMMIN
 10
0.0
 20
0.0
  9
$LIMMAX
 10
11.6929133858000007
 20
8.2677165353999982
  9
$ORTHOMODE
 70
     0
  9
$REGENMODE
 70
     1
  9
$FILLMODE
 70
     1
  9
$QTEXTMODE
 70
     0
  9
$MIRRTEXT
 70
     0
  9
$DRAGMODE
 70
     2
  9
$LTSCALE
 40
0.6431102362
  9
$OSMODE
 70
   695
  9
$ATTMODE
 70
     1
  9
$TEXTSIZE
 40
0.2
  9
$TRACEWID
 40
0.05
  9
$TEXTSTYLE
  7
STANDARD
  9
$CLAYER
  8
0
  9
$CELTYPE
  6
BYLAYER
  9
$CECOLOR
 62
   256
  9
$DIMSCALE
 40
1.0
  9
$DIMASZ
 40
0.1875
  9
$DIMEXO
 40
0.0625
  9
$DIMDLI
 40
0.4443307087
  9
$DIMRND
 40
0.0
  9
$DIMDLE
 40
0.0
  9
$DIMEXE
 40
0.125
  9
$DIMTP
 40
0.01
  9
$DIMTM
 40
0.01
  9
$DIMTXT
 40
2.0
  9
$DIMCEN
 40
0.1052362205
  9
$DIMTSZ
 40
0.0
  9
$DIMTOL
 70
     1
  9
$DIMLIM
 70
     0
  9
$DIMTIH
 70
     1
  9
$DIMTOH
 70
     1
  9
$DIMSE1
 70
     0
  9
$DIMSE2
 70
     0
  9
$DIMTAD
 70
     0
  9
$DIMZIN
 70
     0
  9
$DIMBLK
  1

  9
$DIMASO
 70
     1
  9
$DIMSHO
 70
     1
  9
$DIMPOST
  1
\X
  9
$DIMAPOST
  1

  9
$DIMALT
 70
     1
  9
$DIMALTD
 70
     2
  9
$DIMALTF
 40
25.3999999999999986
  9
$DIMLFAC
 40
1.0
  9
$DIMTOFL
 70
     0
  9
$DIMTVP
 40
0.0
  9
$DIMTIX
 70
     0
  9
$DIMSOXD
 70
     0
  9
$DIMSAH
 70
     0
  9
$DIMBLK1
  1

  9
$DIMBLK2
  1

  9
$DIMSTYLE
  2
STANDARD
  9
$DIMCLRD
 70
     0
  9
$DIMCLRE
 70
     0
  9
$DIMCLRT
 70
     0
  9
$DIMTFAC
 40
1.0
  9
$DIMGAP
 40
0.09
  9
$LUNITS
 70
     2
  9
$LUPREC
 70
     4
  9
$SKETCHINC
 40
0.1
  9
$FILLETRAD
 40
0.0
  9
$AUNITS
 70
     0
  9
$AUPREC
 70
     0
  9
$MENU
  1
.
  9
$ELEVATION
 40
0.0
  9
$PELEVATION
 40
0.0
  9
$THICKNESS
 40
0.0
  9
$LIMCHECK
 70
     0
  9
$BLIPMODE
 70
     0
  9
$CHAMFERA
 40
0.0
  9
$CHAMFERB
 40
0.0
  9
$SKPOLY
 70
     0
  9
$TDCREATE
 40
2458060.468368056230247
  9
$TDUPDATE
 40
2459355.7417708341963589
  9
$TDINDWG
 40
1.5339263889000001
  9
$TDUSRTIMER
 40
1.5339263889000001
  9
$USRTIMER
 70
     1
  9
$ANGBASE
 50
0.0
  9
$ANGDIR
 70
     0
  9
$PDMODE
 70
     0
  9
$PDSIZE
 40
0.3125
  9
$PLINEWID
 40
0.0
  9
$COORDS
 70
     1
  9
$SPLFRAME
 70
     0
  9
$SPLINETYPE
 70
     6
  9
$SPLINESEGS
 70
     8
  9
$ATTDIA
 70
     1
  9
$ATTREQ
 70
     1
  9
$HANDLING
 70
     1
  9
$HANDSEED
  5
19A7A
  9
$SURFTAB1
 70
     6
  9
$SURFTAB2
 70
     6
  9
$SURFTYPE
 70
     6
  9
$SURFU
 70
     6
  9
$SURFV
 70
     6
  9
$UCSNAME
  2

  9
$UCSORG
 10
0.0
 20
0.0
 30
0.0
  9
$UCSXDIR
 10
1.0
 20
0.0
 30
0.0
  9
$UCSYDIR
 10
0.0
 20
1.0
 30
0.0
  9
$PUCSNAME
  2

  9
$PUCSORG
 10
0.0
 20
0.0
 30
0.0
  9
$PUCSXDIR
 10
1.0
 20
0.0
 30
0.0
  9
$PUCSYDIR
 10
0.0
 20
1.0
 30
0.0
  9
$USERI1
 70
     0
  9
$USERI2
 70
     0
  9
$USERI3
 70
     0
  9
$USERI4
 70
     0
  9
$USERI5
 70
     0
  9
$USERR1
 40
0.0
  9
$USERR2
 40
0.0
  9
$USERR3
 40
0.0
  9
$USERR4
 40
0.0
  9
$USERR5
 40
0.0
  9
$WORLDVIEW
 70
     1
  9
$SHADEDGE
 70
     3
  9
$SHADEDIF
 70
    70
  9
$TILEMODE
 70
     1
  9
$MAXACTVP
 70
    64
  9
$PLIMCHECK
 70
     0
  9
$PEXTMIN
 10
1.0000000000000000E+20
 20
1.0000000000000000E+20
 30
1.0000000000000000E+20
  9
$PEXTMAX
 10
-1.0000000000000000E+20
 20
-1.0000000000000000E+20
 30
-1.0000000000000000E+20
  9
$PLIMMIN
 10
0.0
 20
0.0
  9
$PLIMMAX
 10
12.0
 20
9.0
  9
$UNITMODE
 70
     0
  9
$VISRETAIN
 70
     1
  9
$PLINEGEN
 70
     0
  9
$PSLTSCALE
 70
     1
  0
ENDSEC
  0
SECTION
  2
TABLES
  0
TABLE
  2
VPORT
 70
     1
  0
VPORT
  2
*ACTIVE
 70
     0
 10
0.0
 20
0.0
 11
1.0
 21
1.0
 12
596.0228388144059863
 22
354.9785574163814772
 13
0.0
 23
0.0
 14
1.0
 24
1.0
 15
0.0
 25
0.0
 16
0.0
 26
0.0
 36
60.4960186965801583
 17
3911.3653564453120453
 27
132.5796051025390057
 37
0.0
 40
12.2439227586716601
 41
2.374617737003057
 42
50.0
 43
0.0
 44
0.0
 50
0.0
 51
0.0
 71
     0
 72
   100
 73
     1
 74
     1
 75
     0
 76
     0
 77
     0
 78
     0
  0
ENDTAB
  0
TABLE
  2
LTYPE
 70
     2
  0
LTYPE
  2
CONTINUOUS
 70
     0
  3
Solid line
 72
    65
 73
     0
 40
0.0
  0
LTYPE
  2
PHANTOM2
 70
     0
  3
___ _ _ ___ _ _ ___ _ _ ___ _ _
 72
    65
 73
     6
 40
1.25
 49
0.625
 49
-0.125
 49
0.125
 49
-0.125
 49
0.125
 49
-0.125
  0
ENDTAB
  0
TABLE
  2
LAYER
 70
     2
  0
LAYER
  2
0
 70
     0
 62
   255
  6
CONTINUOUS
  0
LAYER
  2
DEFPOINTS
 70
     0
 62
     7
  6
CONTINUOUS
  0
ENDTAB
  0
TABLE
  2
STYLE
 70
     1
  0
STYLE
  2
STANDARD
 70
     0
 40
0.0
 41
0.8
 50
0.0
 71
     0
 42
0.2
  3
txt
  4

  0
ENDTAB
  0
TABLE
  2
VIEW
 70
     0
  0
ENDTAB
  0
TABLE
  2
UCS
 70
     0
  0
ENDTAB
  0
TABLE
  2
APPID
 70
    11
  0
APPID
  2
ACAD
 70
     0
  0
APPID
  2
ACAD_MLEADERVER
 70
     0
  0
APPID
  2
ACAD_EXEMPT_FROM_CAD_STANDARDS
 70
     0
  0
APPID
  2
ACAD_NAV_VCDISPLAY
 70
     0
  0
APPID
  2
ACAECLAYERSTANDARD
 70
     0
  0
APPID
  2
ACCMTRANSPARENCY
 70
     0
  0
APPID
  2
ACAD_DSTYLE_DIMJAG
 70
     0
  0
APPID
  2
ACAD_DSTYLE_DIMTALN
 70
     0
  0
APPID
  2
ACDBATTR
 70
     0
  0
APPID
  2
ACADANNOTATIVE
 70
     0
  0
APPID
  2
DCO15
 70
     0
  0
ENDTAB
  0
TABLE
  2
DIMSTYLE
 70
     1
  0
DIMSTYLE
  2
STANDARD
 70
     0
  3

  4

  5

  6

  7

 40
1.0
 41
0.1875
 42
0.0625
 43
0.38
 44
0.125
 45
0.0
 46
0.0
 47
0.01
 48
0.01
140
0.15625
141
0.09
142
0.0
143
25.3999999999999986
144
1.0
145
0.0
146
1.0
147
0.09
 71
     1
 72
     0
 73
     1
 74
     1
 75
     0
 76
     0
 77
     0
 78
     4
170
     0
171
     2
172
     0
173
     0
174
     0
175
     0
176
     0
177
     0
178
     0
  0
ENDTAB
  0
ENDSEC
  0
SECTION
  2
BLOCKS
  0
BLOCK
  8
0
  2
$MODEL_SPACE
 70
     0
 10
0.0
 20
0.0
 30
0.0
  3
$MODEL_SPACE
  1

  0
ENDBLK
  5
21
  8
0
  0
BLOCK
 67
     1
  8
0
  2
$PAPER_SPACE
 70
     0
 10
0.0
 20
0.0
 30
0.0
  3
$PAPER_SPACE
  1

  0
ENDBLK
  5
1D
 67
     1
  8
0
  0
ENDSEC
  0
SECTION
  2
ENTITIES
  0
ATTDEF
  5
19825
  8
DEFPOINTS
 10
4507.3992344639727889
 20
487.9650705671381274
 30
0.0
 40
0.001
  1
K-77761T-1
  3

  2
MODELNUMBER
 70
     0
1001
ACDBATTR
1070
     0
1070
     1
  0
ATTDEF
  5
19826
  8
DEFPOINTS
 10
4507.3992344226935529
 20
487.9634037370047963
 30
0.0
 40
0.001
  1
MODERN LIFE
  3

  2
TRADENAME
 70
     0
1001
ACDBATTR
1070
     0
1070
     1
  0
ATTDEF
  5
19827
  8
DEFPOINTS
 10
4507.3992344448697622
 20
487.9617372338047971
 30
0.0
 40
0.001
  1
BATHROOM SINK
  3

  2
PRODUCT
 70
     0
1001
ACDBATTR
1070
     0
1070
     1
  0
LINE
  5
19892
  8
0
 10
4495.6370189242043125
 20
490.8385656719249255
 30
0.0
 11
4496.1146308950992534
 21
488.1288668195987839
 31
0.0
  0
LINE
  5
19893
  8
0
 10
4506.0318923082040783
 20
484.1649073575248963
 30
0.0
 11
4505.8447457949041564
 21
485.2262679762249036
 31
0.0
  0
LINE
  5
19894
  8
0
 10
4506.2257534767040852
 20
484.0022396760248853
 30
0.0
 11
4508.5725618964042951
 21
484.0022396760248853
 31
0.0
  0
LINE
  5
19895
  8
0
 10
4505.5164137994042903
 20
485.3894040068249183
 30
0.0
 11
4505.6828895719409047
 21
485.3849474715354972
 31
0.0
  0
LINE
  5
19896
  8
0
 10
4496.3084561569039579
 20
487.966199188924918
 30
0.0
 11
4518.4898592162044224
 21
487.966199188924918
 31
0.0
  0
LINE
  5
19897
  8
0
 10
4495.8696506612350277
 20
491.1158054881249768
 30
0.0
 11
4518.9286647118733526
 21
491.1158054881249768
 31
0.0
  0
ARC
  5
19898
  8
0
 10
4495.8696506612659505
 20
490.8795850155930225
 30
0.0
 40
0.2362204725319721
 50
90.0000000074517601
 51
190.0000219411460023
  0
ARC
  5
19899
  8
0
 10
4506.2257521021128923
 20
484.1990900697304028
 30
0.0
 40
0.1968503937102571
 50
190.0000000019884112
 51
270.0004000918585234
  0
ARC
  5
1989A
  8
0
 10
4505.6531268208391339
 20
485.1927008552315783
 30
0.0
 40
0.1945368418409756
 50
9.9360515537139271
 51
81.1995917953761364
  0
ARC
  5
1989B
  8
0
 10
4508.8134827159610722
 20
600.9376293483248901
 30
0.0
 40
115.5952552789715071
 50
267.5229338987775236
 51
268.3655578553647274
  0
ARC
  5
1989C
  8
0
 10
4504.7105658217196833
 20
514.8432625500039421
 30
0.0
 40
29.4064401864247991
 50
264.23471630969118
 51
268.2597028090389131
  0
ARC
  5
1989D
  8
0
 10
4502.5431745540572592
 20
493.559678959765904
 30
0.0
 40
8.0128133227596514
 50
250.6912871347651901
 51
264.3664170123897179
  0
ARC
  5
1989E
  8
0
 10
4501.9744644887477989
 20
491.4833428723711108
 30
0.0
 40
5.8671348397526089
 50
231.3856168257669879
 51
249.2278932525481139
  0
ARC
  5
1989F
  8
0
 10
4501.6216932366241963
 20
491.0025595438675055
 30
0.0
 40
5.2713686294055107
 50
219.0708126967147109
 51
231.1203789278638965
  0
ARC
  5
198A0
  8
0
 10
4500.4978190991696465
 20
489.9331672408659983
 30
0.0
 40
3.7268058554666279
 50
213.6274692080936859
 51
217.1966124158658999
  0
ARC
  5
198A1
  8
0
 10
4497.2046541954950953
 20
487.7314436990740205
 30
0.0
 40
0.2347558513288186
 50
35.9597887244268719
 51
89.8994527141313142
  0
ARC
  5
198A2
  8
0
 10
4496.3092996575296638
 20
488.1640135093765025
 30
0.0
 40
0.1978161188301703
 50
190.2342792230311943
 51
269.7556863786255121
  0
LINE
  5
198A3
  8
0
 10
4519.1612964489040678
 20
490.8385656719249255
 30
0.0
 11
4518.6836844780100364
 21
488.1288668195987839
 31
0.0
  0
LINE
  5
198A4
  8
0
 10
4508.766423064904302
 20
484.1649073575248963
 30
0.0
 11
4508.9535695782042239
 21
485.2262679762249036
 31
0.0
  0
LINE
  5
198A5
  8
0
 10
4509.28190157370409
 20
485.3894040068249183
 30
0.0
 11
4509.1154258011683851
 21
485.3849476117308086
 31
0.0
  0
ARC
  5
198A6
  8
0
 10
4518.9286647118424298
 20
490.8795850155930225
 30
0.0
 40
0.2362204725319711
 50
349.9999780588540261
 51
89.9999999925482257
  0
ARC
  5
198A7
  8
0
 10
4508.572563270993669
 20
484.1990900697304028
 30
0.0
 40
0.1968503937102571
 50
269.9995999081414766
 51
349.9999999980115035
  0
ARC
  5
198A8
  8
0
 10
4509.1451888962010344
 20
485.1927006742668027
 30
0.0
 40
0.1945372118394212
 50
98.8004938366567842
 51
170.0639134258601928
  0
ARC
  5
198A9
  8
0
 10
4505.9848326571473081
 20
600.9376293483248901
 30
0.0
 40
115.5952552789715071
 50
271.6344421446352726
 51
272.4770661012224764
  0
ARC
  5
198AA
  8
0
 10
4510.0877495513877875
 20
514.8432625500039421
 30
0.0
 40
29.4064401864247991
 50
271.7402971909610869
 51
275.7652836903087064
  0
ARC
  5
198AB
  8
0
 10
4512.2551408190511211
 20
493.559678959765904
 30
0.0
 40
8.0128133227596514
 50
275.6335829876102252
 51
289.3087128652347246
  0
ARC
  5
198AC
  8
0
 10
4512.8238508843605814
 20
491.4833428723711108
 30
0.0
 40
5.8671348397526089
 50
290.7721067474520282
 51
308.6143831742330121
  0
ARC
  5
198AD
  8
0
 10
4513.176622136484184
 20
491.0025595438675055
 30
0.0
 40
5.2713686294055107
 50
308.8796210721361035
 51
320.9291873032852891
  0
ARC
  5
198AE
  8
0
 10
4514.3004962739378243
 20
489.9331672408659983
 30
0.0
 40
3.7268058554666279
 50
322.8033875841341001
 51
326.3725307919062857
  0
ARC
  5
198AF
  8
0
 10
4517.5936611776141945
 20
487.7314436990740205
 30
0.0
 40
0.2347558513288186
 50
90.1005472780000076
 51
144.0402112755731139
  0
ARC
  5
198B0
  8
0
 10
4518.4890157155768975
 20
488.1640135093765025
 30
0.0
 40
0.1978161188301703
 50
270.2443136213744879
 51
349.7657207769688057
  0
LINE
  5
198B1
  8
0
 10
4505.6828895719409047
 20
485.3849474715354972
 30
0.0
 11
4509.1154258011683851
 21
485.3849476117308086
 31
0.0
  0
ENDSEC
  0
EOF
