  0
SECTION
  2
HEADER
  9
$ACADVER
  1
AC1009
  9
$INSBASE
 10
4534.1007281500087629
 20
491.4520539239131836
 30
0.0
  9
$EXTMIN
 10
4522.1201544746563741
 20
483.6000327807482222
 30
-0.0000000000112498
  9
$EXTMAX
 10
4546.0584587514376835
 20
499.2961051543094868
 30
0.0000000000002956
  9
$LIMMIN
 10
0.0
 20
0.0
  9
$LIMMAX
 10
11.6929133858000007
 20
8.2677165353999982
  9
$ORTHOMODE
 70
     0
  9
$REGENMODE
 70
     1
  9
$FILLMODE
 70
     1
  9
$QTEXTMODE
 70
     0
  9
$MIRRTEXT
 70
     0
  9
$DRAGMODE
 70
     2
  9
$LTSCALE
 40
0.6431102362
  9
$OSMODE
 70
   695
  9
$ATTMODE
 70
     1
  9
$TEXTSIZE
 40
0.2
  9
$TRACEWID
 40
0.05
  9
$TEXTSTYLE
  7
STANDARD
  9
$CLAYER
  8
0
  9
$CELTYPE
  6
BYLAYER
  9
$CECOLOR
 62
   256
  9
$DIMSCALE
 40
1.0
  9
$DIMASZ
 40
0.1875
  9
$DIMEXO
 40
0.0625
  9
$DIMDLI
 40
0.4443307087
  9
$DIMRND
 40
0.0
  9
$DIMDLE
 40
0.0
  9
$DIMEXE
 40
0.125
  9
$DIMTP
 40
0.01
  9
$DIMTM
 40
0.01
  9
$DIMTXT
 40
2.0
  9
$DIMCEN
 40
0.1052362205
  9
$DIMTSZ
 40
0.0
  9
$DIMTOL
 70
     1
  9
$DIMLIM
 70
     0
  9
$DIMTIH
 70
     1
  9
$DIMTOH
 70
     1
  9
$DIMSE1
 70
     0
  9
$DIMSE2
 70
     0
  9
$DIMTAD
 70
     0
  9
$DIMZIN
 70
     0
  9
$DIMBLK
  1

  9
$DIMASO
 70
     1
  9
$DIMSHO
 70
     1
  9
$DIMPOST
  1
\X
  9
$DIMAPOST
  1

  9
$DIMALT
 70
     1
  9
$DIMALTD
 70
     2
  9
$DIMALTF
 40
25.3999999999999986
  9
$DIMLFAC
 40
1.0
  9
$DIMTOFL
 70
     0
  9
$DIMTVP
 40
0.0
  9
$DIMTIX
 70
     0
  9
$DIMSOXD
 70
     0
  9
$DIMSAH
 70
     0
  9
$DIMBLK1
  1

  9
$DIMBLK2
  1

  9
$DIMSTYLE
  2
STANDARD
  9
$DIMCLRD
 70
     0
  9
$DIMCLRE
 70
     0
  9
$DIMCLRT
 70
     0
  9
$DIMTFAC
 40
1.0
  9
$DIMGAP
 40
0.09
  9
$LUNITS
 70
     2
  9
$LUPREC
 70
     4
  9
$SKETCHINC
 40
0.1
  9
$FILLETRAD
 40
0.0
  9
$AUNITS
 70
     0
  9
$AUPREC
 70
     0
  9
$MENU
  1
.
  9
$ELEVATION
 40
0.0
  9
$PELEVATION
 40
0.0
  9
$THICKNESS
 40
0.0
  9
$LIMCHECK
 70
     0
  9
$BLIPMODE
 70
     0
  9
$CHAMFERA
 40
0.0
  9
$CHAMFERB
 40
0.0
  9
$SKPOLY
 70
     0
  9
$TDCREATE
 40
2458060.468368056230247
  9
$TDUPDATE
 40
2459304.5688888891600072
  9
$TDINDWG
 40
1.5369240741000001
  9
$TDUSRTIMER
 40
1.5369240741000001
  9
$USRTIMER
 70
     1
  9
$ANGBASE
 50
0.0
  9
$ANGDIR
 70
     0
  9
$PDMODE
 70
     0
  9
$PDSIZE
 40
0.3125
  9
$PLINEWID
 40
0.0
  9
$COORDS
 70
     1
  9
$SPLFRAME
 70
     0
  9
$SPLINETYPE
 70
     6
  9
$SPLINESEGS
 70
     8
  9
$ATTDIA
 70
     1
  9
$ATTREQ
 70
     1
  9
$HANDLING
 70
     1
  9
$HANDSEED
  5
19CED
  9
$SURFTAB1
 70
     6
  9
$SURFTAB2
 70
     6
  9
$SURFTYPE
 70
     6
  9
$SURFU
 70
     6
  9
$SURFV
 70
     6
  9
$UCSNAME
  2

  9
$UCSORG
 10
0.0
 20
0.0
 30
0.0
  9
$UCSXDIR
 10
1.0
 20
0.0
 30
0.0
  9
$UCSYDIR
 10
0.0
 20
1.0
 30
0.0
  9
$PUCSNAME
  2

  9
$PUCSORG
 10
0.0
 20
0.0
 30
0.0
  9
$PUCSXDIR
 10
1.0
 20
0.0
 30
0.0
  9
$PUCSYDIR
 10
0.0
 20
1.0
 30
0.0
  9
$USERI1
 70
     0
  9
$USERI2
 70
     0
  9
$USERI3
 70
     0
  9
$USERI4
 70
     0
  9
$USERI5
 70
     0
  9
$USERR1
 40
0.0
  9
$USERR2
 40
0.0
  9
$USERR3
 40
0.0
  9
$USERR4
 40
0.0
  9
$USERR5
 40
0.0
  9
$WORLDVIEW
 70
     1
  9
$SHADEDGE
 70
     3
  9
$SHADEDIF
 70
    70
  9
$TILEMODE
 70
     1
  9
$MAXACTVP
 70
    64
  9
$PLIMCHECK
 70
     0
  9
$PEXTMIN
 10
1.0000000000000000E+20
 20
1.0000000000000000E+20
 30
1.0000000000000000E+20
  9
$PEXTMAX
 10
-1.0000000000000000E+20
 20
-1.0000000000000000E+20
 30
-1.0000000000000000E+20
  9
$PLIMMIN
 10
0.0
 20
0.0
  9
$PLIMMAX
 10
12.0
 20
9.0
  9
$UNITMODE
 70
     0
  9
$VISRETAIN
 70
     1
  9
$PLINEGEN
 70
     0
  9
$PSLTSCALE
 70
     1
  0
ENDSEC
  0
SECTION
  2
TABLES
  0
TABLE
  2
VPORT
 70
     1
  0
VPORT
  2
*ACTIVE
 70
     0
 10
0.0
 20
0.0
 11
1.0
 21
1.0
 12
622.7239501230963015
 22
358.8684638494228807
 13
0.0
 23
0.0
 14
1.0
 24
1.0
 15
0.0
 25
0.0
 16
0.0
 26
0.0
 36
60.4960186965801583
 17
3911.3653564453120453
 27
132.5796051025390057
 37
0.0
 40
20.1247680043461408
 41
2.5079872204472839
 42
50.0
 43
0.0
 44
0.0
 50
0.0
 51
0.0
 71
     0
 72
   100
 73
     1
 74
     1
 75
     0
 76
     0
 77
     0
 78
     0
  0
ENDTAB
  0
TABLE
  2
LTYPE
 70
     2
  0
LTYPE
  2
CONTINUOUS
 70
     0
  3
Solid line
 72
    65
 73
     0
 40
0.0
  0
LTYPE
  2
PHANTOM2
 70
     0
  3
___ _ _ ___ _ _ ___ _ _ ___ _ _
 72
    65
 73
     6
 40
1.25
 49
0.625
 49
-0.125
 49
0.125
 49
-0.125
 49
0.125
 49
-0.125
  0
ENDTAB
  0
TABLE
  2
LAYER
 70
     2
  0
LAYER
  2
0
 70
     0
 62
   255
  6
CONTINUOUS
  0
LAYER
  2
DEFPOINTS
 70
     0
 62
     7
  6
CONTINUOUS
  0
ENDTAB
  0
TABLE
  2
STYLE
 70
     1
  0
STYLE
  2
STANDARD
 70
     0
 40
0.0
 41
0.8
 50
0.0
 71
     0
 42
0.2
  3
txt
  4

  0
ENDTAB
  0
TABLE
  2
VIEW
 70
     0
  0
ENDTAB
  0
TABLE
  2
UCS
 70
     0
  0
ENDTAB
  0
TABLE
  2
APPID
 70
    11
  0
APPID
  2
ACAD
 70
     0
  0
APPID
  2
ACAD_MLEADERVER
 70
     0
  0
APPID
  2
ACAD_EXEMPT_FROM_CAD_STANDARDS
 70
     0
  0
APPID
  2
ACAD_NAV_VCDISPLAY
 70
     0
  0
APPID
  2
ACAECLAYERSTANDARD
 70
     0
  0
APPID
  2
ACCMTRANSPARENCY
 70
     0
  0
APPID
  2
ACAD_DSTYLE_DIMJAG
 70
     0
  0
APPID
  2
ACAD_DSTYLE_DIMTALN
 70
     0
  0
APPID
  2
ACDBATTR
 70
     0
  0
APPID
  2
ACADANNOTATIVE
 70
     0
  0
APPID
  2
DCO15
 70
     0
  0
ENDTAB
  0
TABLE
  2
DIMSTYLE
 70
     1
  0
DIMSTYLE
  2
STANDARD
 70
     0
  3

  4

  5

  6

  7

 40
1.0
 41
0.1875
 42
0.0625
 43
0.38
 44
0.125
 45
0.0
 46
0.0
 47
0.01
 48
0.01
140
0.15625
141
0.09
142
0.0
143
25.3999999999999986
144
1.0
145
0.0
146
1.0
147
0.09
 71
     1
 72
     0
 73
     1
 74
     1
 75
     0
 76
     0
 77
     0
 78
     4
170
     0
171
     2
172
     0
173
     0
174
     0
175
     0
176
     0
177
     0
178
     0
  0
ENDTAB
  0
ENDSEC
  0
SECTION
  2
BLOCKS
  0
BLOCK
  8
0
  2
$MODEL_SPACE
 70
     0
 10
0.0
 20
0.0
 30
0.0
  3
$MODEL_SPACE
  1

  0
ENDBLK
  5
21
  8
0
  0
BLOCK
 67
     1
  8
0
  2
$PAPER_SPACE
 70
     0
 10
0.0
 20
0.0
 30
0.0
  3
$PAPER_SPACE
  1

  0
ENDBLK
  5
1D
 67
     1
  8
0
  0
ENDSEC
  0
SECTION
  2
ENTITIES
  0
ARC
  5
19B6E
  8
0
 10
4534.1007281365418748
 20
491.4520538998709753
 30
0.0
 40
1.2500000240423941
 50
31.3101826883476413
 51
148.6897525836488967
  0
ARC
  5
19B6F
  8
0
 10
4534.1007281500578756
 20
491.4520539239131836
 30
0.0
 40
1.25
 50
211.3106397439865987
 51
328.6893995818883809
  0
CIRCLE
  5
19B70
  8
0
 10
4534.1007281500578756
 20
491.4520539239131836
 30
0.0
 40
0.8858267717
  0
ARC
  5
19B71
  8
0
 10
4533.447687828922426
 20
835.8539459748591298
 30
0.0
 40
352.0100316912008793
 50
269.4215753956074195
 51
269.9435262444412729
  0
ARC
  5
19B72
  8
0
 10
4530.3906851954443482
 20
524.3999897975676276
 30
0.0
 40
40.5411795981690588
 50
266.2595667802252137
 51
269.2981169301953059
  0
ARC
  5
19B73
  8
0
 10
4528.1811001472551652
 20
494.5824714851850104
 30
0.0
 40
10.6461997296264794
 50
255.2125793066934989
 51
267.6572920555449855
  0
ARC
  5
19B74
  8
0
 10
4526.6130364819673559
 20
488.7058118521848087
 30
0.0
 40
4.5639847304681691
 50
238.1849945198628973
 51
255.4160558971856005
  0
ARC
  5
19B75
  8
0
 10
4525.831153486524272
 20
487.3713440117830942
 30
0.0
 40
3.018075880072792
 50
206.9605767180680118
 51
237.4428079690960942
  0
ARC
  5
19B76
  8
0
 10
4527.6367414517499128
 20
488.1557404783173979
 30
0.0
 40
4.9844895911563638
 50
186.3367717899452884
 51
205.5872126368500119
  0
ARC
  5
19B77
  8
0
 10
4541.9587773191369706
 20
489.8279773272344073
 30
0.0
 40
19.4037611049497514
 50
179.397518658990208
 51
186.5767344350936128
  0
ARC
  5
19B78
  8
0
 10
4656.957781125422116
 20
491.333187999180609
 30
0.0
 40
134.4079905515498865
 50
178.9285824104217966
 51
180.5546782927669085
  0
ARC
  5
19B79
  8
0
 10
4536.6562287076767461
 20
493.5043238370068934
 30
0.0
 40
14.0870937211612794
 50
172.2416481846321972
 51
178.6083928928653961
  0
ARC
  5
19B7A
  8
0
 10
4527.2045853095505663
 20
494.8761520685499136
 30
0.0
 40
4.5375434993830357
 50
151.6161956805252089
 51
173.2940807735672024
  0
ARC
  5
19B7B
  8
0
 10
4525.8917735656978039
 20
495.4835678608956755
 30
0.0
 40
3.0951030919050022
 50
114.1018884523497974
 51
149.9557457681119104
  0
ARC
  5
19B7C
  8
0
 10
4527.4681814462546754
 20
491.8277656916887963
 30
0.0
 40
7.0761431810536051
 50
96.2819847149469865
 51
113.6653925073232045
  0
ARC
  5
19B7D
  8
0
 10
4529.8703613916777613
 20
470.1195881247700754
 30
0.0
 40
28.916825498457051
 50
90.8962585240478802
 51
96.3065707952176382
  0
ARC
  5
19B7E
  8
0
 10
4533.0851439377584029
 20
253.3401395899726936
 30
0.0
 40
245.7201014622561104
 50
89.996366151658151
 51
90.8551077638129101
  0
ARC
  5
19B7F
  8
0
 10
4533.381578335019185
 20
683.085593067388686
 30
0.0
 40
199.4536544082679086
 50
268.8216645126781827
 51
269.9193219273251998
  0
ARC
  5
19B80
  8
0
 10
4530.0995883624045746
 20
515.5968102427561917
 30
0.0
 40
31.9332142691244307
 50
264.3986716666018992
 51
268.5291885709331154
  0
ARC
  5
19B81
  8
0
 10
4528.01316194062656
 20
494.1888104241036785
 30
0.0
 40
10.42379524033678
 50
254.5235194642037015
 51
264.3267502495323811
  0
ARC
  5
19B82
  8
0
 10
4526.567983175072186
 20
488.7442427658431825
 30
0.0
 40
4.7913882098110978
 50
240.0596592697150982
 51
253.8052156434399933
  0
ARC
  5
19B83
  8
0
 10
4525.7751885875350126
 20
487.3284823162989028
 30
0.0
 40
3.1689457810775181
 50
212.1583998529501116
 51
239.7050905823556946
  0
ARC
  5
19B84
  8
0
 10
4526.7693255054045949
 20
487.8443094003920919
 30
0.0
 40
4.2861143044862988
 50
190.9600054434388028
 51
210.9224239083766008
  0
ARC
  5
19B85
  8
0
 10
4532.9936693675817878
 20
489.0678070946264029
 30
0.0
 40
10.6295578148140404
 50
181.8848107721723011
 51
191.0558747814791047
  0
ARC
  5
19B86
  8
0
 10
4602.7461981443166223
 20
491.2215834308819922
 30
0.0
 40
80.415311190524406
 50
179.4086771119428931
 51
181.7839458836579922
  0
ARC
  5
19B87
  8
0
 10
4576.6939041329833344
 20
492.2943460403886888
 30
0.0
 40
54.3592770269196492
 50
178.1840099433132139
 51
180.2559682003042951
  0
ARC
  5
19B88
  8
0
 10
4535.6622107285766106
 20
493.5964255277522739
 30
0.0
 40
13.3069291125420293
 50
171.6148463224342038
 51
178.1889335228858045
  0
ARC
  5
19B89
  8
0
 10
4527.7528315026620476
 20
494.7480744276331279
 30
0.0
 40
5.314177403926073
 50
157.1779059449976046
 51
171.4632490581319928
  0
ARC
  5
19B8A
  8
0
 10
4525.8197227887330882
 20
495.536709997211176
 30
0.0
 40
3.226597082675466
 50
131.9441323592187985
 51
156.7712466987628943
  0
ARC
  5
19B8B
  8
0
 10
4526.1357956580195605
 20
495.0958941513677019
 30
0.0
 40
3.7662102677964802
 50
107.6874075913805058
 51
131.0381570972930092
  0
ARC
  5
19B8C
  8
0
 10
4527.6429636983266391
 20
490.567751916480006
 30
0.0
 40
8.5384247353983298
 50
96.6903304165886937
 51
108.0911373972929965
  0
ARC
  5
19B8D
  8
0
 10
4529.586427323954922
 20
474.7178047627381829
 30
0.0
 40
24.5070012867165694
 50
92.1534615241526183
 51
96.8859246596521189
  0
ARC
  5
19B8E
  8
0
 10
4531.5645761419709743
 20
426.6254186365691794
 30
0.0
 40
72.639952253813945
 50
90.2179945921573818
 51
92.2872559624308764
  0
ARC
  5
19B8F
  8
0
 10
4533.7759270708229451
 20
64.0195122838380826
 30
0.0
 40
435.2524423107178109
 50
90.0888818999256671
 51
90.3274810570143387
  0
ARC
  5
19B90
  8
0
 10
4534.1099442718959835
 20
491.4520539779301771
 30
0.0
 40
1.2578830532525549
 50
148.9079087845672973
 51
211.0924865470443876
  0
ARC
  5
19B91
  8
0
 10
4534.0915120781010046
 20
491.4520539575387943
 30
0.0
 40
1.2578830032750441
 50
328.9075521542073943
 51
31.0920294981174692
  0
ARC
  5
19B92
  8
0
 10
4534.0877770408969809
 20
498.7994415253331795
 30
0.0
 40
1.028463757147118
 50
253.7639252328835937
 51
270.7215261597593781
  0
ARC
  5
19B93
  8
0
 10
4533.8718569854981979
 20
498.0880503572345788
 30
0.0
 40
0.2851980257370854
 50
227.7042710855230041
 51
255.4530818051609913
  0
ARC
  5
19B94
  8
0
 10
4534.0952130827608926
 20
496.9819201456792825
 30
0.0
 40
1.0922936894028601
 50
89.710708372049254
 51
101.9891877310191006
  0
ARC
  5
19B95
  8
0
 10
4533.9965838833995804
 20
497.4406197730460235
 30
0.0
 40
0.6231129455815032
 50
101.8794499236156952
 51
112.2454226743074059
  0
ARC
  5
19B96
  8
0
 10
4533.8331509038553122
 20
497.8136996624435824
 30
0.0
 40
0.2161623566281771
 50
109.5858761521700018
 51
136.0374352307055972
  0
ARC
  5
19B97
  8
0
 10
4533.7294686481418466
 20
497.9162183667770023
 30
0.0
 40
0.0703887270646217
 50
137.51686278029959
 51
168.1717704235790904
  0
ARC
  5
19B98
  8
0
 10
4533.725761442631665
 20
497.9246477250777048
 30
0.0
 40
0.0660433910067221
 50
182.5464640554959885
 51
226.0566831886578996
  0
ARC
  5
19B99
  8
0
 10
4533.710976528410356
 20
497.9216805698839039
 30
0.0
 40
0.0511932708078716
 50
169.9132287094473099
 51
179.9632039641869881
  0
ARC
  5
19B9A
  8
0
 10
4534.7537684710969188
 20
835.8539459748591298
 30
0.0
 40
352.0100316912008793
 50
270.0564737555587271
 51
270.5784246043925805
  0
ARC
  5
19B9B
  8
0
 10
4537.8107711045740871
 20
524.3999897975676276
 30
0.0
 40
40.5411795981690588
 50
270.7018830698046941
 51
273.7404332197749
  0
ARC
  5
19B9C
  8
0
 10
4540.0203561527632701
 20
494.5824714851850104
 30
0.0
 40
10.6461997296264794
 50
272.3427079444550145
 51
284.7874206933065011
  0
ARC
  5
19B9D
  8
0
 10
4541.5884198180501699
 20
488.7058118521848087
 30
0.0
 40
4.5639847304681691
 50
284.5839441028143142
 51
301.815005480137188
  0
ARC
  5
19B9E
  8
0
 10
4542.3703028134932538
 20
487.3713440117830942
 30
0.0
 40
3.018075880072792
 50
302.5571920309038205
 51
333.0394232819318745
  0
ARC
  5
19B9F
  8
0
 10
4540.564714848265794
 20
488.1557404783172842
 30
0.0
 40
4.9844895911563638
 50
334.4127873631500165
 51
353.6632282100546831
  0
ARC
  5
19BA0
  8
0
 10
4526.2426789808805552
 20
489.8279773272344073
 30
0.0
 40
19.4037611049497514
 50
353.4232655649063872
 51
0.6024813410098023
  0
ARC
  5
19BA1
  8
0
 10
4411.2436751745963193
 20
491.3331879991807227
 30
0.0
 40
134.4079905515498865
 50
359.4453217072331199
 51
1.0714175895781419
  0
ARC
  5
19BA2
  8
0
 10
4531.5452275923398702
 20
493.5043238370068934
 30
0.0
 40
14.0870937211612794
 50
1.3916071071313241
 51
7.7583518153677566
  0
ARC
  5
19BA3
  8
0
 10
4540.9968709904669595
 20
494.8761520685499136
 30
0.0
 40
4.5375434993830357
 50
6.7059192264327834
 51
28.3838043194747911
  0
ARC
  5
19BA4
  8
0
 10
4542.3096827343206314
 20
495.4835678608956755
 30
0.0
 40
3.0951030919050022
 50
30.0442542318880612
 51
65.8981115476501316
  0
ARC
  5
19BA5
  8
0
 10
4540.7332748537637599
 20
491.8277656916887963
 30
0.0
 40
7.0761431810536051
 50
66.3346074926768097
 51
83.7180152850530419
  0
ARC
  5
19BA6
  8
0
 10
4538.331094908340674
 20
470.1195881247700754
 30
0.0
 40
28.916825498457051
 50
83.693429204782376
 51
89.1037414759521056
  0
ARC
  5
19BA7
  8
0
 10
4535.1289744757668814
 20
254.4729161684091139
 30
0.0
 40
244.5872621071079038
 50
89.1438978867324465
 51
90.0066168419685937
  0
ARC
  5
19BA8
  8
0
 10
4535.2683694425541034
 20
643.1825823228057288
 30
0.0
 40
159.5502930738240934
 50
269.9397986619226799
 51
271.3119899192266189
  0
ARC
  5
19BA9
  8
0
 10
4538.1018679376129512
 20
515.5968102427561917
 30
0.0
 40
31.9332142691244307
 50
271.4708114290668846
 51
275.6013283333981008
  0
ARC
  5
19BAA
  8
0
 10
4540.1882943593909658
 20
494.1888104241036785
 30
0.0
 40
10.42379524033678
 50
275.6732497504676189
 51
285.4764805357963269
  0
ARC
  5
19BAB
  8
0
 10
4541.6334731249453398
 20
488.7442427658431825
 30
0.0
 40
4.7913882098110978
 50
286.194784356560092
 51
299.9403407302847882
  0
ARC
  5
19BAC
  8
0
 10
4542.4262677124843322
 20
487.3284823162989028
 30
0.0
 40
3.1689457810775181
 50
300.2949094176443054
 51
327.8416001470499737
  0
ARC
  5
19BAD
  8
0
 10
4541.4321307946129309
 20
487.8443094003920919
 30
0.0
 40
4.2861143044862988
 50
329.0775760916234276
 51
349.0399945565612256
  0
ARC
  5
19BAE
  8
0
 10
4535.2077869324366475
 20
489.0678070946264029
 30
0.0
 40
10.6295578148140404
 50
348.94412521852081
 51
358.1151892278276136
  0
ARC
  5
19BAF
  8
0
 10
4465.4552581557009034
 20
491.2215834308821059
 30
0.0
 40
80.415311190524406
 50
358.2160541163419794
 51
0.5913228880570529
  0
ARC
  5
19BB0
  8
0
 10
4491.5075521670351009
 20
492.2943460403886888
 30
0.0
 40
54.3592770269196492
 50
359.7440317996956765
 51
1.8159900566834759
  0
ARC
  5
19BB1
  8
0
 10
4532.5392455714418247
 20
493.5964255277522739
 30
0.0
 40
13.3069291125420293
 50
1.811066477114196
 51
8.385153677565782
  0
ARC
  5
19BB2
  8
0
 10
4540.4486247973545687
 20
494.7480744276331279
 30
0.0
 40
5.314177403926073
 50
8.5367509418679912
 51
22.8220940550023705
  0
ARC
  5
19BB3
  8
0
 10
4542.381733511285347
 20
495.536709997211176
 30
0.0
 40
3.226597082675466
 50
23.2287533012370311
 51
48.0558676407811589
  0
ARC
  5
19BB4
  8
0
 10
4542.0656606419979653
 20
495.0958941513677019
 30
0.0
 40
3.7662102677964802
 50
48.9618429027069624
 51
72.3125924086194658
  0
ARC
  5
19BB5
  8
0
 10
4540.5584926016890677
 20
490.567751916480006
 30
0.0
 40
8.5384247353983298
 50
71.9088626027069751
 51
83.3096695834112921
  0
ARC
  5
19BB6
  8
0
 10
4538.6150289760626038
 20
474.7178047627381829
 30
0.0
 40
24.5070012867165694
 50
83.1140753403478811
 51
87.8465384758473675
  0
ARC
  5
19BB7
  8
0
 10
4536.636880158045642
 20
426.6254186365691794
 30
0.0
 40
72.639952253813945
 50
87.7127440375690952
 51
89.7820054078426182
  0
ARC
  5
19BB8
  8
0
 10
4534.4255292292291415
 20
64.0195122895176496
 30
0.0
 40
435.252442305038187
 50
89.6725189429856613
 51
89.9111181001264441
  0
ARC
  5
19BB9
  8
0
 10
4534.1136792591196354
 20
498.7994415253331795
 30
0.0
 40
1.028463757147118
 50
269.2784738402405083
 51
286.2360747671164063
  0
ARC
  5
19BBA
  8
0
 10
4534.3295993145202374
 20
498.0880503572345788
 30
0.0
 40
0.2851980257370854
 50
284.5469181948390087
 51
312.2957289144769106
  0
ARC
  5
19BBB
  8
0
 10
4534.1062432172566332
 20
496.9819201456792825
 30
0.0
 40
1.0922936894028601
 50
78.0108122689808567
 51
90.2892916279507745
  0
ARC
  5
19BBC
  8
0
 10
4534.2048724166179454
 20
497.4406197730460235
 30
0.0
 40
0.6231129455815032
 50
67.7545773256926083
 51
78.1205500763842764
  0
ARC
  5
19BBD
  8
0
 10
4534.3683053961631231
 20
497.8136996624435824
 30
0.0
 40
0.2161623566281771
 50
43.9625647692943673
 51
70.414123847829984
  0
ARC
  5
19BBE
  8
0
 10
4534.4719876518756791
 20
497.9162183667770023
 30
0.0
 40
0.0703887270646217
 50
11.8282295764208598
 51
42.4831372197004171
  0
ARC
  5
19BBF
  8
0
 10
4534.4756948573867703
 20
497.9246477250777048
 30
0.0
 40
0.0660433910067221
 50
313.943316811342072
 51
357.453535944503983
  0
ARC
  5
19BC0
  8
0
 10
4534.4904797716080793
 20
497.9216805698839039
 30
0.0
 40
0.0511932708078716
 50
0.0367960358129439
 51
10.0867712905526599
  0
ARC
  5
19BC1
  8
0
 10
4534.1007281500087629
 20
-425.6713597846265884
 30
0.0
 40
924.9433312409951213
 50
89.9380548097081771
 51
90.0619451902918087
  0
ARC
  5
19BC2
  8
0
 10
4534.1084609266381449
 20
741.036376715339884
 30
0.0
 40
241.9782345480037122
 50
269.7613876223720126
 51
270.2349504016003152
  0
ARC
  5
19BC3
  8
0
 10
4534.1007281500087629
 20
1058.8735146222009007
 30
0.0
 40
575.0302988676656923
 50
269.9003603662192177
 51
270.0996396337807255
  0
ARC
  5
19BC4
  8
0
 10
4533.6007281354977749
 20
4634.2349916885677885
 30
0.0
 40
4150.6028854132191555
 50
269.9930978966941097
 51
270.0207063102661778
  0
ATTDEF
  5
19BC6
  8
DEFPOINTS
 10
4534.1008927586572099
 20
491.4510011058939085
 30
0.0
 40
0.001
  1
K-77762T
  3

  2
MODELNUMBER
 70
     0
1001
ACDBATTR
1070
     0
1070
     1
  0
ATTDEF
  5
19BC7
  8
DEFPOINTS
 10
4534.1007669490008993
 20
491.4493342655147217
 30
0.0
 40
0.001
  1
MODERN LIFE
  3

  2
TRADENAME
 70
     0
1001
ACDBATTR
1070
     0
1070
     1
  0
ATTDEF
  5
19BC8
  8
DEFPOINTS
 10
4534.1008927586572099
 20
491.4476677725605214
 30
0.0
 40
0.001
  1
BATHROOM SINK
  3

  2
PRODUCT
 70
     0
1001
ACDBATTR
1070
     0
1070
     1
  0
ENDSEC
  0
EOF
