  0
SECTION
  2
HEADER
  9
$ACADVER
  1
AC1009
  9
$INSBASE
 10
5193.0115793464037779
 20
595.9265807029538564
 30
0.0
  9
$EXTMIN
 10
5182.0089348677811358
 20
578.1565036988092743
 30
-0.0000000349181948
  9
$EXTMAX
 10
5204.1026735889572592
 20
595.9380776841029501
 30
0.0000000814935746
  9
$LIMMIN
 10
0.0
 20
0.0
  9
$LIMMAX
 10
11.6929133858000007
 20
8.2677165353999982
  9
$ORTHOMODE
 70
     0
  9
$REGENMODE
 70
     1
  9
$FILLMODE
 70
     1
  9
$QTEXTMODE
 70
     0
  9
$MIRRTEXT
 70
     0
  9
$DRAGMODE
 70
     2
  9
$LTSCALE
 40
0.6431102362
  9
$OSMODE
 70
  4095
  9
$ATTMODE
 70
     1
  9
$TEXTSIZE
 40
0.2
  9
$TRACEWID
 40
0.05
  9
$TEXTSTYLE
  7
STANDARD
  9
$CLAYER
  8
0
  9
$CELTYPE
  6
BYLAYER
  9
$CECOLOR
 62
   256
  9
$DIMSCALE
 40
1.0
  9
$DIMASZ
 40
0.1875
  9
$DIMEXO
 40
0.0625
  9
$DIMDLI
 40
0.4443307087
  9
$DIMRND
 40
0.0
  9
$DIMDLE
 40
0.0
  9
$DIMEXE
 40
0.125
  9
$DIMTP
 40
0.01
  9
$DIMTM
 40
0.01
  9
$DIMTXT
 40
2.0
  9
$DIMCEN
 40
0.1052362205
  9
$DIMTSZ
 40
0.0
  9
$DIMTOL
 70
     1
  9
$DIMLIM
 70
     0
  9
$DIMTIH
 70
     1
  9
$DIMTOH
 70
     1
  9
$DIMSE1
 70
     0
  9
$DIMSE2
 70
     0
  9
$DIMTAD
 70
     0
  9
$DIMZIN
 70
     0
  9
$DIMBLK
  1

  9
$DIMASO
 70
     1
  9
$DIMSHO
 70
     1
  9
$DIMPOST
  1
\X
  9
$DIMAPOST
  1

  9
$DIMALT
 70
     1
  9
$DIMALTD
 70
     2
  9
$DIMALTF
 40
25.3999999999999986
  9
$DIMLFAC
 40
1.0
  9
$DIMTOFL
 70
     0
  9
$DIMTVP
 40
0.0
  9
$DIMTIX
 70
     0
  9
$DIMSOXD
 70
     0
  9
$DIMSAH
 70
     0
  9
$DIMBLK1
  1

  9
$DIMBLK2
  1

  9
$DIMSTYLE
  2
STANDARD
  9
$DIMCLRD
 70
     0
  9
$DIMCLRE
 70
     0
  9
$DIMCLRT
 70
     0
  9
$DIMTFAC
 40
1.0
  9
$DIMGAP
 40
0.09
  9
$LUNITS
 70
     2
  9
$LUPREC
 70
     4
  9
$SKETCHINC
 40
0.1
  9
$FILLETRAD
 40
0.0
  9
$AUNITS
 70
     0
  9
$AUPREC
 70
     0
  9
$MENU
  1
.
  9
$ELEVATION
 40
0.0
  9
$PELEVATION
 40
0.0
  9
$THICKNESS
 40
0.0
  9
$LIMCHECK
 70
     0
  9
$BLIPMODE
 70
     0
  9
$CHAMFERA
 40
0.0
  9
$CHAMFERB
 40
0.0
  9
$SKPOLY
 70
     0
  9
$TDCREATE
 40
2458060.468368056230247
  9
$TDUPDATE
 40
2459548.9401851850561798
  9
$TDINDWG
 40
1.6915941434999999
  9
$TDUSRTIMER
 40
1.6915941434999999
  9
$USRTIMER
 70
     1
  9
$ANGBASE
 50
0.0
  9
$ANGDIR
 70
     0
  9
$PDMODE
 70
     0
  9
$PDSIZE
 40
0.3125
  9
$PLINEWID
 40
0.0
  9
$COORDS
 70
     1
  9
$SPLFRAME
 70
     0
  9
$SPLINETYPE
 70
     6
  9
$SPLINESEGS
 70
     8
  9
$ATTDIA
 70
     1
  9
$ATTREQ
 70
     1
  9
$HANDLING
 70
     1
  9
$HANDSEED
  5
1F27A
  9
$SURFTAB1
 70
     6
  9
$SURFTAB2
 70
     6
  9
$SURFTYPE
 70
     6
  9
$SURFU
 70
     6
  9
$SURFV
 70
     6
  9
$UCSNAME
  2

  9
$UCSORG
 10
0.0
 20
0.0
 30
0.0
  9
$UCSXDIR
 10
1.0
 20
0.0
 30
0.0
  9
$UCSYDIR
 10
0.0
 20
1.0
 30
0.0
  9
$PUCSNAME
  2

  9
$PUCSORG
 10
0.0
 20
0.0
 30
0.0
  9
$PUCSXDIR
 10
1.0
 20
0.0
 30
0.0
  9
$PUCSYDIR
 10
0.0
 20
1.0
 30
0.0
  9
$USERI1
 70
     0
  9
$USERI2
 70
     0
  9
$USERI3
 70
     0
  9
$USERI4
 70
     0
  9
$USERI5
 70
     0
  9
$USERR1
 40
0.0
  9
$USERR2
 40
0.0
  9
$USERR3
 40
0.0
  9
$USERR4
 40
0.0
  9
$USERR5
 40
0.0
  9
$WORLDVIEW
 70
     1
  9
$SHADEDGE
 70
     3
  9
$SHADEDIF
 70
    70
  9
$TILEMODE
 70
     1
  9
$MAXACTVP
 70
    64
  9
$PLIMCHECK
 70
     0
  9
$PEXTMIN
 10
1.0000000000000000E+20
 20
1.0000000000000000E+20
 30
1.0000000000000000E+20
  9
$PEXTMAX
 10
-1.0000000000000000E+20
 20
-1.0000000000000000E+20
 30
-1.0000000000000000E+20
  9
$PLIMMIN
 10
0.0
 20
0.0
  9
$PLIMMAX
 10
12.0
 20
9.0
  9
$UNITMODE
 70
     0
  9
$VISRETAIN
 70
     1
  9
$PLINEGEN
 70
     0
  9
$PSLTSCALE
 70
     1
  0
ENDSEC
  0
SECTION
  2
TABLES
  0
TABLE
  2
VPORT
 70
     1
  0
VPORT
  2
*ACTIVE
 70
     0
 10
0.0
 20
0.0
 11
1.0
 21
1.0
 12
1281.6904477830569249
 22
454.4676855889171065
 13
0.0
 23
0.0
 14
1.0
 24
1.0
 15
0.0
 25
0.0
 16
0.0
 26
0.0
 36
60.4960186965801583
 17
3911.3653564453120453
 27
132.5796051025390057
 37
0.0
 40
17.9271859439434387
 41
2.0410052910052912
 42
50.0
 43
0.0
 44
0.0
 50
0.0
 51
0.0
 71
     0
 72
   100
 73
     1
 74
     1
 75
     0
 76
     0
 77
     0
 78
     0
  0
ENDTAB
  0
TABLE
  2
LTYPE
 70
     2
  0
LTYPE
  2
CONTINUOUS
 70
     0
  3
Solid line
 72
    65
 73
     0
 40
0.0
  0
LTYPE
  2
PHANTOM2
 70
     0
  3
___ _ _ ___ _ _ ___ _ _ ___ _ _
 72
    65
 73
     6
 40
1.25
 49
0.625
 49
-0.125
 49
0.125
 49
-0.125
 49
0.125
 49
-0.125
  0
ENDTAB
  0
TABLE
  2
LAYER
 70
     2
  0
LAYER
  2
0
 70
     0
 62
   255
  6
CONTINUOUS
  0
LAYER
  2
DEFPOINTS
 70
     0
 62
     7
  6
CONTINUOUS
  0
ENDTAB
  0
TABLE
  2
STYLE
 70
     1
  0
STYLE
  2
STANDARD
 70
     0
 40
0.0
 41
0.8
 50
0.0
 71
     0
 42
0.2
  3
txt
  4

  0
ENDTAB
  0
TABLE
  2
VIEW
 70
     0
  0
ENDTAB
  0
TABLE
  2
UCS
 70
     0
  0
ENDTAB
  0
TABLE
  2
APPID
 70
    11
  0
APPID
  2
ACAD
 70
     0
  0
APPID
  2
ACAD_MLEADERVER
 70
     0
  0
APPID
  2
ACAD_EXEMPT_FROM_CAD_STANDARDS
 70
     0
  0
APPID
  2
ACAD_NAV_VCDISPLAY
 70
     0
  0
APPID
  2
ACAECLAYERSTANDARD
 70
     0
  0
APPID
  2
ACCMTRANSPARENCY
 70
     0
  0
APPID
  2
ACAD_DSTYLE_DIMJAG
 70
     0
  0
APPID
  2
ACAD_DSTYLE_DIMTALN
 70
     0
  0
APPID
  2
ACDBATTR
 70
     0
  0
APPID
  2
ACADANNOTATIVE
 70
     0
  0
APPID
  2
DCO15
 70
     0
  0
ENDTAB
  0
TABLE
  2
DIMSTYLE
 70
     1
  0
DIMSTYLE
  2
STANDARD
 70
     0
  3

  4

  5

  6

  7

 40
1.0
 41
0.1875
 42
0.0625
 43
0.38
 44
0.125
 45
0.0
 46
0.0
 47
0.01
 48
0.01
140
0.15625
141
0.09
142
0.0
143
25.3999999999999986
144
1.0
145
0.0
146
1.0
147
0.09
 71
     1
 72
     0
 73
     1
 74
     1
 75
     0
 76
     0
 77
     0
 78
     4
170
     0
171
     2
172
     0
173
     0
174
     0
175
     0
176
     0
177
     0
178
     0
  0
ENDTAB
  0
ENDSEC
  0
SECTION
  2
BLOCKS
  0
BLOCK
  8
0
  2
$MODEL_SPACE
 70
     0
 10
0.0
 20
0.0
 30
0.0
  3
$MODEL_SPACE
  1

  0
ENDBLK
  5
21
  8
0
  0
BLOCK
 67
     1
  8
0
  2
$PAPER_SPACE
 70
     0
 10
0.0
 20
0.0
 30
0.0
  3
$PAPER_SPACE
  1

  0
ENDBLK
  5
1D
 67
     1
  8
0
  0
ENDSEC
  0
SECTION
  2
ENTITIES
  0
ATTDEF
  5
159BF
  8
DEFPOINTS
 10
5193.0079697446399223
 20
595.9304696311177167
 30
0.0
 40
0.001
  1
K-77769K-1
  3

  2
MODELNUMBER
 70
     0
1001
ACDBATTR
1070
     0
1070
     1
  0
ATTDEF
  5
159C0
  8
DEFPOINTS
 10
5193.0079697446399223
 20
595.928802790738473
 30
0.0
 40
0.001
  1
FOREFRONT
  3

  2
TRADENAME
 70
     0
1001
ACDBATTR
1070
     0
1070
     1
  0
ATTDEF
  5
159C1
  8
DEFPOINTS
 10
5193.0079697446399223
 20
595.9271362977842728
 30
0.0
 40
0.001
  1
BATHROOM SINK
  3

  2
PRODUCT
 70
     0
1001
ACDBATTR
1070
     0
1070
     1
  0
LINE
  5
1F187
  8
0
 10
5182.36505116988792
 20
595.9265807029537427
 30
0.0
 11
5203.6581075229169073
 21
595.9265807029538564
 31
0.0
  0
LINE
  5
1F188
  8
0
 10
5192.0239449098116893
 20
578.1946691878648608
 30
0.0
 11
5193.9992137829940475
 21
578.1946691878648608
 31
0.0
  0
LINE
  5
1F189
  8
0
 10
5182.1686511698890172
 20
595.7301807029538168
 30
0.0
 11
5182.1686511698890172
 21
584.1900381507065276
 31
0.0
  0
ARC
  5
1F18A
  8
0
 10
5182.36505116988792
 20
595.7301807029538168
 30
0.0
 40
0.1964
 50
90.0
 51
180.0
  0
ARC
  5
1F18B
  8
0
 10
5201.1787496854667552
 20
584.3846636633352318
 30
0.0
 40
19.0110947781066493
 50
180.5865740707700979
 51
187.8457386195009065
  0
ARC
  5
1F18C
  8
0
 10
5187.5870075237053243
 20
582.6080750369636689
 30
0.0
 40
5.3049245385496491
 50
188.8761816574771046
 51
200.8523287002622908
  0
ARC
  5
1F18D
  8
0
 10
5185.4544738754575519
 20
581.7957720199933647
 30
0.0
 40
3.0229219197331649
 50
200.8523287002622908
 51
234.9325316748044088
  0
ARC
  5
1F18E
  8
0
 10
5186.3876892547750685
 20
583.4340938014830726
 30
0.0
 40
4.9032319304251724
 50
237.0067527755041965
 51
257.4386883609511756
  0
ARC
  5
1F18F
  8
0
 10
5188.5445241949519186
 20
592.9508225405138546
 30
0.0
 40
14.6612871713530009
 50
257.3000715107908718
 51
266.4730293877302074
  0
ARC
  5
1F190
  8
0
 10
5190.9166414549717956
 20
627.4322049662706604
 30
0.0
 40
49.2239056052333908
 50
266.1862396586749924
 51
269.3948219359893983
  0
ARC
  5
1F191
  8
0
 10
5194.5751637467192268
 20
912.5526648333818684
 30
0.0
 40
334.3677286605891936
 50
269.2839835559464063
 51
269.5628301484421172
  0
ARC
  5
1F192
  8
0
 10
5196.004429846727362
 20
198.4756417597631071
 30
0.0
 40
392.5805651298280168
 50
90.4368004395749949
 51
90.7044222868651246
  0
ARC
  5
1F193
  8
0
 10
5192.5490032644547682
 20
522.5837529976366795
 30
0.0
 40
68.4565147974255126
 50
91.1475814365322066
 51
94.0267131578871442
  0
ARC
  5
1F194
  8
0
 10
5188.6611699373906958
 20
577.8123142986271432
 30
0.0
 40
13.0912799351376794
 50
94.0267131578871442
 51
101.7545058710600046
  0
ARC
  5
1F195
  8
0
 10
5186.782797506796669
 20
586.8393772589539594
 30
0.0
 40
3.8708597344246769
 50
101.7545058710600046
 51
127.6471704461340977
  0
ARC
  5
1F196
  8
0
 10
5186.8217498040930877
 20
586.78888271986375
 30
0.0
 40
3.9346326122221011
 50
127.6471704461340977
 51
156.0824360850461971
  0
ARC
  5
1F197
  8
0
 10
5191.201158939886227
 20
585.5676329208431525
 30
0.0
 40
8.4588212985718396
 50
160.551561892905994
 51
181.9693449312954954
  0
ARC
  5
1F198
  8
0
 10
5202.6793629964222418
 20
584.7500337630601734
 30
0.0
 40
19.9389926068438683
 50
178.4857089012708116
 51
188.9833418501611959
  0
ARC
  5
1F199
  8
0
 10
5185.1103835391695611
 20
581.6748483265793084
 30
0.0
 40
2.1257809609671039
 50
181.0305800122785911
 51
217.2286272545485986
  0
ARC
  5
1F19A
  8
0
 10
5185.9559454958553033
 20
582.5384890941320464
 30
0.0
 40
3.3262054439167561
 50
220.2633354444392069
 51
255.247643444645405
  0
ARC
  5
1F19B
  8
0
 10
5189.870985355425546
 20
602.2812900172373247
 30
0.0
 40
23.4480090008700408
 50
258.2823516345470125
 51
270.007610814489226
  0
ARC
  5
1F19C
  8
0
 10
5203.0994551154353758
 20
1984.3451809051830423
 30
0.0
 40
1405.5741211918900717
 50
269.4608834935352775
 51
269.5887817943514051
  0
ARC
  5
1F19D
  8
0
 10
5193.0115921479982717
 20
588.9799583652438741
 30
0.0
 40
1.802698557655555
 50
75.8170862290646994
 51
104.1837599112626975
  0
ARC
  5
1F19E
  8
0
 10
5193.0115575997078849
 20
593.6587834596134599
 30
0.0
 40
2.964174110551363
 50
261.4305627957028264
 51
278.5702833446003979
  0
CIRCLE
  5
1F19F
  8
0
 10
5193.0115793464037779
 20
593.4295807029537855
 30
0.0
 40
0.6889999030912956
  0
CIRCLE
  5
1F1A0
  8
0
 10
5193.0115792422966479
 20
588.1245807029538355
 30
0.0
 40
1.240432606233052
  0
CIRCLE
  5
1F1A1
  8
0
 10
5193.0115792422966479
 20
588.1245807029538355
 30
0.0
 40
1.4825681991793931
  0
LINE
  5
1F1A2
  8
0
 10
5203.8545075229158101
 20
595.7301807029538168
 30
0.0
 11
5203.8545075229158101
 21
584.1900381507065276
 31
0.0
  0
ARC
  5
1F1A3
  8
0
 10
5203.6581075229169073
 20
595.7301807029538168
 30
0.0
 40
0.1964
 50
0.0
 51
90.0
  0
ARC
  5
1F1A4
  8
0
 10
5184.8444090073380721
 20
584.3846636633352318
 30
0.0
 40
19.0110947781066493
 50
352.154261380499122
 51
359.4134259292299021
  0
ARC
  5
1F1A5
  8
0
 10
5198.4361511691004125
 20
582.6080750369636689
 30
0.0
 40
5.3049245385496491
 50
339.1476712997376808
 51
351.1238183425227817
  0
ARC
  5
1F1A6
  8
0
 10
5200.5686848173472754
 20
581.7957720199933647
 30
0.0
 40
3.0229219197331649
 50
305.0674683251955912
 51
339.1476712997376808
  0
ARC
  5
1F1A7
  8
0
 10
5199.6354694380279398
 20
583.4340938014830726
 30
0.0
 40
4.9032319304251724
 50
282.5613116390487107
 51
302.9932472244959172
  0
ARC
  5
1F1A8
  8
0
 10
5197.4786344978538182
 20
592.9508225405138546
 30
0.0
 40
14.6612871713530009
 50
273.5269706122697926
 51
282.6999284892091282
  0
ARC
  5
1F1A9
  8
0
 10
5195.1065172378339412
 20
627.4322049662706604
 30
0.0
 40
49.2239056052333908
 50
270.605178064010488
 51
273.8137603413250076
  0
ARC
  5
1F1AA
  8
0
 10
5191.4479949460874195
 20
912.5526648333818684
 30
0.0
 40
334.3677286605891936
 50
270.437169851557826
 51
270.7160164440537073
  0
ARC
  5
1F1AB
  8
0
 10
5197.0374119897342098
 20
903.2068346132075476
 30
0.0
 40
312.1879946565089199
 50
269.2611195275457021
 51
269.5976577460688759
  0
ARC
  5
1F1AC
  8
0
 10
5193.4741554283509686
 20
522.5837529976366795
 30
0.0
 40
68.4565147974255126
 50
85.97328684211287
 51
88.8524185634677934
  0
ARC
  5
1F1AD
  8
0
 10
5197.3619887554141314
 20
577.8123142986271432
 30
0.0
 40
13.0912799351376794
 50
78.245494128939967
 51
85.97328684211287
  0
ARC
  5
1F1AE
  8
0
 10
5199.2403611860081583
 20
586.8393772589539594
 30
0.0
 40
3.8708597344246769
 50
52.3528295538658313
 51
78.245494128939967
  0
ARC
  5
1F1AF
  8
0
 10
5199.2014088887108301
 20
586.78888271986375
 30
0.0
 40
3.9346326122221011
 50
23.9175639149537496
 51
52.3528295538658313
  0
ARC
  5
1F1B0
  8
0
 10
5194.8219997529176908
 20
585.5676329208431525
 30
0.0
 40
8.4588212985718396
 50
358.0306550687045046
 51
19.4484381070939811
  0
ARC
  5
1F1B1
  8
0
 10
5183.3437956963844044
 20
584.7500337630601734
 30
0.0
 40
19.9389926068438683
 50
351.0166581498388041
 51
1.514291098729174
  0
ARC
  5
1F1B2
  8
0
 10
5200.9127751536352662
 20
581.6748483265793084
 30
0.0
 40
2.1257809609671039
 50
322.7713727454514014
 51
358.9694199877213237
  0
ARC
  5
1F1B3
  8
0
 10
5200.0672131969486145
 20
582.5384890941320464
 30
0.0
 40
3.3262054439167561
 50
284.752356555354595
 51
319.7366645555608784
  0
ARC
  5
1F1B4
  8
0
 10
5196.1521733373801908
 20
602.2812900172373247
 30
0.0
 40
23.4480090008700408
 50
269.992389185510774
 51
281.7176483654531012
  0
ARC
  5
1F1B5
  8
0
 10
5182.92370357737218
 20
1984.3451809051830423
 30
0.0
 40
1405.5741211918900717
 50
270.4112182056487086
 51
270.5391165064646088
  0
POINT
  5
1F1B7
  8
DEFPOINTS
 10
5193.0115793464037779
 20
593.4295807029537855
 30
0.0
  0
ENDSEC
  0
EOF
