  0
SECTION
  2
HEADER
  9
$ACADVER
  1
AC1009
  9
$INSBASE
 10
5115.3731431862088357
 20
577.2076311142502618
 30
0.0
  9
$EXTMIN
 10
5097.2601876777616781
 20
577.177185662603847
 30
-0.0000000000112498
  9
$EXTMAX
 10
5115.4763097075492624
 20
608.70640405514132
 30
0.0000000000002956
  9
$LIMMIN
 10
0.0
 20
0.0
  9
$LIMMAX
 10
11.6929133858000007
 20
8.2677165353999982
  9
$ORTHOMODE
 70
     0
  9
$REGENMODE
 70
     1
  9
$FILLMODE
 70
     1
  9
$QTEXTMODE
 70
     0
  9
$MIRRTEXT
 70
     0
  9
$DRAGMODE
 70
     2
  9
$LTSCALE
 40
0.6431102362
  9
$OSMODE
 70
  4095
  9
$ATTMODE
 70
     1
  9
$TEXTSIZE
 40
0.2
  9
$TRACEWID
 40
0.05
  9
$TEXTSTYLE
  7
STANDARD
  9
$CLAYER
  8
0
  9
$CELTYPE
  6
BYLAYER
  9
$CECOLOR
 62
   256
  9
$DIMSCALE
 40
1.0
  9
$DIMASZ
 40
0.1875
  9
$DIMEXO
 40
0.0625
  9
$DIMDLI
 40
0.4443307087
  9
$DIMRND
 40
0.0
  9
$DIMDLE
 40
0.0
  9
$DIMEXE
 40
0.125
  9
$DIMTP
 40
0.01
  9
$DIMTM
 40
0.01
  9
$DIMTXT
 40
2.0
  9
$DIMCEN
 40
0.1052362205
  9
$DIMTSZ
 40
0.0
  9
$DIMTOL
 70
     1
  9
$DIMLIM
 70
     0
  9
$DIMTIH
 70
     1
  9
$DIMTOH
 70
     1
  9
$DIMSE1
 70
     0
  9
$DIMSE2
 70
     0
  9
$DIMTAD
 70
     0
  9
$DIMZIN
 70
     0
  9
$DIMBLK
  1

  9
$DIMASO
 70
     1
  9
$DIMSHO
 70
     1
  9
$DIMPOST
  1
\X
  9
$DIMAPOST
  1

  9
$DIMALT
 70
     1
  9
$DIMALTD
 70
     2
  9
$DIMALTF
 40
25.3999999999999986
  9
$DIMLFAC
 40
1.0
  9
$DIMTOFL
 70
     0
  9
$DIMTVP
 40
0.0
  9
$DIMTIX
 70
     0
  9
$DIMSOXD
 70
     0
  9
$DIMSAH
 70
     0
  9
$DIMBLK1
  1

  9
$DIMBLK2
  1

  9
$DIMSTYLE
  2
STANDARD
  9
$DIMCLRD
 70
     0
  9
$DIMCLRE
 70
     0
  9
$DIMCLRT
 70
     0
  9
$DIMTFAC
 40
1.0
  9
$DIMGAP
 40
0.09
  9
$LUNITS
 70
     2
  9
$LUPREC
 70
     4
  9
$SKETCHINC
 40
0.1
  9
$FILLETRAD
 40
0.0
  9
$AUNITS
 70
     0
  9
$AUPREC
 70
     0
  9
$MENU
  1
.
  9
$ELEVATION
 40
0.0
  9
$PELEVATION
 40
0.0
  9
$THICKNESS
 40
0.0
  9
$LIMCHECK
 70
     0
  9
$BLIPMODE
 70
     0
  9
$CHAMFERA
 40
0.0
  9
$CHAMFERB
 40
0.0
  9
$SKPOLY
 70
     0
  9
$TDCREATE
 40
2458060.468368056230247
  9
$TDUPDATE
 40
2459548.9397569438442588
  9
$TDINDWG
 40
1.6913973843000001
  9
$TDUSRTIMER
 40
1.6913973843000001
  9
$USRTIMER
 70
     1
  9
$ANGBASE
 50
0.0
  9
$ANGDIR
 70
     0
  9
$PDMODE
 70
     0
  9
$PDSIZE
 40
0.3125
  9
$PLINEWID
 40
0.0
  9
$COORDS
 70
     1
  9
$SPLFRAME
 70
     0
  9
$SPLINETYPE
 70
     6
  9
$SPLINESEGS
 70
     8
  9
$ATTDIA
 70
     1
  9
$ATTREQ
 70
     1
  9
$HANDLING
 70
     1
  9
$HANDSEED
  5
1F123
  9
$SURFTAB1
 70
     6
  9
$SURFTAB2
 70
     6
  9
$SURFTYPE
 70
     6
  9
$SURFU
 70
     6
  9
$SURFV
 70
     6
  9
$UCSNAME
  2

  9
$UCSORG
 10
0.0
 20
0.0
 30
0.0
  9
$UCSXDIR
 10
1.0
 20
0.0
 30
0.0
  9
$UCSYDIR
 10
0.0
 20
1.0
 30
0.0
  9
$PUCSNAME
  2

  9
$PUCSORG
 10
0.0
 20
0.0
 30
0.0
  9
$PUCSXDIR
 10
1.0
 20
0.0
 30
0.0
  9
$PUCSYDIR
 10
0.0
 20
1.0
 30
0.0
  9
$USERI1
 70
     0
  9
$USERI2
 70
     0
  9
$USERI3
 70
     0
  9
$USERI4
 70
     0
  9
$USERI5
 70
     0
  9
$USERR1
 40
0.0
  9
$USERR2
 40
0.0
  9
$USERR3
 40
0.0
  9
$USERR4
 40
0.0
  9
$USERR5
 40
0.0
  9
$WORLDVIEW
 70
     1
  9
$SHADEDGE
 70
     3
  9
$SHADEDIF
 70
    70
  9
$TILEMODE
 70
     1
  9
$MAXACTVP
 70
    64
  9
$PLIMCHECK
 70
     0
  9
$PEXTMIN
 10
1.0000000000000000E+20
 20
1.0000000000000000E+20
 30
1.0000000000000000E+20
  9
$PEXTMAX
 10
-1.0000000000000000E+20
 20
-1.0000000000000000E+20
 30
-1.0000000000000000E+20
  9
$PLIMMIN
 10
0.0
 20
0.0
  9
$PLIMMAX
 10
12.0
 20
9.0
  9
$UNITMODE
 70
     0
  9
$VISRETAIN
 70
     1
  9
$PLINEGEN
 70
     0
  9
$PSLTSCALE
 70
     1
  0
ENDSEC
  0
SECTION
  2
TABLES
  0
TABLE
  2
VPORT
 70
     1
  0
VPORT
  2
*ACTIVE
 70
     0
 10
0.0
 20
0.0
 11
1.0
 21
1.0
 12
1195.0028922473429702
 22
460.3621897563335779
 13
0.0
 23
0.0
 14
1.0
 24
1.0
 15
0.0
 25
0.0
 16
0.0
 26
0.0
 36
60.4960186965801583
 17
3911.3653564453120453
 27
132.5796051025390057
 37
0.0
 40
31.8004212800534916
 41
2.0410052910052912
 42
50.0
 43
0.0
 44
0.0
 50
0.0
 51
0.0
 71
     0
 72
   100
 73
     1
 74
     1
 75
     0
 76
     0
 77
     0
 78
     0
  0
ENDTAB
  0
TABLE
  2
LTYPE
 70
     2
  0
LTYPE
  2
CONTINUOUS
 70
     0
  3
Solid line
 72
    65
 73
     0
 40
0.0
  0
LTYPE
  2
PHANTOM2
 70
     0
  3
___ _ _ ___ _ _ ___ _ _ ___ _ _
 72
    65
 73
     6
 40
1.25
 49
0.625
 49
-0.125
 49
0.125
 49
-0.125
 49
0.125
 49
-0.125
  0
ENDTAB
  0
TABLE
  2
LAYER
 70
     2
  0
LAYER
  2
0
 70
     0
 62
   255
  6
CONTINUOUS
  0
LAYER
  2
DEFPOINTS
 70
     0
 62
     7
  6
CONTINUOUS
  0
ENDTAB
  0
TABLE
  2
STYLE
 70
     1
  0
STYLE
  2
STANDARD
 70
     0
 40
0.0
 41
0.8
 50
0.0
 71
     0
 42
0.2
  3
txt
  4

  0
ENDTAB
  0
TABLE
  2
VIEW
 70
     0
  0
ENDTAB
  0
TABLE
  2
UCS
 70
     0
  0
ENDTAB
  0
TABLE
  2
APPID
 70
    11
  0
APPID
  2
ACAD
 70
     0
  0
APPID
  2
ACAD_MLEADERVER
 70
     0
  0
APPID
  2
ACAD_EXEMPT_FROM_CAD_STANDARDS
 70
     0
  0
APPID
  2
ACAD_NAV_VCDISPLAY
 70
     0
  0
APPID
  2
ACAECLAYERSTANDARD
 70
     0
  0
APPID
  2
ACCMTRANSPARENCY
 70
     0
  0
APPID
  2
ACAD_DSTYLE_DIMJAG
 70
     0
  0
APPID
  2
ACAD_DSTYLE_DIMTALN
 70
     0
  0
APPID
  2
ACDBATTR
 70
     0
  0
APPID
  2
ACADANNOTATIVE
 70
     0
  0
APPID
  2
DCO15
 70
     0
  0
ENDTAB
  0
TABLE
  2
DIMSTYLE
 70
     1
  0
DIMSTYLE
  2
STANDARD
 70
     0
  3

  4

  5

  6

  7

 40
1.0
 41
0.1875
 42
0.0625
 43
0.38
 44
0.125
 45
0.0
 46
0.0
 47
0.01
 48
0.01
140
0.15625
141
0.09
142
0.0
143
25.3999999999999986
144
1.0
145
0.0
146
1.0
147
0.09
 71
     1
 72
     0
 73
     1
 74
     1
 75
     0
 76
     0
 77
     0
 78
     4
170
     0
171
     2
172
     0
173
     0
174
     0
175
     0
176
     0
177
     0
178
     0
  0
ENDTAB
  0
ENDSEC
  0
SECTION
  2
BLOCKS
  0
BLOCK
  8
0
  2
$MODEL_SPACE
 70
     0
 10
0.0
 20
0.0
 30
0.0
  3
$MODEL_SPACE
  1

  0
ENDBLK
  5
21
  8
0
  0
BLOCK
 67
     1
  8
0
  2
$PAPER_SPACE
 70
     0
 10
0.0
 20
0.0
 30
0.0
  3
$PAPER_SPACE
  1

  0
ENDBLK
  5
1D
 67
     1
  8
0
  0
ENDSEC
  0
SECTION
  2
ENTITIES
  0
ATTDEF
  5
159BF
  8
DEFPOINTS
 10
5115.3684216922092673
 20
577.2131879697152499
 30
0.0
 40
0.001
  1
K-77769K-1
  3

  2
MODELNUMBER
 70
     0
1001
ACDBATTR
1070
     0
1070
     1
  0
ATTDEF
  5
159C0
  8
DEFPOINTS
 10
5115.3684216922092673
 20
577.2115211293360062
 30
0.0
 40
0.001
  1
FOREFRONT
  3

  2
TRADENAME
 70
     0
1001
ACDBATTR
1070
     0
1070
     1
  0
ATTDEF
  5
159C1
  8
DEFPOINTS
 10
5115.3684216922092673
 20
577.2098546363819196
 30
0.0
 40
0.001
  1
BATHROOM SINK
  3

  2
PRODUCT
 70
     0
1001
ACDBATTR
1070
     0
1070
     1
  0
LINE
  5
1F03F
  8
0
 10
5115.1763431862100333
 20
608.7037311142502176
 30
0.0
 11
5097.8774316711187566
 21
608.7037311142502176
 31
0.0
  0
LINE
  5
1F040
  8
0
 10
5115.2631431862091631
 20
602.9950793142502334
 30
0.0
 11
5098.6181601130892886
 21
602.9950793142502334
 31
0.0
  0
ARC
  5
1F041
  8
0
 10
5125.1886702065439749
 20
609.8167050807631995
 30
0.0
 40
27.5807427961537002
 50
182.8281099184330003
 51
194.0001087159845099
  0
LINE
  5
1F042
  8
0
 10
5115.3731431862088357
 20
603.1050793142502471
 30
0.0
 11
5115.3731431862088357
 21
608.506931114250051
 31
0.0
  0
ARC
  5
1F043
  8
0
 10
5115.2631431862091631
 20
603.1050793142502471
 30
0.0
 40
0.11
 50
270.0
 51
0.0
  0
ARC
  5
1F044
  8
0
 10
5115.1763431862100333
 20
608.506931114250051
 30
0.0
 40
0.1968
 50
0.0
 51
90.0
  0
ARC
  5
1F045
  8
0
 10
5097.8774316711187566
 20
608.4675311142500505
 30
0.0
 40
0.2362
 50
90.0
 51
182.8281099184330003
  0
ARC
  5
1F046
  8
0
 10
5098.6181601130892886
 20
603.1918793142501727
 30
0.0
 40
0.1968
 50
194.0001087159845099
 51
270.0
  0
LINE
  5
1F047
  8
0
 10
5106.3358448953140396
 20
600.3158222162379616
 30
0.0
 11
5108.8063966301542678
 21
600.3158222162379616
 31
0.0
  0
ARC
  5
1F048
  8
0
 10
5106.3358448953140396
 20
600.4358222162378524
 30
0.0
 40
0.12
 50
184.9778186778692088
 51
270.0
  0
LINE
  5
1F049
  8
0
 10
5106.121366462683909
 20
601.5153361052617811
 30
0.0
 11
5106.2162974915536324
 21
600.425409807562346
 31
0.0
  0
ARC
  5
1F04A
  8
0
 10
5109.2144746018393562
 20
600.4652880718776942
 30
0.0
 40
0.2844737719900968
 50
90.7833437051496048
 51
171.6530448416853005
  0
LINE
  5
1F04B
  8
0
 10
5108.9330142167946178
 20
600.5065843017380303
 30
0.0
 11
5108.9259440339119465
 21
600.4254098075587081
 31
0.0
  0
ARC
  5
1F04C
  8
0
 10
5108.8063966301542678
 20
600.4358222162378524
 30
0.0
 40
0.12
 50
270.0
 51
355.0221813203326064
  0
LINE
  5
1F04D
  8
0
 10
5100.3951995720090054
 20
600.3346459911880402
 30
0.0
 11
5100.3951995720090054
 21
602.9950014359878878
 31
0.0
  0
LINE
  5
1F04E
  8
0
 10
5101.182601146709203
 20
600.3346459911880402
 30
0.0
 11
5101.182601146709203
 21
602.9950014359878878
 31
0.0
  0
LINE
  5
1F04F
  8
0
 10
5101.1826011467283024
 20
600.3346459911880402
 30
0.0
 11
5100.3951995720090054
 21
600.3346459911880402
 31
0.0
  0
ARC
  5
1F050
  8
0
 10
5102.2963628023153433
 20
605.3618302124068578
 30
0.0
 40
3.50893586177629
 50
222.4138079420609131
 51
237.1922485231719975
  0
ARC
  5
1F051
  8
0
 10
5102.5402619389096799
 20
606.3100541062095772
 30
0.0
 40
4.4866553098885964
 50
252.3863379703325052
 51
272.214795866810789
  0
ARC
  5
1F052
  8
0
 10
5102.9806134325135645
 20
601.6508379655520002
 30
0.0
 40
0.1101047568951641
 50
180.0508665416394933
 51
268.9661005256289741
  0
ARC
  5
1F053
  8
0
 10
5109.0250561795201065
 20
602.8892243666200557
 30
0.0
 40
2.386226959492423
 50
323.991820967436297
 51
2.5416488599798881
  0
ARC
  5
1F054
  8
0
 10
5109.3923995033355823
 20
602.7537320683030657
 30
0.0
 40
2.0122275171159072
 50
264.8159906365193024
 51
320.9620144327819276
  0
ARC
  5
1F055
  8
0
 10
5108.4962321300654366
 20
603.49188317621838
 30
0.0
 40
2.0251786495101558
 50
276.6358822918792839
 51
345.7985496229816249
  0
LINE
  5
1F056
  8
0
 10
5108.7302602399468014
 20
601.4802720291615969
 30
0.0
 11
5108.54297358481017
 21
601.4923498751378474
 31
0.0
  0
LINE
  5
1F057
  8
0
 10
5108.54297358481017
 20
601.4923498751378474
 30
0.0
 11
5107.7344476531643522
 21
601.470485055474569
 31
0.0
  0
ARC
  5
1F058
  8
0
 10
5104.2647620797970376
 20
535.6836888897340714
 30
0.0
 40
65.8696196413081765
 50
89.3220630463602276
 51
91.1187982009838464
  0
ARC
  5
1F059
  8
0
 10
5104.7057841535079206
 20
573.2150414819946036
 30
0.0
 40
28.3356762586986015
 50
86.0220537424223579
 51
89.3158390035038536
  0
ARC
  5
1F05A
  8
0
 10
5107.3274992243586894
 20
612.5370653500485787
 30
0.0
 40
11.0740600702705692
 50
266.603959047542503
 51
272.1059736244329201
  0
ARC
  5
1F05B
  8
0
 10
5102.7105087596019075
 20
601.6667813248860739
 30
0.0
 40
0.1600000267086742
 50
359.9996752382738237
 51
88.8741352797455164
  0
LINE
  5
1F05C
  8
0
 10
5102.8705087863081644
 20
601.6667804179801351
 30
0.0
 11
5102.8705087190091945
 21
601.650740215813471
 31
0.0
  0
ARC
  5
1F05D
  8
0
 10
5109.0674108321018139
 20
600.9951322471002868
 30
0.0
 40
0.561684349221194
 50
173.9060901317957075
 51
242.6146832207691943
  0
LINE
  5
1F05E
  8
0
 10
5108.8090517206410368
 20
600.496393961337958
 30
0.0
 11
5108.9321266526530962
 21
600.496393961337958
 31
0.0
  0
LINE
  5
1F05F
  8
0
 10
5108.5089004299143198
 20
601.0547597475280099
 30
0.0
 11
5108.54297358481017
 21
601.4923498751378474
 31
0.0
  0
ENDSEC
  0
EOF
