  0
SECTION
  2
HEADER
  9
$ACADVER
  1
AC1009
  9
$INSBASE
 10
5152.7133975264523542
 20
622.4642513902040264
 30
0.0
  9
$EXTMIN
 10
5134.7561531647079391
 20
622.4249633074291523
 30
-0.0000000000000058
  9
$EXTMAX
 10
5153.0993011124137411
 20
654.0045795451642334
 30
0.0000000000000104
  9
$LIMMIN
 10
0.0
 20
0.0
  9
$LIMMAX
 10
11.6929133858000007
 20
8.2677165353999982
  9
$ORTHOMODE
 70
     0
  9
$REGENMODE
 70
     1
  9
$FILLMODE
 70
     1
  9
$QTEXTMODE
 70
     0
  9
$MIRRTEXT
 70
     0
  9
$DRAGMODE
 70
     2
  9
$LTSCALE
 40
0.6431102362
  9
$OSMODE
 70
  4095
  9
$ATTMODE
 70
     1
  9
$TEXTSIZE
 40
0.2
  9
$TRACEWID
 40
0.05
  9
$TEXTSTYLE
  7
STANDARD
  9
$CLAYER
  8
0
  9
$CELTYPE
  6
BYLAYER
  9
$CECOLOR
 62
   256
  9
$DIMSCALE
 40
1.0
  9
$DIMASZ
 40
0.1875
  9
$DIMEXO
 40
0.0625
  9
$DIMDLI
 40
0.4443307087
  9
$DIMRND
 40
0.0
  9
$DIMDLE
 40
0.0
  9
$DIMEXE
 40
0.125
  9
$DIMTP
 40
0.01
  9
$DIMTM
 40
0.01
  9
$DIMTXT
 40
2.0
  9
$DIMCEN
 40
0.1052362205
  9
$DIMTSZ
 40
0.0
  9
$DIMTOL
 70
     1
  9
$DIMLIM
 70
     0
  9
$DIMTIH
 70
     1
  9
$DIMTOH
 70
     1
  9
$DIMSE1
 70
     0
  9
$DIMSE2
 70
     0
  9
$DIMTAD
 70
     0
  9
$DIMZIN
 70
     0
  9
$DIMBLK
  1

  9
$DIMASO
 70
     1
  9
$DIMSHO
 70
     1
  9
$DIMPOST
  1
\X
  9
$DIMAPOST
  1

  9
$DIMALT
 70
     1
  9
$DIMALTD
 70
     2
  9
$DIMALTF
 40
25.3999999999999986
  9
$DIMLFAC
 40
1.0
  9
$DIMTOFL
 70
     0
  9
$DIMTVP
 40
0.0
  9
$DIMTIX
 70
     0
  9
$DIMSOXD
 70
     0
  9
$DIMSAH
 70
     0
  9
$DIMBLK1
  1

  9
$DIMBLK2
  1

  9
$DIMSTYLE
  2
STANDARD
  9
$DIMCLRD
 70
     0
  9
$DIMCLRE
 70
     0
  9
$DIMCLRT
 70
     0
  9
$DIMTFAC
 40
1.0
  9
$DIMGAP
 40
0.09
  9
$LUNITS
 70
     2
  9
$LUPREC
 70
     4
  9
$SKETCHINC
 40
0.1
  9
$FILLETRAD
 40
0.0
  9
$AUNITS
 70
     0
  9
$AUPREC
 70
     0
  9
$MENU
  1
.
  9
$ELEVATION
 40
0.0
  9
$PELEVATION
 40
0.0
  9
$THICKNESS
 40
0.0
  9
$LIMCHECK
 70
     0
  9
$BLIPMODE
 70
     0
  9
$CHAMFERA
 40
0.0
  9
$CHAMFERB
 40
0.0
  9
$SKPOLY
 70
     0
  9
$TDCREATE
 40
2458060.468368056230247
  9
$TDUPDATE
 40
2459548.9499768521636724
  9
$TDINDWG
 40
1.6942677546
  9
$TDUSRTIMER
 40
1.6942677546
  9
$USRTIMER
 70
     1
  9
$ANGBASE
 50
0.0
  9
$ANGDIR
 70
     0
  9
$PDMODE
 70
     0
  9
$PDSIZE
 40
0.3125
  9
$PLINEWID
 40
0.0
  9
$COORDS
 70
     1
  9
$SPLFRAME
 70
     0
  9
$SPLINETYPE
 70
     6
  9
$SPLINESEGS
 70
     8
  9
$ATTDIA
 70
     1
  9
$ATTREQ
 70
     1
  9
$HANDLING
 70
     1
  9
$HANDSEED
  5
1F1B4
  9
$SURFTAB1
 70
     6
  9
$SURFTAB2
 70
     6
  9
$SURFTYPE
 70
     6
  9
$SURFU
 70
     6
  9
$SURFV
 70
     6
  9
$UCSNAME
  2

  9
$UCSORG
 10
0.0
 20
0.0
 30
0.0
  9
$UCSXDIR
 10
1.0
 20
0.0
 30
0.0
  9
$UCSYDIR
 10
0.0
 20
1.0
 30
0.0
  9
$PUCSNAME
  2

  9
$PUCSORG
 10
0.0
 20
0.0
 30
0.0
  9
$PUCSXDIR
 10
1.0
 20
0.0
 30
0.0
  9
$PUCSYDIR
 10
0.0
 20
1.0
 30
0.0
  9
$USERI1
 70
     0
  9
$USERI2
 70
     0
  9
$USERI3
 70
     0
  9
$USERI4
 70
     0
  9
$USERI5
 70
     0
  9
$USERR1
 40
0.0
  9
$USERR2
 40
0.0
  9
$USERR3
 40
0.0
  9
$USERR4
 40
0.0
  9
$USERR5
 40
0.0
  9
$WORLDVIEW
 70
     1
  9
$SHADEDGE
 70
     3
  9
$SHADEDIF
 70
    70
  9
$TILEMODE
 70
     1
  9
$MAXACTVP
 70
    64
  9
$PLIMCHECK
 70
     0
  9
$PEXTMIN
 10
1.0000000000000000E+20
 20
1.0000000000000000E+20
 30
1.0000000000000000E+20
  9
$PEXTMAX
 10
-1.0000000000000000E+20
 20
-1.0000000000000000E+20
 30
-1.0000000000000000E+20
  9
$PLIMMIN
 10
0.0
 20
0.0
  9
$PLIMMAX
 10
12.0
 20
9.0
  9
$UNITMODE
 70
     0
  9
$VISRETAIN
 70
     1
  9
$PLINEGEN
 70
     0
  9
$PSLTSCALE
 70
     1
  0
ENDSEC
  0
SECTION
  2
TABLES
  0
TABLE
  2
VPORT
 70
     1
  0
VPORT
  2
*ACTIVE
 70
     0
 10
0.0
 20
0.0
 11
1.0
 21
1.0
 12
1232.5623706932481127
 22
505.6351663237575735
 13
0.0
 23
0.0
 14
1.0
 24
1.0
 15
0.0
 25
0.0
 16
0.0
 26
0.0
 36
60.4960186965801583
 17
3911.3653564453120453
 27
132.5796051025390057
 37
0.0
 40
31.8326605492369588
 41
2.0410052910052912
 42
50.0
 43
0.0
 44
0.0
 50
0.0
 51
0.0
 71
     0
 72
   100
 73
     1
 74
     1
 75
     0
 76
     0
 77
     0
 78
     0
  0
ENDTAB
  0
TABLE
  2
LTYPE
 70
     2
  0
LTYPE
  2
CONTINUOUS
 70
     0
  3
Solid line
 72
    65
 73
     0
 40
0.0
  0
LTYPE
  2
PHANTOM2
 70
     0
  3
___ _ _ ___ _ _ ___ _ _ ___ _ _
 72
    65
 73
     6
 40
1.25
 49
0.625
 49
-0.125
 49
0.125
 49
-0.125
 49
0.125
 49
-0.125
  0
ENDTAB
  0
TABLE
  2
LAYER
 70
     2
  0
LAYER
  2
0
 70
     0
 62
   255
  6
CONTINUOUS
  0
LAYER
  2
DEFPOINTS
 70
     0
 62
     7
  6
CONTINUOUS
  0
ENDTAB
  0
TABLE
  2
STYLE
 70
     1
  0
STYLE
  2
STANDARD
 70
     0
 40
0.0
 41
0.8
 50
0.0
 71
     0
 42
0.2
  3
txt
  4

  0
ENDTAB
  0
TABLE
  2
VIEW
 70
     0
  0
ENDTAB
  0
TABLE
  2
UCS
 70
     0
  0
ENDTAB
  0
TABLE
  2
APPID
 70
    11
  0
APPID
  2
ACAD
 70
     0
  0
APPID
  2
ACAD_MLEADERVER
 70
     0
  0
APPID
  2
ACAD_EXEMPT_FROM_CAD_STANDARDS
 70
     0
  0
APPID
  2
ACAD_NAV_VCDISPLAY
 70
     0
  0
APPID
  2
ACAECLAYERSTANDARD
 70
     0
  0
APPID
  2
ACCMTRANSPARENCY
 70
     0
  0
APPID
  2
ACAD_DSTYLE_DIMJAG
 70
     0
  0
APPID
  2
ACAD_DSTYLE_DIMTALN
 70
     0
  0
APPID
  2
ACDBATTR
 70
     0
  0
APPID
  2
ACADANNOTATIVE
 70
     0
  0
APPID
  2
DCO15
 70
     0
  0
ENDTAB
  0
TABLE
  2
DIMSTYLE
 70
     1
  0
DIMSTYLE
  2
STANDARD
 70
     0
  3

  4

  5

  6

  7

 40
1.0
 41
0.1875
 42
0.0625
 43
0.38
 44
0.125
 45
0.0
 46
0.0
 47
0.01
 48
0.01
140
0.15625
141
0.09
142
0.0
143
25.3999999999999986
144
1.0
145
0.0
146
1.0
147
0.09
 71
     1
 72
     0
 73
     1
 74
     1
 75
     0
 76
     0
 77
     0
 78
     4
170
     0
171
     2
172
     0
173
     0
174
     0
175
     0
176
     0
177
     0
178
     0
  0
ENDTAB
  0
ENDSEC
  0
SECTION
  2
BLOCKS
  0
BLOCK
  8
0
  2
$MODEL_SPACE
 70
     0
 10
0.0
 20
0.0
 30
0.0
  3
$MODEL_SPACE
  1

  0
ENDBLK
  5
21
  8
0
  0
BLOCK
 67
     1
  8
0
  2
$PAPER_SPACE
 70
     0
 10
0.0
 20
0.0
 30
0.0
  3
$PAPER_SPACE
  1

  0
ENDBLK
  5
1D
 67
     1
  8
0
  0
ENDSEC
  0
SECTION
  2
ENTITIES
  0
ATTDEF
  5
159BF
  8
DEFPOINTS
 10
5152.7106193383087884
 20
622.4696336678267699
 30
0.0
 40
0.001
  1
K-77769K-8
  3

  2
MODELNUMBER
 70
     0
1001
ACDBATTR
1070
     0
1070
     1
  0
ATTDEF
  5
159C0
  8
DEFPOINTS
 10
5152.7106193383087884
 20
622.4679668274476398
 30
0.0
 40
0.001
  1
FOREFRONT
  3

  2
TRADENAME
 70
     0
1001
ACDBATTR
1070
     0
1070
     1
  0
ATTDEF
  5
159C1
  8
DEFPOINTS
 10
5152.7106193383087884
 20
622.4663003344934395
 30
0.0
 40
0.001
  1
BATHROOM SINK
  3

  2
PRODUCT
 70
     0
1001
ACDBATTR
1070
     0
1070
     1
  0
LINE
  5
1F110
  8
0
 10
5152.5165975264526423
 20
653.9603513902038685
 30
0.0
 11
5135.2176860113631847
 21
653.9603513902038685
 31
0.0
  0
LINE
  5
1F111
  8
0
 10
5152.6033975264517721
 20
648.251699590203998
 30
0.0
 11
5135.9584144533318977
 21
648.251699590203998
 31
0.0
  0
ARC
  5
1F112
  8
0
 10
5162.528924546786584
 20
655.0733253567169641
 30
0.0
 40
27.5807427961537002
 50
182.8281099184330003
 51
194.0001087159845099
  0
LINE
  5
1F113
  8
0
 10
5152.7133975264523542
 20
648.3616995902040117
 30
0.0
 11
5152.7133975264523542
 21
653.7635513902039293
 31
0.0
  0
ARC
  5
1F114
  8
0
 10
5152.6033975264517721
 20
648.3616995902040117
 30
0.0
 40
0.11
 50
270.0
 51
0.0
  0
ARC
  5
1F115
  8
0
 10
5152.5165975264526423
 20
653.7635513902039293
 30
0.0
 40
0.1968
 50
0.0
 51
90.0
  0
ARC
  5
1F116
  8
0
 10
5135.2176860113631847
 20
653.7241513902039287
 30
0.0
 40
0.2362
 50
90.0
 51
182.8281099184330003
  0
ARC
  5
1F117
  8
0
 10
5135.9584144533318977
 20
648.4484995902039373
 30
0.0
 40
0.1968
 50
194.0001087159845099
 51
270.0
  0
LINE
  5
1F118
  8
0
 10
5143.6760992355566486
 20
645.5724424921917262
 30
0.0
 11
5146.1466509703968768
 21
645.5724424921917262
 31
0.0
  0
ARC
  5
1F119
  8
0
 10
5143.6760992355566486
 20
645.6924424921917307
 30
0.0
 40
0.12
 50
184.9778186778692088
 51
270.0
  0
LINE
  5
1F11A
  8
0
 10
5143.4616208029274276
 20
646.7719563812155457
 30
0.0
 11
5143.5565518317980604
 21
645.6820300835162243
 31
0.0
  0
ARC
  5
1F11B
  8
0
 10
5146.5547289420828747
 20
645.7219083478313451
 30
0.0
 40
0.2844737719900968
 50
90.7833437051496048
 51
171.6530448416853005
  0
LINE
  5
1F11C
  8
0
 10
5146.2732685570381364
 20
645.7632045776917948
 30
0.0
 11
5146.2661983741545555
 21
645.6820300835124726
 31
0.0
  0
ARC
  5
1F11D
  8
0
 10
5146.1466509703968768
 20
645.6924424921917307
 30
0.0
 40
0.12
 50
270.0
 51
355.0221813203326064
  0
LINE
  5
1F11E
  8
0
 10
5137.7354539122516144
 20
645.5912662671416911
 30
0.0
 11
5137.7354539122516144
 21
648.2516217119416524
 31
0.0
  0
LINE
  5
1F11F
  8
0
 10
5138.5228554869527215
 20
645.5912662671416911
 30
0.0
 11
5138.5228554869527215
 21
648.2516217119416524
 31
0.0
  0
LINE
  5
1F120
  8
0
 10
5138.5228554869709114
 20
645.5912662671416911
 30
0.0
 11
5137.7354539122516144
 21
645.5912662671416911
 31
0.0
  0
ARC
  5
1F121
  8
0
 10
5139.6366171425579523
 20
650.6184504883606223
 30
0.0
 40
3.50893586177629
 50
222.4138079420609131
 51
237.1922485231719975
  0
ARC
  5
1F122
  8
0
 10
5139.8805162791541079
 20
651.5666743821634554
 30
0.0
 40
4.4866553098885964
 50
252.3863379703325052
 51
272.214795866810789
  0
ARC
  5
1F123
  8
0
 10
5140.320867772757083
 20
646.9074582415056511
 30
0.0
 40
0.1101047568951641
 50
180.0508665416394933
 51
268.9661005256289741
  0
ARC
  5
1F124
  8
0
 10
5146.3653105197627156
 20
648.1458446425738202
 30
0.0
 40
2.386226959492423
 50
323.991820967436297
 51
2.5416488599798881
  0
ARC
  5
1F125
  8
0
 10
5146.7326538435800103
 20
648.010352344256944
 30
0.0
 40
2.0122275171159072
 50
264.8159906365193024
 51
320.9620144327819276
  0
ARC
  5
1F126
  8
0
 10
5145.8364864703089552
 20
648.7485034521721445
 30
0.0
 40
2.0251786495101558
 50
276.6358822918792839
 51
345.7985496229816249
  0
LINE
  5
1F127
  8
0
 10
5146.07051458019032
 20
646.7368923051154752
 30
0.0
 11
5145.883227925052779
 21
646.7489701510917257
 31
0.0
  0
LINE
  5
1F128
  8
0
 10
5145.883227925052779
 20
646.7489701510917257
 30
0.0
 11
5145.0747019934069613
 21
646.7271053314284472
 31
0.0
  0
ARC
  5
1F129
  8
0
 10
5141.6050164200396466
 20
580.9403091656879496
 30
0.0
 40
65.8696196413081765
 50
89.3220630463602276
 51
91.1187982009838464
  0
ARC
  5
1F12A
  8
0
 10
5142.0460384937514391
 20
618.4716617579482545
 30
0.0
 40
28.3356762586986015
 50
86.0220537424223579
 51
89.3158390035038536
  0
ARC
  5
1F12B
  8
0
 10
5144.6677535646022079
 20
657.7936856260023433
 30
0.0
 40
11.0740600702705692
 50
266.603959047542503
 51
272.1059736244329201
  0
ARC
  5
1F12C
  8
0
 10
5140.050763099845426
 20
646.9234016008398385
 30
0.0
 40
0.1600000267086742
 50
359.9996752382738237
 51
88.8741352797455164
  0
LINE
  5
1F12D
  8
0
 10
5140.2107631265507734
 20
646.9234006939338997
 30
0.0
 11
5140.2107630592518035
 21
646.9073604917673492
 31
0.0
  0
ARC
  5
1F12E
  8
0
 10
5146.4076651723453324
 20
646.2517525230540514
 30
0.0
 40
0.561684349221194
 50
173.9060901317957075
 51
242.6146832207691943
  0
LINE
  5
1F12F
  8
0
 10
5146.1493060608836458
 20
645.7530142372917226
 30
0.0
 11
5146.2723809928966148
 21
645.7530142372917226
 31
0.0
  0
LINE
  5
1F130
  8
0
 10
5145.8491547701569289
 20
646.3113800234816608
 30
0.0
 11
5145.883227925052779
 21
646.7489701510917257
 31
0.0
  0
ENDSEC
  0
EOF
